  0
SECTION
  2
HEADER
  9
$ACADVER
  1
AC1032
  9
$ACADMAINTVER
 90
      329
  9
$DWGCODEPAGE
  3
ANSI_936
  9
$REQUIREDVERSIONS
160
                 0
  9
$INSBASE
 10
0.0
 20
0.0
 30
0.0
  9
$EXTMIN
 10
1.000000000000000E+20
 20
1.000000000000000E+20
 30
1.000000000000000E+20
  9
$EXTMAX
 10
-1.000000000000000E+20
 20
-1.000000000000000E+20
 30
-1.000000000000000E+20
  9
$LIMMIN
 10
0.0
 20
0.0
  9
$LIMMAX
 10
12.0
 20
9.0
  9
$ORTHOMODE
 70
     0
  9
$REGENMODE
 70
     1
  9
$FILLMODE
 70
     1
  9
$QTEXTMODE
 70
     0
  9
$MIRRTEXT
 70
     0
  9
$LTSCALE
 40
1.0
  9
$ATTMODE
 70
     1
  9
$TEXTSIZE
 40
0.2
  9
$TRACEWID
 40
0.05
  9
$TEXTSTYLE
  7
Standard
  9
$CLAYER
  8
0
  9
$CELTYPE
  6
ByLayer
  9
$CECOLOR
 62
   256
  9
$CELTSCALE
 40
1.0
  9
$DISPSILH
 70
     0
  9
$DIMSCALE
 40
1.0
  9
$DIMASZ
 40
0.18
  9
$DIMEXO
 40
0.0625
  9
$DIMDLI
 40
0.38
  9
$DIMRND
 40
0.0
  9
$DIMDLE
 40
0.0
  9
$DIMEXE
 40
0.18
  9
$DIMTP
 40
0.0
  9
$DIMTM
 40
0.0
  9
$DIMTXT
 40
0.18
  9
$DIMCEN
 40
0.09
  9
$DIMTSZ
 40
0.0
  9
$DIMTOL
 70
     0
  9
$DIMLIM
 70
     0
  9
$DIMTIH
 70
     1
  9
$DIMTOH
 70
     1
  9
$DIMSE1
 70
     0
  9
$DIMSE2
 70
     0
  9
$DIMTAD
 70
     0
  9
$DIMZIN
 70
     0
  9
$DIMBLK
  1

  9
$DIMASO
 70
     1
  9
$DIMSHO
 70
     1
  9
$DIMPOST
  1

  9
$DIMAPOST
  1

  9
$DIMALT
 70
     0
  9
$DIMALTD
 70
     2
  9
$DIMALTF
 40
25.4
  9
$DIMLFAC
 40
1.0
  9
$DIMTOFL
 70
     0
  9
$DIMTVP
 40
0.0
  9
$DIMTIX
 70
     0
  9
$DIMSOXD
 70
     0
  9
$DIMSAH
 70
     0
  9
$DIMBLK1
  1

  9
$DIMBLK2
  1

  9
$DIMSTYLE
  2
Standard
  9
$DIMCLRD
 70
     0
  9
$DIMCLRE
 70
     0
  9
$DIMCLRT
 70
     0
  9
$DIMTFAC
 40
1.0
  9
$DIMGAP
 40
0.09
  9
$DIMJUST
 70
     0
  9
$DIMSD1
 70
     0
  9
$DIMSD2
 70
     0
  9
$DIMTOLJ
 70
     1
  9
$DIMTZIN
 70
     0
  9
$DIMALTZ
 70
     0
  9
$DIMALTTZ
 70
     0
  9
$DIMUPT
 70
     0
  9
$DIMDEC
 70
     4
  9
$DIMTDEC
 70
     4
  9
$DIMALTU
 70
     2
  9
$DIMALTTD
 70
     2
  9
$DIMTXSTY
  7
Standard
  9
$DIMAUNIT
 70
     0
  9
$DIMADEC
 70
     0
  9
$DIMALTRND
 40
0.0
  9
$DIMAZIN
 70
     0
  9
$DIMDSEP
 70
    46
  9
$DIMATFIT
 70
     3
  9
$DIMFRAC
 70
     0
  9
$DIMLDRBLK
  1

  9
$DIMLUNIT
 70
     2
  9
$DIMLWD
 70
    -2
  9
$DIMLWE
 70
    -2
  9
$DIMTMOVE
 70
     0
  9
$DIMFXL
 40
1.0
  9
$DIMFXLON
 70
     0
  9
$DIMJOGANG
 40
0.7853981633974483
  9
$DIMTFILL
 70
     0
  9
$DIMTFILLCLR
 70
     0
  9
$DIMARCSYM
 70
     0
  9
$DIMLTYPE
  6

  9
$DIMLTEX1
  6

  9
$DIMLTEX2
  6

  9
$DIMTXTDIRECTION
 70
     0
  9
$LUNITS
 70
     2
  9
$LUPREC
 70
     4
  9
$SKETCHINC
 40
0.1
  9
$FILLETRAD
 40
0.0
  9
$AUNITS
 70
     0
  9
$AUPREC
 70
     0
  9
$MENU
  1
.
  9
$ELEVATION
 40
0.0
  9
$PELEVATION
 40
0.0
  9
$THICKNESS
 40
0.0
  9
$LIMCHECK
 70
     0
  9
$CHAMFERA
 40
0.0
  9
$CHAMFERB
 40
0.0
  9
$CHAMFERC
 40
0.0
  9
$CHAMFERD
 40
0.0
  9
$SKPOLY
 70
     0
  9
$TDCREATE
 40
2460900.572905093
  9
$TDUCREATE
 40
2460900.239571760
  9
$TDUPDATE
 40
2460900.572905093
  9
$TDUUPDATE
 40
2460900.239571760
  9
$TDINDWG
 40
0.0000000000
  9
$TDUSRTIMER
 40
0.0000000000
  9
$USRTIMER
 70
     1
  9
$ANGBASE
 50
0.0
  9
$ANGDIR
 70
     0
  9
$PDMODE
 70
     0
  9
$PDSIZE
 40
0.0
  9
$PLINEWID
 40
0.0
  9
$SPLFRAME
 70
     0
  9
$SPLINETYPE
 70
     6
  9
$SPLINESEGS
 70
     8
  9
$HANDSEED
  5
210
  9
$SURFTAB1
 70
     6
  9
$SURFTAB2
 70
     6
  9
$SURFTYPE
 70
     6
  9
$SURFU
 70
     6
  9
$SURFV
 70
     6
  9
$UCSBASE
  2

  9
$UCSNAME
  2

  9
$UCSORG
 10
0.0
 20
0.0
 30
0.0
  9
$UCSXDIR
 10
1.0
 20
0.0
 30
0.0
  9
$UCSYDIR
 10
0.0
 20
1.0
 30
0.0
  9
$UCSORTHOREF
  2

  9
$UCSORTHOVIEW
 70
     0
  9
$UCSORGTOP
 10
0.0
 20
0.0
 30
0.0
  9
$UCSORGBOTTOM
 10
0.0
 20
0.0
 30
0.0
  9
$UCSORGLEFT
 10
0.0
 20
0.0
 30
0.0
  9
$UCSORGRIGHT
 10
0.0
 20
0.0
 30
0.0
  9
$UCSORGFRONT
 10
0.0
 20
0.0
 30
0.0
  9
$UCSORGBACK
 10
0.0
 20
0.0
 30
0.0
  9
$PUCSBASE
  2

  9
$PUCSNAME
  2

  9
$PUCSORG
 10
0.0
 20
0.0
 30
0.0
  9
$PUCSXDIR
 10
1.0
 20
0.0
 30
0.0
  9
$PUCSYDIR
 10
0.0
 20
1.0
 30
0.0
  9
$PUCSORTHOREF
  2

  9
$PUCSORTHOVIEW
 70
     0
  9
$PUCSORGTOP
 10
0.0
 20
0.0
 30
0.0
  9
$PUCSORGBOTTOM
 10
0.0
 20
0.0
 30
0.0
  9
$PUCSORGLEFT
 10
0.0
 20
0.0
 30
0.0
  9
$PUCSORGRIGHT
 10
0.0
 20
0.0
 30
0.0
  9
$PUCSORGFRONT
 10
0.0
 20
0.0
 30
0.0
  9
$PUCSORGBACK
 10
0.0
 20
0.0
 30
0.0
  9
$USERI1
 70
     0
  9
$USERI2
 70
     0
  9
$USERI3
 70
     0
  9
$USERI4
 70
     0
  9
$USERI5
 70
     0
  9
$USERR1
 40
0.0
  9
$USERR2
 40
0.0
  9
$USERR3
 40
0.0
  9
$USERR4
 40
0.0
  9
$USERR5
 40
0.0
  9
$WORLDVIEW
 70
     1
  9
$SHADEDGE
 70
     3
  9
$SHADEDIF
 70
    70
  9
$TILEMODE
 70
     1
  9
$MAXACTVP
 70
    64
  9
$PINSBASE
 10
0.0
 20
0.0
 30
0.0
  9
$PLIMCHECK
 70
     0
  9
$PEXTMIN
 10
1.000000000000000E+20
 20
1.000000000000000E+20
 30
1.000000000000000E+20
  9
$PEXTMAX
 10
-1.000000000000000E+20
 20
-1.000000000000000E+20
 30
-1.000000000000000E+20
  9
$PLIMMIN
 10
0.0
 20
0.0
  9
$PLIMMAX
 10
12.0
 20
9.0
  9
$UNITMODE
 70
     0
  9
$VISRETAIN
 70
     1
  9
$PLINEGEN
 70
     0
  9
$PSLTSCALE
 70
     1
  9
$TREEDEPTH
 70
  3020
  9
$CMLSTYLE
  2
Standard
  9
$CMLJUST
 70
     0
  9
$CMLSCALE
 40
1.0
  9
$PROXYGRAPHICS
 70
     1
  9
$MEASUREMENT
 70
     0
  9
$CELWEIGHT
370
    -1
  9
$ENDCAPS
280
     0
  9
$JOINSTYLE
280
     0
  9
$LWDISPLAY
290
     1
  9
$INSUNITS
 70
     1
  9
$HYPERLINKBASE
  1

  9
$STYLESHEET
  1

  9
$XEDIT
290
     1
  9
$CEPSNTYPE
380
     0
  9
$PSTYLEMODE
290
     1
  9
$FINGERPRINTGUID
  2
{0E26AE77-4C26-C14D-8AE4-6C9FFA0012DA}
  9
$VERSIONGUID
  2
{F0E5DFF1-6808-E64A-98DA-39B27CD4E7B1}
  9
$EXTNAMES
290
     1
  9
$PSVPSCALE
 40
0.0
  9
$OLESTARTUP
290
     0
  9
$SORTENTS
280
   127
  9
$INDEXCTL
280
     0
  9
$HIDETEXT
280
     1
  9
$XCLIPFRAME
280
     2
  9
$HALOGAP
280
     0
  9
$OBSCOLOR
 70
   257
  9
$OBSLTYPE
280
     0
  9
$INTERSECTIONDISPLAY
280
     0
  9
$INTERSECTIONCOLOR
 70
   257
  9
$DIMASSOC
280
     2
  9
$PROJECTNAME
  1

  9
$CAMERADISPLAY
290
     0
  9
$LENSLENGTH
 40
50.0
  9
$CAMERAHEIGHT
 40
0.0
  9
$STEPSPERSEC
 40
2.0
  9
$STEPSIZE
 40
6.0
  9
$3DDWFPREC
 40
2.0
  9
$PSOLWIDTH
 40
0.25
  9
$PSOLHEIGHT
 40
4.0
  9
$LOFTANG1
 40
1.570796326794896
  9
$LOFTANG2
 40
1.570796326794896
  9
$LOFTMAG1
 40
0.0
  9
$LOFTMAG2
 40
0.0
  9
$LOFTPARAM
 70
     7
  9
$LOFTNORMALS
280
     1
  9
$LATITUDE
 40
37.795
  9
$LONGITUDE
 40
-122.394
  9
$NORTHDIRECTION
 40
0.0
  9
$TIMEZONE
 70
 -8000
  9
$LIGHTGLYPHDISPLAY
280
     1
  9
$TILEMODELIGHTSYNCH
280
     1
  9
$CMATERIAL
347
11
  9
$SOLIDHIST
280
     0
  9
$SHOWHIST
280
     1
  9
$DWFFRAME
280
     2
  9
$DGNFRAME
280
     0
  9
$REALWORLDSCALE
290
     1
  9
$INTERFERECOLOR
 62
     1
  9
$INTERFEREOBJVS
345
33
  9
$INTERFEREVPVS
346
30
  9
$CSHADOW
280
     0
  9
$SHADOWPLANELOCATION
 40
0.0
  0
ENDSEC
  0
SECTION
  2
CLASSES
  0
CLASS
  1
ACDBDICTIONARYWDFLT
  2
AcDbDictionaryWithDefault
  3
ObjectDBX Classes
 90
        0
 91
        1
280
     0
281
     0
  0
CLASS
  1
MATERIAL
  2
AcDbMaterial
  3
ObjectDBX Classes
 90
     1153
 91
        3
280
     0
281
     0
  0
CLASS
  1
VISUALSTYLE
  2
AcDbVisualStyle
  3
ObjectDBX Classes
 90
     4095
 91
       24
280
     0
281
     0
  0
CLASS
  1
SCALE
  2
AcDbScale
  3
ObjectDBX Classes
 90
     1153
 91
       17
280
     0
281
     0
  0
CLASS
  1
TABLESTYLE
  2
AcDbTableStyle
  3
ObjectDBX Classes
 90
     4095
 91
        1
280
     0
281
     0
  0
CLASS
  1
MLEADERSTYLE
  2
AcDbMLeaderStyle
  3
ACDB_MLEADERSTYLE_CLASS
 90
     4095
 91
        1
280
     0
281
     0
  0
CLASS
  1
ACDBSECTIONVIEWSTYLE
  2
AcDbSectionViewStyle
  3
ObjectDBX Classes
 90
     1025
 91
        1
280
     0
281
     0
  0
CLASS
  1
ACDBDETAILVIEWSTYLE
  2
AcDbDetailViewStyle
  3
ObjectDBX Classes
 90
     1025
 91
        1
280
     0
281
     0
  0
CLASS
  1
DICTIONARYVAR
  2
AcDbDictionaryVar
  3
ObjectDBX Classes
 90
        0
 91
        5
280
     0
281
     0
  0
CLASS
  1
CELLSTYLEMAP
  2
AcDbCellStyleMap
  3
ObjectDBX Classes
 90
     1152
 91
        1
280
     0
281
     0
  0
ENDSEC
  0
SECTION
  2
TABLES
  0
TABLE
  2
VPORT
  5
8
330
0
100
AcDbSymbolTable
 70
     1
  0
VPORT
  5
57
330
8
100
AcDbSymbolTableRecord
100
AcDbViewportTableRecord
  2
*Active
 70
     0
 10
0.0
 20
0.0
 11
1.0
 21
1.0
 12
0.0
 22
0.0
 13
0.0
 23
0.0
 14
1.0
 24
1.0
 15
0.0
 25
0.0
 16
0.0
 26
0.0
 36
1.0
 17
10.0
 27
-8.5
 37
0.0
 40
17.34
 41
1.176470588235293
 42
50.0
 43
0.0
 44
0.0
 50
0.0
 51
0.0
 71
     0
 72
   100
 73
     1
 74
     1
 75
     0
 76
     0
 77
     0
 78
     0
281
     0
 65
     1
110
0.0
120
0.0
130
0.0
111
1.0
121
0.0
131
0.0
112
0.0
122
1.0
132
0.0
 79
     0
146
0.0
 60
     3
 61
     5
292
     1
282
     1
141
0.0
142
0.0
 63
   250
421
  3355443
  0
ENDTAB
  0
TABLE
  2
LTYPE
  5
5
330
0
100
AcDbSymbolTable
 70
     1
  0
LTYPE
  5
5B
330
5
100
AcDbSymbolTableRecord
100
AcDbLinetypeTableRecord
  2
ByBlock
 70
     0
  3

 72
    65
 73
     0
 40
0.0
  0
LTYPE
  5
5C
330
5
100
AcDbSymbolTableRecord
100
AcDbLinetypeTableRecord
  2
ByLayer
 70
     0
  3

 72
    65
 73
     0
 40
0.0
  0
LTYPE
  5
5D
330
5
100
AcDbSymbolTableRecord
100
AcDbLinetypeTableRecord
  2
Continuous
 70
     0
  3
Solid line
 72
    65
 73
     0
 40
0.0
  0
ENDTAB
  0
TABLE
  2
LAYER
  5
2
330
0
100
AcDbSymbolTable
 70
     2
  0
LAYER
  5
54
330
2
100
AcDbSymbolTableRecord
100
AcDbLayerTableRecord
  2
0
 70
     0
 62
     7
  6
Continuous
370
    -3
390
F
347
21
348
0
  0
LAYER
  5
78
330
2
100
AcDbSymbolTableRecord
100
AcDbLayerTableRecord
  2
Layer 1
 70
     0
 62
     7
  6
Continuous
370
     0
390
F
347
21
348
0
  0
ENDTAB
  0
TABLE
  2
STYLE
  5
3
330
0
100
AcDbSymbolTable
 70
     2
  0
STYLE
  5
55
330
3
100
AcDbSymbolTableRecord
100
AcDbTextStyleTableRecord
  2
Standard
 70
     0
 40
0.0
 41
1.0
 50
0.0
 71
     0
 42
0.2
  3
txt
  4

  0
STYLE
  5
5A
330
3
100
AcDbSymbolTableRecord
100
AcDbTextStyleTableRecord
  2
Annotative
 70
     0
 40
0.0
 41
1.0
 50
0.0
 71
     0
 42
0.2
  3
txt
  4

1001
AcadAnnotative
1000
AnnotativeData
1002
{
1070
     1
1070
     1
1002
}
  0
ENDTAB
  0
TABLE
  2
VIEW
  5
6
330
0
100
AcDbSymbolTable
 70
     0
  0
ENDTAB
  0
TABLE
  2
UCS
  5
7
330
0
100
AcDbSymbolTable
 70
     0
  0
ENDTAB
  0
TABLE
  2
APPID
  5
9
330
0
100
AcDbSymbolTable
 70
     2
  0
APPID
  5
56
330
9
100
AcDbSymbolTableRecord
100
AcDbRegAppTableRecord
  2
ACAD
 70
     0
  0
APPID
  5
5E
330
9
100
AcDbSymbolTableRecord
100
AcDbRegAppTableRecord
  2
AcadAnnotative
 70
     0
  0
ENDTAB
  0
TABLE
  2
DIMSTYLE
  5
A
330
0
100
AcDbSymbolTable
 70
     2
100
AcDbDimStyleTable
 71
     0
  0
DIMSTYLE
105
58
330
A
100
AcDbSymbolTableRecord
100
AcDbDimStyleTableRecord
  2
Standard
 70
     0
340
55
  0
DIMSTYLE
105
59
330
A
100
AcDbSymbolTableRecord
100
AcDbDimStyleTableRecord
  2
Annotative
 70
     0
340
55
1001
AcadAnnotative
1000
AnnotativeData
1002
{
1070
     1
1070
     1
1002
}
  0
ENDTAB
  0
TABLE
  2
BLOCK_RECORD
  5
1
330
0
100
AcDbSymbolTable
 70
     1
  0
BLOCK_RECORD
  5
70
330
1
100
AcDbSymbolTableRecord
100
AcDbBlockTableRecord
  2
*Model_Space
340
73
 70
     0
280
     1
281
     0
  0
BLOCK_RECORD
  5
6C
330
1
100
AcDbSymbolTableRecord
100
AcDbBlockTableRecord
  2
*Paper_Space
340
6F
 70
     0
280
     1
281
     0
  0
BLOCK_RECORD
  5
74
330
1
100
AcDbSymbolTableRecord
100
AcDbBlockTableRecord
  2
*Paper_Space0
340
77
 70
     0
280
     1
281
     0
  0
ENDTAB
  0
ENDSEC
  0
SECTION
  2
BLOCKS
  0
BLOCK
  5
71
330
70
100
AcDbEntity
  8
0
100
AcDbBlockBegin
  2
*Model_Space
 70
     0
 10
0.0
 20
0.0
 30
0.0
  3
*Model_Space
  1

  0
ENDBLK
  5
72
330
70
100
AcDbEntity
  8
0
100
AcDbBlockEnd
  0
BLOCK
  5
6D
330
6C
100
AcDbEntity
 67
     1
  8
0
100
AcDbBlockBegin
  2
*Paper_Space
 70
     0
 10
0.0
 20
0.0
 30
0.0
  3
*Paper_Space
  1

  0
ENDBLK
  5
6E
330
6C
100
AcDbEntity
 67
     1
  8
0
100
AcDbBlockEnd
  0
BLOCK
  5
75
330
74
100
AcDbEntity
 67
     1
  8
0
100
AcDbBlockBegin
  2
*Paper_Space0
 70
     0
 10
0.0
 20
0.0
 30
0.0
  3
*Paper_Space0
  1

  0
ENDBLK
  5
76
330
74
100
AcDbEntity
 67
     1
  8
0
100
AcDbBlockEnd
  0
ENDSEC
  0
SECTION
  2
ENTITIES
  0
LINE
  5
79
330
70
100
AcDbEntity
  8
Layer 1
 62
    18
420
        0
370
     5
100
AcDbLine
 10
4.407668241531092
 20
-15.96666045179851
 30
0.0
 11
4.407668241531092
 21
-12.87293049020763
 31
0.0
  0
LINE
  5
7A
330
70
100
AcDbEntity
  8
Layer 1
 62
    18
420
        0
370
     5
100
AcDbLine
 10
4.417565841327927
 20
-13.8386764954841
 30
0.0
 11
4.417565841327927
 21
-12.59193901902583
 31
0.0
  0
LINE
  5
7B
330
70
100
AcDbEntity
  8
Layer 1
 62
    18
420
        0
370
     5
100
AcDbLine
 10
4.714493835232233
 20
-12.59193901902583
 30
0.0
 11
4.714493835232233
 21
-13.8386764954841
 31
0.0
  0
LINE
  5
7C
330
70
100
AcDbEntity
  8
Layer 1
 62
    18
420
        0
370
     5
100
AcDbLine
 10
4.72439143502907
 20
-15.96666045179851
 30
0.0
 11
4.72439143502907
 21
-12.87293049020763
 31
0.0
  0
LINE
  5
7D
330
70
100
AcDbEntity
  8
Layer 1
 62
    18
420
        0
370
     5
100
AcDbLine
 10
4.684801035841815
 20
-16.00625085098568
 30
0.0
 11
4.447258640718359
 21
-16.00625085098568
 31
0.0
  0
LINE
  5
7E
330
70
100
AcDbEntity
  8
Layer 1
 62
    18
420
        0
370
     5
100
AcDbLine
 10
4.684801035841815
 20
-15.90727485301765
 30
0.0
 11
4.72439143502907
 21
-15.90727485301765
 31
0.0
  0
LINE
  5
7F
330
70
100
AcDbEntity
  8
Layer 1
 62
    18
420
        0
370
     5
100
AcDbLine
 10
4.674903436045004
 20
-13.87826689467132
 30
0.0
 11
4.457156240515157
 21
-13.87826689467132
 31
0.0
  0
LINE
  5
80
330
70
100
AcDbEntity
  8
Layer 1
 62
    18
420
        0
370
     5
100
AcDbLine
 10
1.101869909396163
 20
-1.324979157738539
 30
0.0
 11
1.105755643731754
 21
-1.547592731399352
 31
0.0
  0
LINE
  5
81
330
70
100
AcDbEntity
  8
Layer 1
 62
    18
420
        0
370
     5
100
AcDbLine
 10
4.013205456485871
 20
-7.272014477814384
 30
0.0
 11
5.118854220074303
 21
-7.272014477814384
 31
0.0
  0
LINE
  5
82
330
70
100
AcDbEntity
  8
Layer 1
 62
    18
420
        0
370
     5
100
AcDbLine
 10
3.205109866218561
 20
-2.119526154851933
 30
0.0
 11
3.205109866218561
 21
-1.829756747375881
 31
0.0
  0
LINE
  5
83
330
70
100
AcDbEntity
  8
Layer 1
 62
    18
420
        0
370
     5
100
AcDbLine
 10
4.147889197063275
 20
-6.577181898108758
 30
0.0
 11
4.98417047939794
 21
-6.577181898108758
 31
0.0
  0
LINE
  5
84
330
70
100
AcDbEntity
  8
Layer 1
 62
    18
420
        0
370
     5
100
AcDbLine
 10
4.090821716516479
 20
-6.550911850454844
 30
0.0
 11
5.041237960043682
 21
-6.550911850454844
 31
0.0
  0
LINE
  5
85
330
70
100
AcDbEntity
  8
Layer 1
 62
    18
420
        0
370
     5
100
AcDbLine
 10
3.432754661545206
 20
-2.542737870420169
 30
0.0
 11
3.432754661545206
 21
-2.318340168781724
 31
0.0
  0
LINE
  5
86
330
70
100
AcDbEntity
  8
Layer 1
 62
    18
420
        0
370
     5
100
AcDbLine
 10
3.561423458903732
 20
-4.850739481405412
 30
0.0
 11
3.561423458903732
 21
-2.680950329901671
 31
0.0
  0
LINE
  5
87
330
70
100
AcDbEntity
  8
Layer 1
 62
    18
420
        0
370
     5
100
AcDbLine
 10
3.535194819442204
 20
-1.790166348188651
 30
0.0
 11
3.536925122193628
 21
-1.691037371037522
 31
0.0
  0
LINE
  5
88
330
70
100
AcDbEntity
  8
Layer 1
 62
    18
420
        0
370
     5
100
AcDbLine
 10
5.591851208541608
 20
-6.299918329583268
 30
0.0
 11
5.177687938983997
 21
-6.311777920195329
 31
0.0
  0
LINE
  5
89
330
70
100
AcDbEntity
  8
Layer 1
 62
    18
420
        0
370
     5
100
AcDbLine
 10
5.177687938983997
 20
-6.311777920195329
 30
0.0
 11
3.954371737576163
 21
-6.311777920195329
 31
0.0
  0
LINE
  5
8A
330
70
100
AcDbEntity
  8
Layer 1
 62
    18
420
        0
370
     5
100
AcDbLine
 10
3.540208468018565
 20
-6.299918329583268
 30
0.0
 11
3.954371737576163
 21
-6.311777920195329
 31
0.0
  0
LINE
  5
8B
330
70
100
AcDbEntity
  8
Layer 1
 62
    18
420
        0
370
     5
100
AcDbLine
 10
3.858351452808089
 20
-4.932654283676217
 30
0.0
 11
3.858351452808089
 21
-4.898020911470275
 31
0.0
  0
LINE
  5
8C
330
70
100
AcDbEntity
  8
Layer 1
 62
    18
420
        0
370
     5
100
AcDbLine
 10
5.532545668179295
 20
-4.890301460030741
 30
0.0
 11
5.301497276336905
 21
-4.898012684387354
 31
0.0
  0
LINE
  5
8D
330
70
100
AcDbEntity
  8
Layer 1
 62
    18
420
        0
370
     5
100
AcDbLine
 10
3.830562400223268
 20
-4.898012684387354
 30
0.0
 11
5.301497276336905
 21
-4.898012684387354
 31
0.0
  0
LINE
  5
8E
330
70
100
AcDbEntity
  8
Layer 1
 62
    18
420
        0
370
     5
100
AcDbLine
 10
3.599514008380904
 20
-4.890301460030741
 30
0.0
 11
3.830562400223268
 21
-4.898012684387354
 31
0.0
  0
LINE
  5
8F
330
70
100
AcDbEntity
  8
Layer 1
 62
    18
420
        0
370
     5
100
AcDbLine
 10
5.273708223752085
 20
-4.932654283676217
 30
0.0
 11
5.273708223752085
 21
-4.898020911470275
 31
0.0
  0
LINE
  5
90
330
70
100
AcDbEntity
  8
Layer 1
 62
    18
420
        0
370
     5
100
AcDbLine
 10
5.596864857117958
 20
-1.790166348188651
 30
0.0
 11
5.595139218016596
 21
-1.691304549419846
 31
0.0
  0
LINE
  5
91
330
70
100
AcDbEntity
  8
Layer 1
 62
    18
420
        0
370
     5
100
AcDbLine
 10
5.570636217656442
 20
-4.850739481405412
 30
0.0
 11
5.570636217656442
 21
-2.680950329901671
 31
0.0
  0
LINE
  5
92
330
70
100
AcDbEntity
  8
Layer 1
 62
    18
420
        0
370
     5
100
AcDbLine
 10
5.699305015014967
 20
-2.542737870420169
 30
0.0
 11
5.699305015014967
 21
-2.318340168781724
 31
0.0
  0
LINE
  5
93
330
70
100
AcDbEntity
  8
Layer 1
 62
    18
420
        0
370
     5
100
AcDbLine
 10
5.926949810341612
 20
-2.119526154851933
 30
0.0
 11
5.926949810341612
 21
-1.829756747375881
 31
0.0
  0
LINE
  5
94
330
70
100
AcDbEntity
  8
Layer 1
 62
    18
420
        0
370
     5
100
AcDbLine
 10
5.662542501526369
 20
-2.582227144543594
 30
0.0
 11
3.469517175033804
 21
-2.582227144543594
 31
0.0
  0
LINE
  5
95
330
70
100
AcDbEntity
  8
Layer 1
 62
    18
420
        0
370
     5
100
AcDbLine
 10
5.830648803909538
 20
-2.218465998174666
 30
0.0
 11
5.795679989377579
 21
-2.219398353362231
 31
0.0
  0
LINE
  5
96
330
70
100
AcDbEntity
  8
Layer 1
 62
    18
420
        0
370
     5
100
AcDbLine
 10
5.795679989377579
 20
-2.219398353362231
 30
0.0
 11
3.33637968718262
 21
-2.219398353362231
 31
0.0
  0
LINE
  5
97
330
70
100
AcDbEntity
  8
Layer 1
 62
    18
420
        0
370
     5
100
AcDbLine
 10
3.301410872650636
 20
-2.218465998174666
 30
0.0
 11
3.33637968718262
 21
-2.219398353362231
 31
0.0
  0
LINE
  5
98
330
70
100
AcDbEntity
  8
Layer 1
 62
    18
420
        0
370
     5
100
AcDbLine
 10
8.03018976716401
 20
-1.324979157738539
 30
0.0
 11
8.02630403282842
 21
-1.547592731399352
 31
0.0
  0
LINE
  5
99
330
70
100
AcDbEntity
  8
Layer 1
 62
    18
420
        0
370
     5
100
AcDbLine
 10
3.244715732978849
 20
-1.790166348188651
 30
0.0
 11
5.887359411154382
 21
-1.790166348188651
 31
0.0
  0
LINE
  5
9A
330
70
100
AcDbEntity
  8
Layer 1
 62
    18
420
        0
370
     5
100
AcDbLine
 10
1.201696278852169
 20
-1.644795266647482
 30
0.0
 11
3.505311570733397
 21
-1.691036454915698
 31
0.0
  0
LINE
  5
9B
330
70
100
AcDbEntity
  8
Layer 1
 62
    18
420
        0
370
     5
100
AcDbLine
 10
7.930363397708029
 20
-1.644795266647482
 30
0.0
 11
5.626748105826777
 21
-1.691036454915698
 31
0.0
  0
LINE
  5
9C
330
70
100
AcDbEntity
  8
Layer 1
 62
    18
420
        0
370
     5
100
AcDbLine
 10
3.505311570733397
 20
-1.691036454915698
 30
0.0
 11
5.626748105826777
 21
-1.691036454915698
 31
0.0
  0
LINE
  5
9D
330
70
100
AcDbEntity
  8
Layer 1
 62
    18
420
        0
370
     5
100
AcDbLine
 10
1.101906123031224
 20
-1.324979157738539
 30
0.0
 11
8.030153553528936
 21
-1.324979157738539
 31
0.0
  0
LINE
  5
9E
330
70
100
AcDbEntity
  8
Layer 1
 62
    18
420
        0
370
     5
100
AcDbLine
 10
12.94028377340525
 20
-12.59193901902583
 30
0.0
 11
12.94028377340525
 21
-13.77929089670321
 31
0.0
  0
LINE
  5
9F
330
70
100
AcDbEntity
  8
Layer 1
 62
    18
420
        0
370
     5
100
AcDbLine
 10
12.95116207945132
 20
-11.2469465555467
 30
0.0
 11
12.95116207945132
 21
-11.79977093734093
 31
0.0
  0
LINE
  5
A0
330
70
100
AcDbEntity
  8
Layer 1
 62
    18
420
        0
370
     5
100
AcDbLine
 10
12.95116207945132
 20
-11.2469465555467
 30
0.0
 11
12.9576542061475
 21
-11.10639089800616
 31
0.0
  0
LINE
  5
A1
330
70
100
AcDbEntity
  8
Layer 1
 62
    18
420
        0
370
     5
100
AcDbLine
 10
13.64599465915696
 20
-11.38163029612416
 30
0.0
 11
13.64599465915696
 21
-11.79977093734093
 31
0.0
  0
LINE
  5
A2
330
70
100
AcDbEntity
  8
Layer 1
 62
    18
420
        0
370
     5
100
AcDbLine
 10
13.65202805565882
 20
-13.77929089670321
 30
0.0
 11
13.65202805565882
 21
-12.59193901902583
 31
0.0
  0
LINE
  5
A3
330
70
100
AcDbEntity
  8
Layer 1
 62
    18
420
        0
370
     5
100
AcDbLine
 10
13.67226470681084
 20
-11.32456281557736
 30
0.0
 11
13.67226470681084
 21
-12.27497905910453
 31
0.0
  0
LINE
  5
A4
330
70
100
AcDbEntity
  8
Layer 1
 62
    18
420
        0
370
     5
100
AcDbLine
 10
13.63465762291667
 20
-11.10639089800616
 30
0.0
 11
13.64599465915696
 21
-11.38163029612416
 31
0.0
  0
LINE
  5
A5
330
70
100
AcDbEntity
  8
Layer 1
 62
    18
420
        0
370
     5
100
AcDbLine
 10
13.91139863707035
 20
-12.41142903804489
 30
0.0
 11
13.91139863707035
 21
-11.18811283663707
 31
0.0
  0
LINE
  5
A6
330
70
100
AcDbEntity
  8
Layer 1
 62
    18
420
        0
370
     5
100
AcDbLine
 10
14.3354038931972
 20
-15.90727485301765
 30
0.0
 11
14.3354038931972
 21
-12.85711304451853
 31
0.0
  0
LINE
  5
A7
330
70
100
AcDbEntity
  8
Layer 1
 62
    18
420
        0
370
     5
100
AcDbLine
 10
15.21629027511345
 20
-15.90727485301765
 30
0.0
 11
15.21629027511345
 21
-12.85711304441957
 31
0.0
  0
LINE
  5
A8
330
70
100
AcDbEntity
  8
Layer 1
 62
    18
420
        0
370
     5
100
AcDbLine
 10
15.32516387287837
 20
-11.06430349928418
 30
0.0
 11
15.32516387287837
 21
-12.53523837539776
 31
0.0
  0
LINE
  5
A9
330
70
100
AcDbEntity
  8
Layer 1
 62
    18
420
        0
370
     5
100
AcDbLine
 10
17.64094941262318
 20
-12.89628360048828
 30
0.0
 11
17.64094941262318
 21
-10.7032582740946
 31
0.0
  0
LINE
  5
AA
330
70
100
AcDbEntity
  8
Layer 1
 62
    18
420
        0
370
     5
100
AcDbLine
 10
15.11731427714534
 20
-16.00625085098568
 30
0.0
 11
14.43437989116531
 21
-16.00625085098568
 31
0.0
  0
LINE
  5
AB
330
70
100
AcDbEntity
  8
Layer 1
 62
    18
420
        0
370
     5
100
AcDbLine
 10
18.00377820390349
 20
-13.02942108843844
 30
0.0
 11
18.00377820390349
 21
-10.57012078624342
 31
0.0
  0
LINE
  5
AC
330
70
100
AcDbEntity
  8
Layer 1
 62
    18
420
        0
370
     5
100
AcDbLine
 10
18.00471055909105
 20
-10.53515197171143
 30
0.0
 11
18.00471055909105
 21
-13.06438990297038
 31
0.0
  0
LINE
  5
AD
330
70
100
AcDbEntity
  8
Layer 1
 62
    18
420
        0
370
     5
100
AcDbLine
 10
18.43301020907711
 20
-13.12110051021523
 30
0.0
 11
18.43301020907711
 21
-10.47844136446663
 31
0.0
  0
LINE
  5
AE
330
70
100
AcDbEntity
  8
Layer 1
 62
    18
420
        0
370
     5
100
AcDbLine
 10
18.53214010234999
 20
-10.73905266979422
 30
0.0
 11
18.53214010234999
 21
-12.86048920488765
 31
0.0
  0
LINE
  5
AF
330
70
100
AcDbEntity
  8
Layer 1
 62
    18
420
        0
370
     5
100
AcDbLine
 10
18.83881180074634
 20
-15.26289428673807
 30
0.0
 11
18.83914668316513
 21
-15.26289301182831
 31
0.0
  0
LINE
  5
B0
330
70
100
AcDbEntity
  8
Layer 1
 62
    18
420
        0
370
     5
100
AcDbLine
 10
18.83881180074634
 20
-15.26289428673807
 30
0.0
 11
18.6755838258664
 21
-15.26004513179032
 31
0.0
  0
LINE
  5
B1
330
70
100
AcDbEntity
  8
Layer 1
 62
    18
420
        0
370
     5
100
AcDbLine
 10
18.89819739952721
 20
-8.335611008457034
 30
0.0
 11
18.89819739952721
 21
-15.26342180940795
 31
0.0
  0
LINE
  5
B2
330
70
100
AcDbEntity
  8
Layer 1
 62
    18
420
        0
370
     5
100
AcDbLine
 10
13.03926042708937
 20
-13.87826689467132
 30
0.0
 11
13.5530514019747
 21
-13.87826689467132
 31
0.0
  0
LINE
  5
B3
330
70
100
AcDbEntity
  8
Layer 1
 62
    18
420
        0
370
     5
100
AcDbLine
 10
18.39341980988981
 20
-13.16069090940252
 30
0.0
 11
18.10365040241378
 21
-13.16069090940252
 31
0.0
  0
LINE
  5
B4
330
70
100
AcDbEntity
  8
Layer 1
 62
    18
420
        0
370
     5
100
AcDbLine
 10
18.53214010234999
 20
-12.82887563749227
 30
0.0
 11
18.43301020907711
 21
-12.83060595617886
 31
0.0
  0
LINE
  5
B5
330
70
100
AcDbEntity
  8
Layer 1
 62
    18
420
        0
370
     5
100
AcDbLine
 10
17.90483638838496
 20
-12.93304611407585
 30
0.0
 11
17.68043868674653
 21
-12.93304611407585
 31
0.0
  0
LINE
  5
B6
330
70
100
AcDbEntity
  8
Layer 1
 62
    18
420
        0
370
     5
100
AcDbLine
 10
13.96282316034548
 20
-12.86376291549823
 30
0.0
 11
14.17045889418573
 21
-12.86376291549823
 31
0.0
  0
LINE
  5
B7
330
70
100
AcDbEntity
  8
Layer 1
 62
    18
420
        0
370
     5
100
AcDbLine
 10
17.54222622736405
 20
-12.80437731671729
 30
0.0
 11
15.37243707586029
 21
-12.80437731671729
 31
0.0
  0
LINE
  5
B8
330
70
100
AcDbEntity
  8
Layer 1
 62
    18
420
        0
370
     5
100
AcDbLine
 10
15.32516387287837
 20
-12.50744932281294
 30
0.0
 11
15.29052227358953
 21
-12.50744932281294
 31
0.0
  0
LINE
  5
B9
330
70
100
AcDbEntity
  8
Layer 1
 62
    18
420
        0
370
     5
100
AcDbLine
 10
12.98101052265656
 20
-12.49746459068405
 30
0.0
 11
13.61130130749628
 21
-12.49746459068405
 31
0.0
  0
LINE
  5
BA
330
70
100
AcDbEntity
  8
Layer 1
 62
    18
420
        0
370
     5
100
AcDbLine
 10
13.81244526956829
 20
-12.31456945829182
 30
0.0
 11
13.71185510599808
 21
-12.31456945829182
 31
0.0
  0
LINE
  5
BB
330
70
100
AcDbEntity
  8
Layer 1
 62
    18
420
        0
370
     5
100
AcDbLine
 10
12.88045672306594
 20
-12.29564068716116
 30
0.0
 11
12.79033906781018
 21
-12.29564068716116
 31
0.0
  0
LINE
  5
BC
330
70
100
AcDbEntity
  8
Layer 1
 62
    18
420
        0
370
     5
100
AcDbLine
 10
12.79033906781018
 20
-11.30390118752072
 30
0.0
 11
12.89182625767939
 21
-11.30390118752072
 31
0.0
  0
LINE
  5
BD
330
70
100
AcDbEntity
  8
Layer 1
 62
    18
420
        0
370
     5
100
AcDbLine
 10
13.71185510599808
 20
-11.28497241639007
 30
0.0
 11
13.81244526956829
 21
-11.28497241639007
 31
0.0
  0
LINE
  5
BE
330
70
100
AcDbEntity
  8
Layer 1
 62
    18
420
        0
370
     5
100
AcDbLine
 10
15.32516387287837
 20
-11.09209255186894
 30
0.0
 11
15.29052227358953
 21
-11.09209255186894
 31
0.0
  0
LINE
  5
BF
330
70
100
AcDbEntity
  8
Layer 1
 62
    18
420
        0
370
     5
100
AcDbLine
 10
17.54222622736405
 20
-10.79516455796465
 30
0.0
 11
15.37243707586029
 21
-10.79516455796465
 31
0.0
  0
LINE
  5
C0
330
70
100
AcDbEntity
  8
Layer 1
 62
    18
420
        0
370
     5
100
AcDbLine
 10
14.17045889418573
 20
-10.73577895918376
 30
0.0
 11
13.96282316034548
 21
-10.73577895918376
 31
0.0
  0
LINE
  5
C1
330
70
100
AcDbEntity
  8
Layer 1
 62
    18
420
        0
370
     5
100
AcDbLine
 10
17.68043868674653
 20
-10.66649576060601
 30
0.0
 11
17.90483638838496
 21
-10.66649576060601
 31
0.0
  0
LINE
  5
C2
330
70
100
AcDbEntity
  8
Layer 1
 62
    18
420
        0
370
     5
100
AcDbLine
 10
18.39341980988981
 20
-10.43885096527939
 30
0.0
 11
18.10365040241378
 21
-10.43885096527939
 31
0.0
  0
LINE
  5
C3
330
70
100
AcDbEntity
  8
Layer 1
 62
    18
420
        0
370
     5
100
AcDbLine
 10
18.53214010234999
 20
-10.77066623718962
 30
0.0
 11
18.43301020907711
 21
-10.76893591850305
 31
0.0
  0
LINE
  5
C4
330
70
100
AcDbEntity
  8
Layer 1
 62
    18
420
        0
370
     5
100
AcDbLine
 10
18.89819739952721
 20
-8.335611008457034
 30
0.0
 11
18.6755838258664
 21
-8.339496742792611
 31
0.0
  0
SPLINE
  5
C5
330
70
100
AcDbEntity
  8
Layer 1
 62
    18
420
        0
370
     5
100
AcDbSpline
210
0.0
220
0.0
230
1.0
 70
     8
 71
     3
 72
     8
 73
     4
 74
     0
 42
0.0000000001
 43
0.0000000001
 40
0.0
 40
0.0
 40
0.0
 40
0.0
 40
1.0
 40
1.0
 40
1.0
 40
1.0
 10
4.417565841327927
 20
-13.8386764954841
 30
0.0
 10
4.417565841327927
 20
-13.86054166919487
 30
0.0
 10
4.435291066804312
 20
-13.87826689467132
 30
0.0
 10
4.457156240515157
 20
-13.87826689467132
 30
0.0
  0
SPLINE
  5
C6
330
70
100
AcDbEntity
  8
Layer 1
 62
    18
420
        0
370
     5
100
AcDbSpline
210
0.0
220
0.0
230
1.0
 70
     8
 71
     3
 72
     8
 73
     4
 74
     0
 42
0.0000000001
 43
0.0000000001
 40
0.0
 40
0.0
 40
0.0
 40
0.0
 40
1.0
 40
1.0
 40
1.0
 40
1.0
 10
4.407668241531092
 20
-15.96666045179851
 30
0.0
 10
4.407668241531092
 20
-15.98852562550931
 30
0.0
 10
4.425393467007526
 20
-16.00625085098568
 30
0.0
 10
4.447258640718359
 20
-16.00625085098568
 30
0.0
  0
SPLINE
  5
C7
330
70
100
AcDbEntity
  8
Layer 1
 62
    18
420
        0
370
     5
100
AcDbSpline
210
0.0
220
0.0
230
1.0
 70
     8
 71
     3
 72
    17
 73
    13
 74
     0
 42
0.0000000001
 43
0.0000000001
 40
0.0
 40
0.0
 40
0.0
 40
0.0
 40
1.0
 40
1.0
 40
1.0
 40
2.0
 40
2.0
 40
2.0
 40
3.0
 40
3.0
 40
3.0
 40
4.0
 40
4.0
 40
4.0
 40
4.0
 10
4.724516284186645
 20
-15.26030356388113
 30
0.0
 10
6.635715680116681
 20
-15.17277391675204
 30
0.0
 10
8.114092111949338
 20
-13.55248388736441
 30
0.0
 10
8.026562464820232
 20
-11.64128449143438
 30
0.0
 10
7.939032817691175
 20
-9.730085095504337
 30
0.0
 10
6.318742788303564
 20
-8.251708663671706
 30
0.0
 10
4.407543392373528
 20
-8.339238310800787
 30
0.0
 10
2.496343996443493
 20
-8.42676795792987
 30
0.0
 10
1.017967564610861
 20
-10.04705798731745
 30
0.0
 10
1.105497211739917
 20
-11.9582573832475
 30
0.0
 10
1.187413872199676
 20
-13.74689788532103
 30
0.0
 10
2.618902890300015
 20
-15.17838690342137
 30
0.0
 10
4.407543392373528
 20
-15.26030356388113
 30
0.0
  0
SPLINE
  5
C8
330
70
100
AcDbEntity
  8
Layer 1
 62
    18
420
        0
370
     5
100
AcDbSpline
210
0.0
220
0.0
230
1.0
 70
     8
 71
     3
 72
    17
 73
    13
 74
     0
 42
0.0000000001
 43
0.0000000001
 40
0.0
 40
0.0
 40
0.0
 40
0.0
 40
1.0
 40
1.0
 40
1.0
 40
2.0
 40
2.0
 40
2.0
 40
3.0
 40
3.0
 40
3.0
 40
4.0
 40
4.0
 40
4.0
 40
4.0
 10
4.724398484510238
 20
-15.16037500074746
 30
0.0
 10
6.580408858949049
 20
-15.07291041258317
 30
0.0
 10
8.014098489850855
 20
-13.49741266554962
 30
0.0
 10
7.926633901686563
 20
-11.6414022911108
 30
0.0
 10
7.839169313522283
 20
-9.78539191667197
 30
0.0
 10
6.263671566488735
 20
-8.351702285770191
 30
0.0
 10
4.407661192049936
 20
-8.439166873934457
 30
0.0
 10
2.551650817611124
 20
-8.526631462098748
 30
0.0
 10
1.117961186709319
 20
-10.10212920913237
 30
0.0
 10
1.205425774873598
 20
-11.95813958357116
 30
0.0
 10
1.287120807102155
 20
-13.691719201777
 30
0.0
 10
2.674081577512374
 20
-15.07867997063555
 30
0.0
 10
4.407661195809623
 20
-15.16037500092463
 30
0.0
  0
SPLINE
  5
C9
330
70
100
AcDbEntity
  8
Layer 1
 62
    18
420
        0
370
     5
100
AcDbSpline
210
0.0
220
0.0
230
1.0
 70
     8
 71
     3
 72
    17
 73
    13
 74
     0
 42
0.0000000001
 43
0.0000000001
 40
0.0
 40
0.0
 40
0.0
 40
0.0
 40
1.0
 40
1.0
 40
1.0
 40
2.0
 40
2.0
 40
2.0
 40
3.0
 40
3.0
 40
3.0
 40
4.0
 40
4.0
 40
4.0
 40
4.0
 10
4.724436454631169
 20
-13.15144046583239
 30
0.0
 10
5.470942922027941
 20
-13.0639549073494
 30
0.0
 10
6.005184925254487
 20
-12.38787078838668
 30
0.0
 10
5.917699366771481
 20
-11.64136432098985
 30
0.0
 10
5.830213808288501
 20
-10.89485785359304
 30
0.0
 10
5.154129689325777
 20
-10.36061585036651
 30
0.0
 10
4.407623221929005
 20
-10.44810140884955
 30
0.0
 10
3.661116754532233
 20
-10.53558696733254
 30
0.0
 10
3.126874751305687
 20
-11.21167108629528
 30
0.0
 10
3.214360309788692
 20
-11.95817755369204
 30
0.0
 10
3.287737051329322
 20
-12.58429474453378
 30
0.0
 10
3.781506031180911
 20
-13.07806372434922
 30
0.0
 10
4.407623222028115
 20
-13.15144046584396
 30
0.0
  0
SPLINE
  5
CA
330
70
100
AcDbEntity
  8
Layer 1
 62
    18
420
        0
370
     5
100
AcDbSpline
210
0.0
220
0.0
230
1.0
 70
     8
 71
     3
 72
    17
 73
    13
 74
     0
 42
0.0000000001
 43
0.0000000001
 40
0.0
 40
0.0
 40
0.0
 40
0.0
 40
1.0
 40
1.0
 40
1.0
 40
2.0
 40
2.0
 40
2.0
 40
3.0
 40
3.0
 40
3.0
 40
4.0
 40
4.0
 40
4.0
 40
4.0
 10
4.724419278490699
 20
-12.92192307115937
 30
0.0
 10
5.34416678898871
 20
-12.83444699879687
 30
0.0
 10
5.775658044461086
 20
-12.26112900762839
 30
0.0
 10
5.688181972098504
 20
-11.64138149713034
 30
0.0
 10
5.60070589973596
 20
-11.02163398663239
 30
0.0
 10
5.027387908567472
 20
-10.59014273115993
 30
0.0
 10
4.407640398069474
 20
-10.67761880352251
 30
0.0
 10
3.787892887571463
 20
-10.76509487588512
 30
0.0
 10
3.356401632099088
 20
-11.33841286705357
 30
0.0
 10
3.443877704461669
 20
-11.95816037755159
 30
0.0
 10
3.514469637686399
 20
-12.45828771175497
 30
0.0
 10
3.907513063566902
 20
-12.85133113774731
 30
0.0
 10
4.407640397750242
 20
-12.92192307111433
 30
0.0
  0
SPLINE
  5
CB
330
70
100
AcDbEntity
  8
Layer 1
 62
    18
420
        0
370
     5
100
AcDbSpline
210
0.0
220
0.0
230
1.0
 70
     8
 71
     3
 72
    17
 73
    13
 74
     0
 42
0.0000000001
 43
0.0000000001
 40
0.0
 40
0.0
 40
0.0
 40
0.0
 40
1.0
 40
1.0
 40
1.0
 40
2.0
 40
2.0
 40
2.0
 40
3.0
 40
3.0
 40
3.0
 40
4.0
 40
4.0
 40
4.0
 40
4.0
 10
4.714549225574867
 20
-12.85334624133227
 30
0.0
 10
5.296422798767657
 20
-12.77132124867522
 30
0.0
 10
5.701630134928576
 20
-12.23312512323893
 30
0.0
 10
5.619605142271439
 20
-11.65125155004613
 30
0.0
 10
5.5375801496143
 20
-11.0693779768534
 30
0.0
 10
4.999384024178058
 20
-10.66417064069247
 30
0.0
 10
4.417510450985306
 20
-10.74619563334964
 30
0.0
 10
3.835636877792542
 20
-10.82822062600677
 30
0.0
 10
3.430429541631597
 20
-11.36641675144296
 30
0.0
 10
3.512454534288723
 20
-11.94829032463576
 30
0.0
 10
3.578667047755326
 20
-12.41799243069896
 30
0.0
 10
3.947808344794591
 20
-12.78713372778588
 30
0.0
 10
4.417510450849223
 20
-12.85334624131317
 30
0.0
  0
SPLINE
  5
CC
330
70
100
AcDbEntity
  8
Layer 1
 62
    18
420
        0
370
     5
100
AcDbSpline
210
0.0
220
0.0
230
1.0
 70
     8
 71
     3
 72
    17
 73
    13
 74
     0
 42
0.0000000001
 43
0.0000000001
 40
0.0
 40
0.0
 40
0.0
 40
0.0
 40
1.0
 40
1.0
 40
1.0
 40
2.0
 40
2.0
 40
2.0
 40
3.0
 40
3.0
 40
3.0
 40
4.0
 40
4.0
 40
4.0
 40
4.0
 10
4.78395999480785
 20
-12.49746459069704
 30
0.0
 10
5.169285559610178
 20
-12.37710508871861
 30
0.0
 10
5.38408299361476
 20
-11.96716634561552
 30
0.0
 10
5.26372349163623
 20
-11.58184078081321
 30
0.0
 10
5.1433639896577
 20
-11.19651521601086
 30
0.0
 10
4.733425246554676
 20
-10.98171778200627
 30
0.0
 10
4.34809968175231
 20
-11.10207728398475
 30
0.0
 10
3.962774116949996
 20
-11.22243678596333
 30
0.0
 10
3.747976682945413
 20
-11.63237552906632
 30
0.0
 10
3.868336184923931
 20
-12.01770109386873
 30
0.0
 10
3.939851460996161
 20
-12.24665405305793
 30
0.0
 10
4.119146722563123
 20
-12.42594931462483
 30
0.0
 10
4.34809968175231
 20
-12.49746459069704
 30
0.0
  0
SPLINE
  5
CD
330
70
100
AcDbEntity
  8
Layer 1
 62
    18
420
        0
370
     5
100
AcDbSpline
210
0.0
220
0.0
230
1.0
 70
     8
 71
     3
 72
     8
 73
     4
 74
     0
 42
0.0000000001
 43
0.0000000001
 40
0.0
 40
0.0
 40
0.0
 40
0.0
 40
1.0
 40
1.0
 40
1.0
 40
1.0
 10
4.417565841327927
 20
-12.59193901902583
 30
0.0
 10
4.417565841327927
 20
-12.54864367572231
 30
0.0
 10
4.389425891062917
 20
-12.51037316053493
 30
0.0
 10
4.348099681752184
 20
-12.49746459067698
 30
0.0
  0
SPLINE
  5
CE
330
70
100
AcDbEntity
  8
Layer 1
 62
    18
420
        0
370
     5
100
AcDbSpline
210
0.0
220
0.0
230
1.0
 70
     8
 71
     3
 72
     8
 73
     4
 74
     0
 42
0.0000000001
 43
0.0000000001
 40
0.0
 40
0.0
 40
0.0
 40
0.0
 40
1.0
 40
1.0
 40
1.0
 40
1.0
 10
4.674903436045004
 20
-13.87826689467132
 30
0.0
 10
4.696768609755862
 20
-13.87826689467132
 30
0.0
 10
4.714493835232233
 20
-13.86054166919487
 30
0.0
 10
4.714493835232233
 20
-13.8386764954841
 30
0.0
  0
SPLINE
  5
CF
330
70
100
AcDbEntity
  8
Layer 1
 62
    18
420
        0
370
     5
100
AcDbSpline
210
0.0
220
0.0
230
1.0
 70
     8
 71
     3
 72
     8
 73
     4
 74
     0
 42
0.0000000001
 43
0.0000000001
 40
0.0
 40
0.0
 40
0.0
 40
0.0
 40
1.0
 40
1.0
 40
1.0
 40
1.0
 10
4.684801035841815
 20
-16.00625085098568
 30
0.0
 10
4.706666209552647
 20
-16.00625085098568
 30
0.0
 10
4.72439143502907
 20
-15.98852562550931
 30
0.0
 10
4.72439143502907
 20
-15.96666045179851
 30
0.0
  0
SPLINE
  5
D0
330
70
100
AcDbEntity
  8
Layer 1
 62
    18
420
        0
370
     5
100
AcDbSpline
210
0.0
220
0.0
230
1.0
 70
     8
 71
     3
 72
     8
 73
     4
 74
     0
 42
0.0000000001
 43
0.0000000001
 40
0.0
 40
0.0
 40
0.0
 40
0.0
 40
1.0
 40
1.0
 40
1.0
 40
1.0
 10
4.783959994807989
 20
-12.49746459067698
 30
0.0
 10
4.742633785497256
 20
-12.51037316053493
 30
0.0
 10
4.714493835232233
 20
-12.54864367572231
 30
0.0
 10
4.714493835232233
 20
-12.59193901902583
 30
0.0
  0
SPLINE
  5
D1
330
70
100
AcDbEntity
  8
Layer 1
 62
    18
420
        0
370
     5
100
AcDbSpline
210
0.0
220
0.0
230
1.0
 70
     8
 71
     3
 72
     8
 73
     4
 74
     0
 42
0.0000000001
 43
0.0000000001
 40
0.0
 40
0.0
 40
0.0
 40
0.0
 40
1.0
 40
1.0
 40
1.0
 40
1.0
 10
1.105755643815263
 20
-1.547592731343658
 30
0.0
 10
1.106677440121668
 20
-1.600402406369703
 30
0.0
 10
1.148903156771022
 20
-1.643183514819181
 30
0.0
 10
1.201696278869058
 20
-1.644795266638286
 30
0.0
  0
SPLINE
  5
D2
330
70
100
AcDbEntity
  8
Layer 1
 62
    18
420
        0
370
     5
100
AcDbSpline
210
0.0
220
0.0
230
1.0
 70
     8
 71
     3
 72
     8
 73
     4
 74
     0
 42
0.0000000001
 43
0.0000000001
 40
0.0
 40
0.0
 40
0.0
 40
0.0
 40
1.0
 40
1.0
 40
1.0
 40
1.0
 10
4.051231317329223
 20
-6.410731287697394
 30
0.0
 10
4.051231317329223
 20
-6.35689311061627
 30
0.0
 10
4.008197604825087
 20
-6.312929149774604
 30
0.0
 10
3.95437173760696
 20
-6.311777920156966
 30
0.0
  0
SPLINE
  5
D3
330
70
100
AcDbEntity
  8
Layer 1
 62
    18
420
        0
370
     5
100
AcDbSpline
210
0.0
220
0.0
230
1.0
 70
     8
 71
     3
 72
     8
 73
     4
 74
     0
 42
0.0000000001
 43
0.0000000001
 40
0.0
 40
0.0
 40
0.0
 40
0.0
 40
1.0
 40
1.0
 40
1.0
 40
1.0
 10
3.561423458903732
 20
-2.680950329901671
 30
0.0
 10
3.561423458903732
 20
-2.629030627847883
 30
0.0
 10
3.521304259539141
 20
-2.585935694748539
 30
0.0
 10
3.469517175076286
 20
-2.582227144601789
 30
0.0
  0
SPLINE
  5
D4
330
70
100
AcDbEntity
  8
Layer 1
 62
    18
420
        0
370
     5
100
AcDbSpline
210
0.0
220
0.0
230
1.0
 70
     8
 71
     3
 72
     8
 73
     4
 74
     0
 42
0.0000000001
 43
0.0000000001
 40
0.0
 40
0.0
 40
0.0
 40
0.0
 40
1.0
 40
1.0
 40
1.0
 40
1.0
 10
3.205109866218561
 20
-2.119526154851933
 30
0.0
 10
3.205109866218561
 20
-2.173147213135924
 30
0.0
 10
3.247809401453044
 20
-2.217016799569617
 30
0.0
 10
3.301410872654274
 20
-2.218465998161314
 30
0.0
  0
SPLINE
  5
D5
330
70
100
AcDbEntity
  8
Layer 1
 62
    18
420
        0
370
     5
100
AcDbSpline
210
0.0
220
0.0
230
1.0
 70
     8
 71
     3
 72
     8
 73
     4
 74
     0
 42
0.0000000001
 43
0.0000000001
 40
0.0
 40
0.0
 40
0.0
 40
0.0
 40
1.0
 40
1.0
 40
1.0
 40
1.0
 10
3.432754661545206
 20
-2.318340168781724
 30
0.0
 10
3.432754661545206
 20
-2.264690371543211
 30
0.0
 10
3.390010955820533
 20
-2.22080823438806
 30
0.0
 10
3.336379687151381
 20
-2.219398353303378
 30
0.0
  0
SPLINE
  5
D6
330
70
100
AcDbEntity
  8
Layer 1
 62
    18
420
        0
370
     5
100
AcDbSpline
210
0.0
220
0.0
230
1.0
 70
     8
 71
     3
 72
     8
 73
     4
 74
     0
 42
0.0000000001
 43
0.0000000001
 40
0.0
 40
0.0
 40
0.0
 40
0.0
 40
1.0
 40
1.0
 40
1.0
 40
1.0
 10
4.070160088459829
 20
-7.331350299487375
 30
0.0
 10
4.070160088459829
 20
-7.299498179190486
 30
0.0
 10
4.045030878294292
 20
-7.273318353552351
 30
0.0
 10
4.013205456454809
 20
-7.272014477734463
 30
0.0
  0
SPLINE
  5
D7
330
70
100
AcDbEntity
  8
Layer 1
 62
    18
420
        0
370
     5
100
AcDbSpline
210
0.0
220
0.0
230
1.0
 70
     8
 71
     3
 72
     8
 73
     4
 74
     0
 42
0.0000000001
 43
0.0000000001
 40
0.0
 40
0.0
 40
0.0
 40
0.0
 40
1.0
 40
1.0
 40
1.0
 40
1.0
 10
4.14788919706901
 20
-6.577181898110451
 30
0.0
 10
4.165390872063982
 20
-6.576639746239164
 30
0.0
 10
4.181761216432694
 20
-6.568401400660869
 30
0.0
 10
4.192624813291343
 20
-6.554668781843802
 30
0.0
  0
SPLINE
  5
D8
330
70
100
AcDbEntity
  8
Layer 1
 62
    18
420
        0
370
     5
100
AcDbSpline
210
0.0
220
0.0
230
1.0
 70
     8
 71
     3
 72
     8
 73
     4
 74
     0
 42
0.0000000001
 43
0.0000000001
 40
0.0
 40
0.0
 40
0.0
 40
0.0
 40
1.0
 40
1.0
 40
1.0
 40
1.0
 10
3.835092093285588
 20
-7.225984168797203
 30
0.0
 10
3.835092093285588
 20
-7.247059335808974
 30
0.0
 10
3.851602428498507
 20
-7.26444028689717
 30
0.0
 10
3.872649798916199
 20
-7.265522351161999
 30
0.0
  0
SPLINE
  5
D9
330
70
100
AcDbEntity
  8
Layer 1
 62
    18
420
        0
370
     5
100
AcDbSpline
210
0.0
220
0.0
230
1.0
 70
     8
 71
     3
 72
     8
 73
     4
 74
     0
 42
0.0000000001
 43
0.0000000001
 40
0.0
 40
0.0
 40
0.0
 40
0.0
 40
1.0
 40
1.0
 40
1.0
 40
1.0
 10
3.872649798916477
 20
-6.588518934305359
 30
0.0
 10
3.851602428498646
 20
-6.589600998570012
 30
0.0
 10
3.835092093285588
 20
-6.606981949658271
 30
0.0
 10
3.835092093285588
 20
-6.628057116670131
 30
0.0
  0
SPLINE
  5
DA
330
70
100
AcDbEntity
  8
Layer 1
 62
    18
420
        0
370
     5
100
AcDbSpline
210
0.0
220
0.0
230
1.0
 70
     8
 71
     3
 72
     8
 73
     4
 74
     0
 42
0.0000000001
 43
0.0000000001
 40
0.0
 40
0.0
 40
0.0
 40
0.0
 40
1.0
 40
1.0
 40
1.0
 40
1.0
 10
3.50203786012288
 20
-6.260353396920284
 30
0.0
 10
3.50203786012288
 20
-6.281666026313801
 30
0.0
 10
3.518909547977689
 20
-6.299154015921317
 30
0.0
 10
3.540208468049235
 20
-6.299918329633252
 30
0.0
  0
SPLINE
  5
DB
330
70
100
AcDbEntity
  8
Layer 1
 62
    18
420
        0
370
     5
100
AcDbSpline
210
0.0
220
0.0
230
1.0
 70
     8
 71
     3
 72
     8
 73
     4
 74
     0
 42
0.0000000001
 43
0.0000000001
 40
0.0
 40
0.0
 40
0.0
 40
0.0
 40
1.0
 40
1.0
 40
1.0
 40
1.0
 10
4.051231317329223
 20
-6.511321451267614
 30
0.0
 10
4.051231317329223
 20
-6.533186624978421
 30
0.0
 10
4.068956542805645
 20
-6.550911850454844
 30
0.0
 10
4.090821716516479
 20
-6.550911850454844
 30
0.0
  0
SPLINE
  5
DC
330
70
100
AcDbEntity
  8
Layer 1
 62
    18
420
        0
370
     5
100
AcDbSpline
210
0.0
220
0.0
230
1.0
 70
     8
 71
     3
 72
     8
 73
     4
 74
     0
 42
0.0000000001
 43
0.0000000001
 40
0.0
 40
0.0
 40
0.0
 40
0.0
 40
1.0
 40
1.0
 40
1.0
 40
1.0
 10
3.432754661545206
 20
-2.542737870420169
 30
0.0
 10
3.432754661545206
 20
-2.563505751241665
 30
0.0
 10
3.448802341291045
 20
-2.580743724481408
 30
0.0
 10
3.469517175076184
 20
-2.58222714454012
 30
0.0
  0
SPLINE
  5
DD
330
70
100
AcDbEntity
  8
Layer 1
 62
    18
420
        0
370
     5
100
AcDbSpline
210
0.0
220
0.0
230
1.0
 70
     8
 71
     3
 72
     8
 73
     4
 74
     0
 42
0.0000000001
 43
0.0000000001
 40
0.0
 40
0.0
 40
0.0
 40
0.0
 40
1.0
 40
1.0
 40
1.0
 40
1.0
 10
3.244700265405779
 20
-1.790166348188651
 30
0.0
 10
3.222835091694946
 20
-1.790166348188651
 30
0.0
 10
3.205109866218561
 20
-1.807891573665049
 30
0.0
 10
3.205109866218561
 20
-1.829756747375881
 30
0.0
  0
SPLINE
  5
DE
330
70
100
AcDbEntity
  8
Layer 1
 62
    18
420
        0
370
     5
100
AcDbSpline
210
0.0
220
0.0
230
1.0
 70
     8
 71
     3
 72
     8
 73
     4
 74
     0
 42
0.0000000001
 43
0.0000000001
 40
0.0
 40
0.0
 40
0.0
 40
0.0
 40
1.0
 40
1.0
 40
1.0
 40
1.0
 10
3.561423458903732
 20
-4.850739481405412
 30
0.0
 10
3.561423458903732
 20
-4.872021059723238
 30
0.0
 10
3.578247707311675
 20
-4.88949522500809
 30
0.0
 10
3.599514008369156
 20
-4.890301460104865
 30
0.0
  0
SPLINE
  5
DF
330
70
100
AcDbEntity
  8
Layer 1
 62
    18
420
        0
370
     5
100
AcDbSpline
210
0.0
220
0.0
230
1.0
 70
     8
 71
     3
 72
     8
 73
     4
 74
     0
 42
0.0000000001
 43
0.0000000001
 40
0.0
 40
0.0
 40
0.0
 40
0.0
 40
1.0
 40
1.0
 40
1.0
 40
1.0
 10
4.200387201739216
 20
-6.550911850454844
 30
0.0
 10
4.197361507398227
 20
-6.550911850454844
 30
0.0
 10
4.194502014505271
 20
-6.552295821224965
 30
0.0
 10
4.192624813363559
 20
-6.554668781848034
 30
0.0
  0
SPLINE
  5
E0
330
70
100
AcDbEntity
  8
Layer 1
 62
    18
420
        0
370
     5
100
AcDbSpline
210
0.0
220
0.0
230
1.0
 70
     8
 71
     3
 72
     8
 73
     4
 74
     0
 42
0.0000000001
 43
0.0000000001
 40
0.0
 40
0.0
 40
0.0
 40
0.0
 40
1.0
 40
1.0
 40
1.0
 40
1.0
 10
5.118854220099213
 20
-7.272014477798038
 30
0.0
 10
5.165717061614574
 20
-7.270094524431593
 30
0.0
 10
5.212569583211208
 20
-7.267930452844868
 30
0.0
 10
5.259409877637747
 20
-7.265522351131961
 30
0.0
  0
SPLINE
  5
E1
330
70
100
AcDbEntity
  8
Layer 1
 62
    18
420
        0
370
     5
100
AcDbSpline
210
0.0
220
0.0
230
1.0
 70
     8
 71
     3
 72
     8
 73
     4
 74
     0
 42
0.0000000001
 43
0.0000000001
 40
0.0
 40
0.0
 40
0.0
 40
0.0
 40
1.0
 40
1.0
 40
1.0
 40
1.0
 10
3.872649798922414
 20
-7.265522351131961
 30
0.0
 10
3.921707659354536
 20
-7.268044459909989
 30
0.0
 10
3.970778915603141
 20
-7.270298884452598
 30
0.0
 10
4.019861376480788
 20
-7.272285524092605
 30
0.0
  0
SPLINE
  5
E2
330
70
100
AcDbEntity
  8
Layer 1
 62
    18
420
        0
370
     5
100
AcDbSpline
210
0.0
220
0.0
230
1.0
 70
     8
 71
     3
 72
     8
 73
     4
 74
     0
 42
0.0000000001
 43
0.0000000001
 40
0.0
 40
0.0
 40
0.0
 40
0.0
 40
1.0
 40
1.0
 40
1.0
 40
1.0
 10
4.147881771010335
 20
-6.577182128178492
 30
0.0
 10
4.056101624637941
 20
-6.580025265345057
 30
0.0
 10
3.964352862324807
 20
-6.583804397273625
 30
0.0
 10
3.872649798922414
 20
-6.588518934335398
 30
0.0
  0
SPLINE
  5
E3
330
70
100
AcDbEntity
  8
Layer 1
 62
    18
420
        0
370
     5
100
AcDbSpline
210
0.0
220
0.0
230
1.0
 70
     8
 71
     3
 72
     8
 73
     4
 74
     0
 42
0.0000000001
 43
0.0000000001
 40
0.0
 40
0.0
 40
0.0
 40
0.0
 40
1.0
 40
1.0
 40
1.0
 40
1.0
 10
5.259409877637747
 20
-6.588518934335398
 30
0.0
 10
5.1661109474737
 20
-6.583722352326453
 30
0.0
 10
5.072764756965372
 20
-6.579894017806799
 30
0.0
 10
4.979386381486013
 20
-6.577034549051025
 30
0.0
  0
SPLINE
  5
E4
330
70
100
AcDbEntity
  8
Layer 1
 62
    18
420
        0
370
     5
100
AcDbSpline
210
0.0
220
0.0
230
1.0
 70
     8
 71
     3
 72
     8
 73
     4
 74
     0
 42
0.0000000001
 43
0.0000000001
 40
0.0
 40
0.0
 40
0.0
 40
0.0
 40
1.0
 40
1.0
 40
1.0
 40
1.0
 10
7.930363397691116
 20
-1.644795266638286
 30
0.0
 10
7.983156519789152
 20
-1.643183514819181
 30
0.0
 10
8.025382236438506
 20
-1.600402406369703
 30
0.0
 10
8.02630403274491
 20
-1.547592731343658
 30
0.0
  0
SPLINE
  5
E5
330
70
100
AcDbEntity
  8
Layer 1
 62
    18
420
        0
370
     5
100
AcDbSpline
210
0.0
220
0.0
230
1.0
 70
     8
 71
     3
 72
     8
 73
     4
 74
     0
 42
0.0000000001
 43
0.0000000001
 40
0.0
 40
0.0
 40
0.0
 40
0.0
 40
1.0
 40
1.0
 40
1.0
 40
1.0
 10
5.177687938953213
 20
-6.311777920156966
 30
0.0
 10
5.123862071735086
 20
-6.312929149774604
 30
0.0
 10
5.08082835923095
 20
-6.35689311061627
 30
0.0
 10
5.08082835923095
 20
-6.410731287697394
 30
0.0
  0
SPLINE
  5
E6
330
70
100
AcDbEntity
  8
Layer 1
 62
    18
420
        0
370
     5
100
AcDbSpline
210
0.0
220
0.0
230
1.0
 70
     8
 71
     3
 72
     8
 73
     4
 74
     0
 42
0.0000000001
 43
0.0000000001
 40
0.0
 40
0.0
 40
0.0
 40
0.0
 40
1.0
 40
1.0
 40
1.0
 40
1.0
 10
5.662542501483875
 20
-2.582227144601789
 30
0.0
 10
5.610755417021032
 20
-2.585935694748539
 30
0.0
 10
5.570636217656442
 20
-2.629030627847883
 30
0.0
 10
5.570636217656442
 20
-2.680950329901671
 30
0.0
  0
SPLINE
  5
E7
330
70
100
AcDbEntity
  8
Layer 1
 62
    18
420
        0
370
     5
100
AcDbSpline
210
0.0
220
0.0
230
1.0
 70
     8
 71
     3
 72
     8
 73
     4
 74
     0
 42
0.0000000001
 43
0.0000000001
 40
0.0
 40
0.0
 40
0.0
 40
0.0
 40
1.0
 40
1.0
 40
1.0
 40
1.0
 10
5.8306488039059
 20
-2.218465998161314
 30
0.0
 10
5.884250275107129
 20
-2.217016799569617
 30
0.0
 10
5.926949810341612
 20
-2.173147213135924
 30
0.0
 10
5.926949810341612
 20
-2.119526154851933
 30
0.0
  0
SPLINE
  5
E8
330
70
100
AcDbEntity
  8
Layer 1
 62
    18
420
        0
370
     5
100
AcDbSpline
210
0.0
220
0.0
230
1.0
 70
     8
 71
     3
 72
     8
 73
     4
 74
     0
 42
0.0000000001
 43
0.0000000001
 40
0.0
 40
0.0
 40
0.0
 40
0.0
 40
1.0
 40
1.0
 40
1.0
 40
1.0
 10
5.795679989408792
 20
-2.219398353303378
 30
0.0
 10
5.742048720739666
 20
-2.22080823438806
 30
0.0
 10
5.699305015014967
 20
-2.264690371543211
 30
0.0
 10
5.699305015014967
 20
-2.318340168781724
 30
0.0
  0
SPLINE
  5
E9
330
70
100
AcDbEntity
  8
Layer 1
 62
    18
420
        0
370
     5
100
AcDbSpline
210
0.0
220
0.0
230
1.0
 70
     8
 71
     3
 72
     8
 73
     4
 74
     0
 42
0.0000000001
 43
0.0000000001
 40
0.0
 40
0.0
 40
0.0
 40
0.0
 40
1.0
 40
1.0
 40
1.0
 40
1.0
 10
5.118854220104834
 20
-7.272014477734463
 30
0.0
 10
5.087028798265603
 20
-7.273318353552629
 30
0.0
 10
5.061899588100319
 20
-7.299498179190701
 30
0.0
 10
5.061899588100319
 20
-7.331350299487375
 30
0.0
  0
SPLINE
  5
EA
330
70
100
AcDbEntity
  8
Layer 1
 62
    18
420
        0
370
     5
100
AcDbSpline
210
0.0
220
0.0
230
1.0
 70
     8
 71
     3
 72
     8
 73
     4
 74
     0
 42
0.0000000001
 43
0.0000000001
 40
0.0
 40
0.0
 40
0.0
 40
0.0
 40
1.0
 40
1.0
 40
1.0
 40
1.0
 10
4.939434863268817
 20
-6.554668781843802
 30
0.0
 10
4.950298460127479
 20
-6.568401400660869
 30
0.0
 10
4.966668804496192
 20
-6.576639746239164
 30
0.0
 10
4.984170479491214
 20
-6.577181898110451
 30
0.0
  0
SPLINE
  5
EB
330
70
100
AcDbEntity
  8
Layer 1
 62
    18
420
        0
370
     5
100
AcDbSpline
210
0.0
220
0.0
230
1.0
 70
     8
 71
     3
 72
     8
 73
     4
 74
     0
 42
0.0000000001
 43
0.0000000001
 40
0.0
 40
0.0
 40
0.0
 40
0.0
 40
1.0
 40
1.0
 40
1.0
 40
1.0
 10
5.259409877643545
 20
-7.265522351161999
 30
0.0
 10
5.280457248061452
 20
-7.264440286897423
 30
0.0
 10
5.296967583274585
 20
-7.247059335809113
 30
0.0
 10
5.296967583274585
 20
-7.225984168797203
 30
0.0
  0
SPLINE
  5
EC
330
70
100
AcDbEntity
  8
Layer 1
 62
    18
420
        0
370
     5
100
AcDbSpline
210
0.0
220
0.0
230
1.0
 70
     8
 71
     3
 72
     8
 73
     4
 74
     0
 42
0.0000000001
 43
0.0000000001
 40
0.0
 40
0.0
 40
0.0
 40
0.0
 40
1.0
 40
1.0
 40
1.0
 40
1.0
 10
5.296967583274585
 20
-6.628057116670068
 30
0.0
 10
5.296967583274547
 20
-6.606981949657917
 30
0.0
 10
5.280457248061073
 20
-6.58960099856957
 30
0.0
 10
5.259409877642951
 20
-6.588518934305284
 30
0.0
  0
SPLINE
  5
ED
330
70
100
AcDbEntity
  8
Layer 1
 62
    18
420
        0
370
     5
100
AcDbSpline
210
0.0
220
0.0
230
1.0
 70
     8
 71
     3
 72
     8
 73
     4
 74
     0
 42
0.0000000001
 43
0.0000000001
 40
0.0
 40
0.0
 40
0.0
 40
0.0
 40
1.0
 40
1.0
 40
1.0
 40
1.0
 10
5.591851208510939
 20
-6.299918329633252
 30
0.0
 10
5.613150128582471
 20
-6.299154015921317
 30
0.0
 10
5.630021816437293
 20
-6.281666026313801
 30
0.0
 10
5.630021816437293
 20
-6.260353396920284
 30
0.0
  0
SPLINE
  5
EE
330
70
100
AcDbEntity
  8
Layer 1
 62
    18
420
        0
370
     5
100
AcDbSpline
210
0.0
220
0.0
230
1.0
 70
     8
 71
     3
 72
     8
 73
     4
 74
     0
 42
0.0000000001
 43
0.0000000001
 40
0.0
 40
0.0
 40
0.0
 40
0.0
 40
1.0
 40
1.0
 40
1.0
 40
1.0
 10
5.041237960043682
 20
-6.550911850454844
 30
0.0
 10
5.063103133754515
 20
-6.550911850454844
 30
0.0
 10
5.08082835923095
 20
-6.533186624978421
 30
0.0
 10
5.08082835923095
 20
-6.511321451267614
 30
0.0
  0
SPLINE
  5
EF
330
70
100
AcDbEntity
  8
Layer 1
 62
    18
420
        0
370
     5
100
AcDbSpline
210
0.0
220
0.0
230
1.0
 70
     8
 71
     3
 72
     8
 73
     4
 74
     0
 42
0.0000000001
 43
0.0000000001
 40
0.0
 40
0.0
 40
0.0
 40
0.0
 40
1.0
 40
1.0
 40
1.0
 40
1.0
 10
5.662542501483989
 20
-2.58222714454012
 30
0.0
 10
5.683257335269129
 20
-2.580743724481408
 30
0.0
 10
5.699305015014967
 20
-2.563505751241665
 30
0.0
 10
5.699305015014967
 20
-2.542737870420169
 30
0.0
  0
SPLINE
  5
F0
330
70
100
AcDbEntity
  8
Layer 1
 62
    18
420
        0
370
     5
100
AcDbSpline
210
0.0
220
0.0
230
1.0
 70
     8
 71
     3
 72
     8
 73
     4
 74
     0
 42
0.0000000001
 43
0.0000000001
 40
0.0
 40
0.0
 40
0.0
 40
0.0
 40
1.0
 40
1.0
 40
1.0
 40
1.0
 10
5.926949810341612
 20
-1.829756747375881
 30
0.0
 10
5.926949810341612
 20
-1.807891573665049
 30
0.0
 10
5.909224584865214
 20
-1.790166348188651
 30
0.0
 10
5.887359411154382
 20
-1.790166348188651
 30
0.0
  0
SPLINE
  5
F1
330
70
100
AcDbEntity
  8
Layer 1
 62
    18
420
        0
370
     5
100
AcDbSpline
210
0.0
220
0.0
230
1.0
 70
     8
 71
     3
 72
     8
 73
     4
 74
     0
 42
0.0000000001
 43
0.0000000001
 40
0.0
 40
0.0
 40
0.0
 40
0.0
 40
1.0
 40
1.0
 40
1.0
 40
1.0
 10
5.532545668191056
 20
-4.890301460104865
 30
0.0
 10
5.553811969248499
 20
-4.88949522500809
 30
0.0
 10
5.570636217656442
 20
-4.872021059723238
 30
0.0
 10
5.570636217656442
 20
-4.850739481405412
 30
0.0
  0
SPLINE
  5
F2
330
70
100
AcDbEntity
  8
Layer 1
 62
    18
420
        0
370
     5
100
AcDbSpline
210
0.0
220
0.0
230
1.0
 70
     8
 71
     3
 72
     8
 73
     4
 74
     0
 42
0.0000000001
 43
0.0000000001
 40
0.0
 40
0.0
 40
0.0
 40
0.0
 40
1.0
 40
1.0
 40
1.0
 40
1.0
 10
18.89819739951286
 20
-15.26342180938192
 30
0.0
 10
18.87851457005945
 20
-15.26307817644247
 30
0.0
 10
18.85882916875744
 20
-15.26290234584437
 30
0.0
 10
18.83914334150156
 20
-15.26289433675472
 30
0.0
  0
SPLINE
  5
F3
330
70
100
AcDbEntity
  8
Layer 1
 62
    18
420
        0
370
     5
100
AcDbSpline
210
0.0
220
0.0
230
1.0
 70
     8
 71
     3
 72
     8
 73
     4
 74
     0
 42
0.0000000001
 43
0.0000000001
 40
0.0
 40
0.0
 40
0.0
 40
0.0
 40
1.0
 40
1.0
 40
1.0
 40
1.0
 10
12.94028389248478
 20
-13.7792908967027
 30
0.0
 10
12.94028472181627
 20
-13.83395368763745
 30
0.0
 10
12.98459763613997
 20
-13.87826633573882
 30
0.0
 10
13.03926042707871
 20
-13.87826683666715
 30
0.0
  0
SPLINE
  5
F4
330
70
100
AcDbEntity
  8
Layer 1
 62
    18
420
        0
370
     5
100
AcDbSpline
210
0.0
220
0.0
230
1.0
 70
     8
 71
     3
 72
     8
 73
     4
 74
     0
 42
0.0000000001
 43
0.0000000001
 40
0.0
 40
0.0
 40
0.0
 40
0.0
 40
1.0
 40
1.0
 40
1.0
 40
1.0
 10
18.57838129052844
 20
-15.16410449675199
 30
0.0
 10
18.57999304234757
 20
-15.21689761885005
 30
0.0
 10
18.62277415079703
 20
-15.25912333549938
 30
0.0
 10
18.67558382582304
 20
-15.26004513180581
 30
0.0
  0
SPLINE
  5
F5
330
70
100
AcDbEntity
  8
Layer 1
 62
    18
420
        0
370
     5
100
AcDbSpline
210
0.0
220
0.0
230
1.0
 70
     8
 71
     3
 72
     8
 73
     4
 74
     0
 42
0.0000000001
 43
0.0000000001
 40
0.0
 40
0.0
 40
0.0
 40
0.0
 40
1.0
 40
1.0
 40
1.0
 40
1.0
 10
13.55349350924911
 20
-13.87826689467132
 30
0.0
 10
13.60815644352619
 20
-13.87826689467132
 30
0.0
 10
13.65246950721727
 20
-13.83395383098026
 30
0.0
 10
13.65246950721727
 20
-13.77929089670321
 30
0.0
  0
SPLINE
  5
F6
330
70
100
AcDbEntity
  8
Layer 1
 62
    18
420
        0
370
     5
100
AcDbSpline
210
0.0
220
0.0
230
1.0
 70
     8
 71
     3
 72
     8
 73
     4
 74
     0
 42
0.0000000001
 43
0.0000000001
 40
0.0
 40
0.0
 40
0.0
 40
0.0
 40
1.0
 40
1.0
 40
1.0
 40
1.0
 10
12.9398423218468
 20
-13.77929089670321
 30
0.0
 10
12.9398423218468
 20
-13.83395383098026
 30
0.0
 10
12.98415538553793
 20
-13.87826689467132
 30
0.0
 10
13.03881831981496
 20
-13.87826689467132
 30
0.0
  0
SPLINE
  5
F7
330
70
100
AcDbEntity
  8
Layer 1
 62
    18
420
        0
370
     5
100
AcDbSpline
210
0.0
220
0.0
230
1.0
 70
     8
 71
     3
 72
     8
 73
     4
 74
     0
 42
0.0000000001
 43
0.0000000001
 40
0.0
 40
0.0
 40
0.0
 40
0.0
 40
1.0
 40
1.0
 40
1.0
 40
1.0
 10
15.11731427714534
 20
-16.00625085098568
 30
0.0
 10
15.17197721142242
 20
-16.00625085098568
 30
0.0
 10
15.21629027511345
 20
-15.96193778729467
 30
0.0
 10
15.21629027511345
 20
-15.90727485301765
 30
0.0
  0
SPLINE
  5
F8
330
70
100
AcDbEntity
  8
Layer 1
 62
    18
420
        0
370
     5
100
AcDbSpline
210
0.0
220
0.0
230
1.0
 70
     8
 71
     3
 72
     8
 73
     4
 74
     0
 42
0.0000000001
 43
0.0000000001
 40
0.0
 40
0.0
 40
0.0
 40
0.0
 40
1.0
 40
1.0
 40
1.0
 40
1.0
 10
14.3354038931972
 20
-15.90727485301765
 30
0.0
 10
14.3354038931972
 20
-15.96193778729467
 30
0.0
 10
14.37971695688823
 20
-16.00625085098568
 30
0.0
 10
14.43437989116531
 20
-16.00625085098568
 30
0.0
  0
SPLINE
  5
F9
330
70
100
AcDbEntity
  8
Layer 1
 62
    18
420
        0
370
     5
100
AcDbSpline
210
0.0
220
0.0
230
1.0
 70
     8
 71
     3
 72
    11
 73
     7
 74
     0
 42
0.0000000001
 43
0.0000000001
 40
0.0
 40
0.0
 40
0.0
 40
0.0
 40
1.0
 40
1.0
 40
1.0
 40
2.0
 40
2.0
 40
2.0
 40
2.0
 10
13.55305140193291
 20
-13.87826632584966
 30
0.0
 10
13.60771363165577
 20
-13.87826695422323
 30
0.0
 10
13.65202663359019
 20
-13.83395497108361
 30
0.0
 10
13.65202726196377
 20
-13.7792927413607
 30
0.0
 10
13.65202726197084
 20
-13.77929212646007
 30
0.0
 10
13.65202726197215
 20
-13.77929151155962
 30
0.0
 10
13.65202726196781
 20
-13.77929089665907
 30
0.0
  0
SPLINE
  5
FA
330
70
100
AcDbEntity
  8
Layer 1
 62
    18
420
        0
370
     5
100
AcDbSpline
210
0.0
220
0.0
230
1.0
 70
     8
 71
     3
 72
     8
 73
     4
 74
     0
 42
0.0000000001
 43
0.0000000001
 40
0.0
 40
0.0
 40
0.0
 40
0.0
 40
1.0
 40
1.0
 40
1.0
 40
1.0
 10
17.64094941266396
 20
-12.89628360054477
 30
0.0
 10
17.63724086251719
 20
-12.84449651608192
 30
0.0
 10
17.59414592941781
 20
-12.80437731671729
 30
0.0
 10
17.54222622736405
 20
-12.80437731671729
 30
0.0
  0
SPLINE
  5
FB
330
70
100
AcDbEntity
  8
Layer 1
 62
    18
420
        0
370
     5
100
AcDbSpline
210
0.0
220
0.0
230
1.0
 70
     8
 71
     3
 72
     8
 73
     4
 74
     0
 42
0.0000000001
 43
0.0000000001
 40
0.0
 40
0.0
 40
0.0
 40
0.0
 40
1.0
 40
1.0
 40
1.0
 40
1.0
 10
18.00377820386337
 20
-13.02942108846966
 30
0.0
 10
18.00236832277869
 20
-12.97578981980051
 30
0.0
 10
17.95848618562357
 20
-12.93304611407585
 30
0.0
 10
17.90483638838496
 20
-12.93304611407585
 30
0.0
  0
SPLINE
  5
FC
330
70
100
AcDbEntity
  8
Layer 1
 62
    18
420
        0
370
     5
100
AcDbSpline
210
0.0
220
0.0
230
1.0
 70
     8
 71
     3
 72
     8
 73
     4
 74
     0
 42
0.0000000001
 43
0.0000000001
 40
0.0
 40
0.0
 40
0.0
 40
0.0
 40
1.0
 40
1.0
 40
1.0
 40
1.0
 10
18.00471055910439
 20
-13.06438990296662
 30
0.0
 10
18.00615975769602
 20
-13.11799137416796
 30
0.0
 10
18.0500293441297
 20
-13.16069090940252
 30
0.0
 10
18.10365040241378
 20
-13.16069090940252
 30
0.0
  0
SPLINE
  5
FD
330
70
100
AcDbEntity
  8
Layer 1
 62
    18
420
        0
370
     5
100
AcDbSpline
210
0.0
220
0.0
230
1.0
 70
     8
 71
     3
 72
     8
 73
     4
 74
     0
 42
0.0000000001
 43
0.0000000001
 40
0.0
 40
0.0
 40
0.0
 40
0.0
 40
1.0
 40
1.0
 40
1.0
 40
1.0
 10
13.91139863710876
 20
-12.41142903801341
 30
0.0
 10
13.91024740749071
 20
-12.35760317079555
 30
0.0
 10
13.86628344664915
 20
-12.31456945829182
 30
0.0
 10
13.81244526956829
 20
-12.31456945829182
 30
0.0
  0
SPLINE
  5
FE
330
70
100
AcDbEntity
  8
Layer 1
 62
    18
420
        0
370
     5
100
AcDbSpline
210
0.0
220
0.0
230
1.0
 70
     8
 71
     3
 72
     8
 73
     4
 74
     0
 42
0.0000000001
 43
0.0000000001
 40
0.0
 40
0.0
 40
0.0
 40
0.0
 40
1.0
 40
1.0
 40
1.0
 40
1.0
 10
13.66943723105068
 20
-12.17313736874732
 30
0.0
 10
13.65856109669074
 20
-12.18423751934228
 30
0.0
 10
13.6524694310336
 20
-12.19915873667964
 30
0.0
 10
13.65246942526513
 20
-12.2146991241217
 30
0.0
  0
SPLINE
  5
FF
330
70
100
AcDbEntity
  8
Layer 1
 62
    18
420
        0
370
     5
100
AcDbSpline
210
0.0
220
0.0
230
1.0
 70
     8
 71
     3
 72
     8
 73
     4
 74
     0
 42
0.0000000001
 43
0.0000000001
 40
0.0
 40
0.0
 40
0.0
 40
0.0
 40
1.0
 40
1.0
 40
1.0
 40
1.0
 10
12.9398423218468
 20
-12.35502628594205
 30
0.0
 10
12.9398423218468
 20
-12.3222285253758
 30
0.0
 10
12.91325448363219
 20
-12.29564068716116
 30
0.0
 10
12.88045672306594
 20
-12.29564068716116
 30
0.0
  0
SPLINE
  5
100
330
70
100
AcDbEntity
  8
Layer 1
 62
    18
420
        0
370
     5
100
AcDbSpline
210
0.0
220
0.0
230
1.0
 70
     8
 71
     3
 72
     8
 73
     4
 74
     0
 42
0.0000000001
 43
0.0000000001
 40
0.0
 40
0.0
 40
0.0
 40
0.0
 40
1.0
 40
1.0
 40
1.0
 40
1.0
 10
17.64094941262662
 20
-12.89628360054482
 30
0.0
 10
17.64243283268529
 20
-12.91699843433
 30
0.0
 10
17.65967080592504
 20
-12.93304611407585
 30
0.0
 10
17.68043868674653
 20
-12.93304611407585
 30
0.0
  0
SPLINE
  5
101
330
70
100
AcDbEntity
  8
Layer 1
 62
    18
420
        0
370
     5
100
AcDbSpline
210
0.0
220
0.0
230
1.0
 70
     8
 71
     3
 72
     8
 73
     4
 74
     0
 42
0.0000000001
 43
0.0000000001
 40
0.0
 40
0.0
 40
0.0
 40
0.0
 40
1.0
 40
1.0
 40
1.0
 40
1.0
 10
18.39341980988981
 20
-13.16069090940252
 30
0.0
 10
18.41528498360063
 20
-13.16069090940252
 30
0.0
 10
18.43301020907711
 20
-13.14296568392615
 30
0.0
 10
18.43301020907711
 20
-13.12110051021523
 30
0.0
  0
SPLINE
  5
102
330
70
100
AcDbEntity
  8
Layer 1
 62
    18
420
        0
370
     5
100
AcDbSpline
210
0.0
220
0.0
230
1.0
 70
     8
 71
     3
 72
     8
 73
     4
 74
     0
 42
0.0000000001
 43
0.0000000001
 40
0.0
 40
0.0
 40
0.0
 40
0.0
 40
1.0
 40
1.0
 40
1.0
 40
1.0
 10
15.33287509716082
 20
-12.76628676725171
 30
0.0
 10
15.33368133225753
 20
-12.78755306830925
 30
0.0
 10
15.35115549754239
 20
-12.80437731671729
 30
0.0
 10
15.37243707586029
 20
-12.80437731671729
 30
0.0
  0
SPLINE
  5
103
330
70
100
AcDbEntity
  8
Layer 1
 62
    18
420
        0
370
     5
100
AcDbSpline
210
0.0
220
0.0
230
1.0
 70
     8
 71
     3
 72
     8
 73
     4
 74
     0
 42
0.0000000001
 43
0.0000000001
 40
0.0
 40
0.0
 40
0.0
 40
0.0
 40
1.0
 40
1.0
 40
1.0
 40
1.0
 10
13.67226470681084
 20
-12.27497905910453
 30
0.0
 10
13.67226470681084
 20
-12.2968442328154
 30
0.0
 10
13.68998993228731
 20
-12.31456945829182
 30
0.0
 10
13.71185510599808
 20
-12.31456945829182
 30
0.0
  0
SPLINE
  5
104
330
70
100
AcDbEntity
  8
Layer 1
 62
    18
420
        0
370
     5
100
AcDbSpline
210
0.0
220
0.0
230
1.0
 70
     8
 71
     3
 72
     8
 73
     4
 74
     0
 42
0.0000000001
 43
0.0000000001
 40
0.0
 40
0.0
 40
0.0
 40
0.0
 40
1.0
 40
1.0
 40
1.0
 40
1.0
 10
13.92325822763243
 20
-12.82559230757177
 30
0.0
 10
13.92402254134443
 20
-12.84689122764333
 30
0.0
 10
13.941510530952
 20
-12.86376291549823
 30
0.0
 10
13.96282316034548
 20
-12.86376291549823
 30
0.0
  0
SPLINE
  5
105
330
70
100
AcDbEntity
  8
Layer 1
 62
    18
420
        0
370
     5
100
AcDbSpline
210
0.0
220
0.0
230
1.0
 70
     8
 71
     3
 72
     8
 73
     4
 74
     0
 42
0.0000000001
 43
0.0000000001
 40
0.0
 40
0.0
 40
0.0
 40
0.0
 40
1.0
 40
1.0
 40
1.0
 40
1.0
 10
13.669436780415
 20
-12.17313692728364
 30
0.0
 10
13.67124944503252
 20
-12.1712869059715
 30
0.0
 10
13.67226470681084
 20
-12.16880005355789
 30
0.0
 10
13.67226470681084
 20
-12.16621000879551
 30
0.0
  0
SPLINE
  5
106
330
70
100
AcDbEntity
  8
Layer 1
 62
    18
420
        0
370
     5
100
AcDbSpline
210
0.0
220
0.0
230
1.0
 70
     8
 71
     3
 72
     8
 73
     4
 74
     0
 42
0.0000000001
 43
0.0000000001
 40
0.0
 40
0.0
 40
0.0
 40
0.0
 40
1.0
 40
1.0
 40
1.0
 40
1.0
 10
13.81244526956829
 20
-11.28497241639007
 30
0.0
 10
13.86628344664915
 20
-11.28497241639007
 30
0.0
 10
13.91024740749071
 20
-11.24193870388641
 30
0.0
 10
13.91139863710876
 20
-11.18811283666847
 30
0.0
  0
SPLINE
  5
107
330
70
100
AcDbEntity
  8
Layer 1
 62
    18
420
        0
370
     5
100
AcDbSpline
210
0.0
220
0.0
230
1.0
 70
     8
 71
     3
 72
     8
 73
     4
 74
     0
 42
0.0000000001
 43
0.0000000001
 40
0.0
 40
0.0
 40
0.0
 40
0.0
 40
1.0
 40
1.0
 40
1.0
 40
1.0
 10
13.64599465915525
 20
-11.38163029612981
 30
0.0
 10
13.64653681102653
 20
-11.39913197112494
 30
0.0
 10
13.65477515660495
 20
-11.41550231549374
 30
0.0
 10
13.66850777542211
 20
-11.42636591235236
 30
0.0
  0
SPLINE
  5
108
330
70
100
AcDbEntity
  8
Layer 1
 62
    18
420
        0
370
     5
100
AcDbSpline
210
0.0
220
0.0
230
1.0
 70
     8
 71
     3
 72
     8
 73
     4
 74
     0
 42
0.0000000001
 43
0.0000000001
 40
0.0
 40
0.0
 40
0.0
 40
0.0
 40
1.0
 40
1.0
 40
1.0
 40
1.0
 10
12.89182625767939
 20
-11.30390118752072
 30
0.0
 10
12.9236783779764
 20
-11.30390118752072
 30
0.0
 10
12.94985820361464
 20
-11.27877197735483
 30
0.0
 10
12.95116207943238
 20
-11.24694655551525
 30
0.0
  0
SPLINE
  5
109
330
70
100
AcDbEntity
  8
Layer 1
 62
    18
420
        0
370
     5
100
AcDbSpline
210
0.0
220
0.0
230
1.0
 70
     8
 71
     3
 72
     8
 73
     4
 74
     0
 42
0.0000000001
 43
0.0000000001
 40
0.0
 40
0.0
 40
0.0
 40
0.0
 40
1.0
 40
1.0
 40
1.0
 40
1.0
 10
13.63465762296037
 20
-11.10639089797693
 30
0.0
 10
13.63357555869551
 20
-11.08534352755929
 30
0.0
 10
13.61619460760726
 20
-11.06883319234642
 30
0.0
 10
13.59511944059563
 20
-11.06883319234642
 30
0.0
  0
SPLINE
  5
10A
330
70
100
AcDbEntity
  8
Layer 1
 62
    18
420
        0
370
     5
100
AcDbSpline
210
0.0
220
0.0
230
1.0
 70
     8
 71
     3
 72
     8
 73
     4
 74
     0
 42
0.0000000001
 43
0.0000000001
 40
0.0
 40
0.0
 40
0.0
 40
0.0
 40
1.0
 40
1.0
 40
1.0
 40
1.0
 10
12.99719238846844
 20
-11.06883319234642
 30
0.0
 10
12.97611722145681
 20
-11.06883319234642
 30
0.0
 10
12.95873627036862
 20
-11.08534352755929
 30
0.0
 10
12.95765420610375
 20
-11.10639089797693
 30
0.0
  0
SPLINE
  5
10B
330
70
100
AcDbEntity
  8
Layer 1
 62
    18
420
        0
370
     5
100
AcDbSpline
210
0.0
220
0.0
230
1.0
 70
     8
 71
     3
 72
     8
 73
     4
 74
     0
 42
0.0000000001
 43
0.0000000001
 40
0.0
 40
0.0
 40
0.0
 40
0.0
 40
1.0
 40
1.0
 40
1.0
 40
1.0
 10
15.37243707586029
 20
-10.79516455796465
 30
0.0
 10
15.35115549754239
 20
-10.79516455796465
 30
0.0
 10
15.33368133225753
 20
-10.81198880637261
 30
0.0
 10
15.33287509716082
 20
-10.83325510743023
 30
0.0
  0
SPLINE
  5
10C
330
70
100
AcDbEntity
  8
Layer 1
 62
    18
420
        0
370
     5
100
AcDbSpline
210
0.0
220
0.0
230
1.0
 70
     8
 71
     3
 72
     8
 73
     4
 74
     0
 42
0.0000000001
 43
0.0000000001
 40
0.0
 40
0.0
 40
0.0
 40
0.0
 40
1.0
 40
1.0
 40
1.0
 40
1.0
 10
13.71185510599808
 20
-11.28497241639007
 30
0.0
 10
13.68998993228731
 20
-11.28497241639007
 30
0.0
 10
13.67226470681084
 20
-11.30269764186651
 30
0.0
 10
13.67226470681084
 20
-11.32456281557736
 30
0.0
  0
SPLINE
  5
10D
330
70
100
AcDbEntity
  8
Layer 1
 62
    18
420
        0
370
     5
100
AcDbSpline
210
0.0
220
0.0
230
1.0
 70
     8
 71
     3
 72
     8
 73
     4
 74
     0
 42
0.0000000001
 43
0.0000000001
 40
0.0
 40
0.0
 40
0.0
 40
0.0
 40
1.0
 40
1.0
 40
1.0
 40
1.0
 10
13.67226470681084
 20
-11.43412830080011
 30
0.0
 10
13.67226470681084
 20
-11.43110260644915
 30
0.0
 10
13.6708807360317
 20
-11.42824311354795
 30
0.0
 10
13.66850777539543
 20
-11.42636591240681
 30
0.0
  0
SPLINE
  5
10E
330
70
100
AcDbEntity
  8
Layer 1
 62
    18
420
        0
370
     5
100
AcDbSpline
210
0.0
220
0.0
230
1.0
 70
     8
 71
     3
 72
     8
 73
     4
 74
     0
 42
0.0000000001
 43
0.0000000001
 40
0.0
 40
0.0
 40
0.0
 40
0.0
 40
1.0
 40
1.0
 40
1.0
 40
1.0
 10
18.67558382582304
 20
-8.339496742876109
 30
0.0
 10
18.62277415079703
 20
-8.34041853918254
 30
0.0
 10
18.57999304234757
 20
-8.382644255831866
 30
0.0
 10
18.57838129052844
 20
-8.435437377929954
 30
0.0
  0
SPLINE
  5
10F
330
70
100
AcDbEntity
  8
Layer 1
 62
    18
420
        0
370
     5
100
AcDbSpline
210
0.0
220
0.0
230
1.0
 70
     8
 71
     3
 72
     8
 73
     4
 74
     0
 42
0.0000000001
 43
0.0000000001
 40
0.0
 40
0.0
 40
0.0
 40
0.0
 40
1.0
 40
1.0
 40
1.0
 40
1.0
 10
17.54222622736405
 20
-10.79516455796465
 30
0.0
 10
17.59414592941781
 20
-10.79516455796465
 30
0.0
 10
17.63724086251719
 20
-10.75504535860002
 30
0.0
 10
17.64094941266396
 20
-10.70325827413717
 30
0.0
  0
SPLINE
  5
110
330
70
100
AcDbEntity
  8
Layer 1
 62
    18
420
        0
370
     5
100
AcDbSpline
210
0.0
220
0.0
230
1.0
 70
     8
 71
     3
 72
     8
 73
     4
 74
     0
 42
0.0000000001
 43
0.0000000001
 40
0.0
 40
0.0
 40
0.0
 40
0.0
 40
1.0
 40
1.0
 40
1.0
 40
1.0
 10
17.90483638838496
 20
-10.66649576060601
 30
0.0
 10
17.95848618562357
 20
-10.66649576060601
 30
0.0
 10
18.00236832277869
 20
-10.62375205488135
 30
0.0
 10
18.00377820386337
 20
-10.5701207862122
 30
0.0
  0
SPLINE
  5
111
330
70
100
AcDbEntity
  8
Layer 1
 62
    18
420
        0
370
     5
100
AcDbSpline
210
0.0
220
0.0
230
1.0
 70
     8
 71
     3
 72
     8
 73
     4
 74
     0
 42
0.0000000001
 43
0.0000000001
 40
0.0
 40
0.0
 40
0.0
 40
0.0
 40
1.0
 40
1.0
 40
1.0
 40
1.0
 10
18.10365040241378
 20
-10.43885096527939
 30
0.0
 10
18.0500293441297
 20
-10.43885096527939
 30
0.0
 10
18.00615975769602
 20
-10.48155050051403
 30
0.0
 10
18.00471055910439
 20
-10.53515197171529
 30
0.0
  0
SPLINE
  5
112
330
70
100
AcDbEntity
  8
Layer 1
 62
    18
420
        0
370
     5
100
AcDbSpline
210
0.0
220
0.0
230
1.0
 70
     8
 71
     3
 72
     8
 73
     4
 74
     0
 42
0.0000000001
 43
0.0000000001
 40
0.0
 40
0.0
 40
0.0
 40
0.0
 40
1.0
 40
1.0
 40
1.0
 40
1.0
 10
17.68043868674653
 20
-10.66649576060601
 30
0.0
 10
17.65967080592504
 20
-10.66649576060601
 30
0.0
 10
17.64243283268529
 20
-10.68254344035199
 30
0.0
 10
17.64094941262662
 20
-10.70325827413712
 30
0.0
  0
SPLINE
  5
113
330
70
100
AcDbEntity
  8
Layer 1
 62
    18
420
        0
370
     5
100
AcDbSpline
210
0.0
220
0.0
230
1.0
 70
     8
 71
     3
 72
     8
 73
     4
 74
     0
 42
0.0000000001
 43
0.0000000001
 40
0.0
 40
0.0
 40
0.0
 40
0.0
 40
1.0
 40
1.0
 40
1.0
 40
1.0
 10
18.43301020907711
 20
-10.47844136446663
 30
0.0
 10
18.43301020907711
 20
-10.45657619075584
 30
0.0
 10
18.41528498360063
 20
-10.43885096527939
 30
0.0
 10
18.39341980988981
 20
-10.43885096527939
 30
0.0
  0
SPLINE
  5
114
330
70
100
AcDbEntity
  8
Layer 1
 62
    18
420
        0
370
     5
100
AcDbSpline
210
0.0
220
0.0
230
1.0
 70
     8
 71
     3
 72
     8
 73
     4
 74
     0
 42
0.0000000001
 43
0.0000000001
 40
0.0
 40
0.0
 40
0.0
 40
0.0
 40
1.0
 40
1.0
 40
1.0
 40
1.0
 10
13.96282316034548
 20
-10.73577895918376
 30
0.0
 10
13.941510530952
 20
-10.73577895918376
 30
0.0
 10
13.92402254134443
 20
-10.75265064703853
 30
0.0
 10
13.92325822763243
 20
-10.77394956711009
 30
0.0
  0
SPLINE
  5
115
330
70
100
AcDbEntity
  8
Layer 1
 62
    18
420
        0
370
     5
100
AcDbSpline
210
0.0
220
0.0
230
1.0
 70
     8
 71
     3
 72
     8
 73
     4
 74
     0
 42
0.0000000001
 43
0.0000000001
 40
0.0
 40
0.0
 40
0.0
 40
0.0
 40
1.0
 40
1.0
 40
1.0
 40
1.0
 10
18.00377820390132
 20
-13.02942108848532
 30
0.0
 10
18.00408463185502
 20
-13.04107747574456
 30
0.0
 10
18.00439541694337
 20
-13.05273374805812
 30
0.0
 10
18.00471055910106
 20
-13.06438990297505
 30
0.0
  0
SPLINE
  5
116
330
70
100
AcDbEntity
  8
Layer 1
 62
    18
420
        0
370
     5
100
AcDbSpline
210
0.0
220
0.0
230
1.0
 70
     8
 71
     3
 72
     8
 73
     4
 74
     0
 42
0.0000000001
 43
0.0000000001
 40
0.0
 40
0.0
 40
0.0
 40
0.0
 40
1.0
 40
1.0
 40
1.0
 40
1.0
 10
18.00471055910106
 20
-10.53515197170693
 30
0.0
 10
18.00439541694337
 20
-10.54680812662387
 30
0.0
 10
18.00408463185502
 20
-10.5584643989373
 30
0.0
 10
18.00377820390132
 20
-10.57012078619654
 30
0.0
  0
SPLINE
  5
117
330
70
100
AcDbEntity
  8
Layer 1
 62
    18
420
        0
370
     5
100
AcDbSpline
210
0.0
220
0.0
230
1.0
 70
     8
 71
     3
 72
     8
 73
     4
 74
     0
 42
0.0000000001
 43
0.0000000001
 40
0.0
 40
0.0
 40
0.0
 40
0.0
 40
1.0
 40
1.0
 40
1.0
 40
1.0
 10
13.9113986370747
 20
-12.41142903800015
 30
0.0
 10
13.91435192377043
 20
-12.54951028183114
 30
0.0
 10
13.91830522429952
 20
-12.68756832575877
 30
0.0
 10
13.92325822762217
 20
-12.82559230758183
 30
0.0
  0
SPLINE
  5
118
330
70
100
AcDbEntity
  8
Layer 1
 62
    18
420
        0
370
     5
100
AcDbSpline
210
0.0
220
0.0
230
1.0
 70
     8
 71
     3
 72
     8
 73
     4
 74
     0
 42
0.0000000001
 43
0.0000000001
 40
0.0
 40
0.0
 40
0.0
 40
0.0
 40
1.0
 40
1.0
 40
1.0
 40
1.0
 10
13.92325822762217
 20
-10.77394956710004
 30
0.0
 10
13.91830522429952
 20
-10.91197354892309
 30
0.0
 10
13.91435192377043
 20
-11.0500315928508
 30
0.0
 10
13.9113986370747
 20
-11.18811283668181
 30
0.0
  0
SPLINE
  5
119
330
70
100
AcDbEntity
  8
Layer 1
 62
    18
420
        0
370
     5
100
AcDbSpline
210
0.0
220
0.0
230
1.0
 70
     8
 71
     3
 72
     8
 73
     4
 74
     0
 42
0.0000000001
 43
0.0000000001
 40
0.0
 40
0.0
 40
0.0
 40
0.0
 40
1.0
 40
1.0
 40
1.0
 40
1.0
 10
15.33287509715789
 20
-10.83325510741707
 30
0.0
 10
15.32995576485478
 20
-10.91025919703416
 30
0.0
 10
15.32738533037511
 20
-10.98727611811235
 30
0.0
 10
15.32516387286407
 20
-11.06430349925295
 30
0.0
  0
SPLINE
  5
11A
330
70
100
AcDbEntity
  8
Layer 1
 62
    18
420
        0
370
     5
100
AcDbSpline
210
0.0
220
0.0
230
1.0
 70
     8
 71
     3
 72
     8
 73
     4
 74
     0
 42
0.0000000001
 43
0.0000000001
 40
0.0
 40
0.0
 40
0.0
 40
0.0
 40
1.0
 40
1.0
 40
1.0
 40
1.0
 10
15.32516387286407
 20
-12.53523837542894
 30
0.0
 10
15.32738533037511
 20
-12.61226575656954
 30
0.0
 10
15.32995576485478
 20
-12.6892826776477
 30
0.0
 10
15.33287509715789
 20
-12.76628676726474
 30
0.0
  0
SPLINE
  5
11B
330
70
100
AcDbEntity
  8
Layer 1
 62
    18
420
        0
370
     5
100
AcDbSpline
210
0.0
220
0.0
230
1.0
 70
     8
 71
     3
 72
     8
 73
     4
 74
     0
 42
0.0000000001
 43
0.0000000001
 40
0.0
 40
0.0
 40
0.0
 40
0.0
 40
1.0
 40
1.0
 40
1.0
 40
1.0
 10
18.57838129056532
 20
-8.435437377813867
 30
0.0
 10
18.55494404574534
 20
-9.203127113136462
 30
0.0
 10
18.53952947479825
 20
-9.971040800496236
 30
0.0
 10
18.5321401023468
 20
-10.73905266976605
 30
0.0
  0
SPLINE
  5
11C
330
70
100
AcDbEntity
  8
Layer 1
 62
    18
420
        0
370
     5
100
AcDbSpline
210
0.0
220
0.0
230
1.0
 70
     8
 71
     3
 72
     8
 73
     4
 74
     0
 42
0.0000000001
 43
0.0000000001
 40
0.0
 40
0.0
 40
0.0
 40
0.0
 40
1.0
 40
1.0
 40
1.0
 40
1.0
 10
18.5321401023468
 20
-12.86048920491594
 30
0.0
 10
18.53952947479825
 20
-13.62850107418558
 30
0.0
 10
18.55494404574534
 20
-14.39641476154543
 30
0.0
 10
18.57838129056532
 20
-15.164104496868
 30
0.0
  0
SPLINE
  5
11D
330
70
100
AcDbEntity
  8
Layer 1
 62
    18
420
        0
370
     5
100
AcDbSpline
210
0.0
220
0.0
230
1.0
 70
     8
 71
     3
 72
    80
 73
    76
 74
     0
 42
0.0000000001
 43
0.0000000001
 40
0.0
 40
0.0
 40
0.0
 40
0.0
 40
1.0
 40
1.0
 40
1.0
 40
2.0
 40
2.0
 40
2.0
 40
3.0
 40
3.0
 40
3.0
 40
4.0
 40
4.0
 40
4.0
 40
5.0
 40
5.0
 40
5.0
 40
6.0
 40
6.0
 40
6.0
 40
7.0
 40
7.0
 40
7.0
 40
8.0
 40
8.0
 40
8.0
 40
9.0
 40
9.0
 40
9.0
 40
10.0
 40
10.0
 40
10.0
 40
11.0
 40
11.0
 40
11.0
 40
12.0
 40
12.0
 40
12.0
 40
13.0
 40
13.0
 40
13.0
 40
14.0
 40
14.0
 40
14.0
 40
15.0
 40
15.0
 40
15.0
 40
16.0
 40
16.0
 40
16.0
 40
17.0
 40
17.0
 40
17.0
 40
18.0
 40
18.0
 40
18.0
 40
19.0
 40
19.0
 40
19.0
 40
20.0
 40
20.0
 40
20.0
 40
21.0
 40
21.0
 40
21.0
 40
22.0
 40
22.0
 40
22.0
 40
23.0
 40
23.0
 40
23.0
 40
24.0
 40
24.0
 40
24.0
 40
25.0
 40
25.0
 40
25.0
 40
25.0
 10
12.95116207945132
 20
-11.79977093734093
 30
0.0
 10
12.95116206648542
 20
-11.83580170039264
 30
0.0
 10
12.95101901443397
 20
-11.87183262029192
 30
0.0
 10
12.95073292696305
 20
-11.90786237470906
 30
0.0
 10
12.95045769915163
 20
-11.9425244674614
 30
0.0
 10
12.95005008884896
 20
-11.97718548153403
 30
0.0
 10
12.94951019077669
 20
-12.01184437527046
 30
0.0
 10
12.94925470124614
 20
-12.02824559050193
 30
0.0
 10
12.94896958780721
 20
-12.04464633091516
 30
0.0
 10
12.94865486330334
 20
-12.06104650618188
 30
0.0
 10
12.94835607150222
 20
-12.07661643430828
 30
0.0
 10
12.94803059082642
 20
-12.09218585305994
 30
0.0
 10
12.94767843515415
 20
-12.10775466704513
 30
0.0
 10
12.94734844467307
 20
-12.12234355718611
 30
0.0
 10
12.94699503144556
 20
-12.13693191629451
 30
0.0
 10
12.9466182079408
 20
-12.15151967040348
 30
0.0
 10
12.94627033905671
 20
-12.16498652074359
 30
0.0
 10
12.94590251930635
 20
-12.17845285548699
 30
0.0
 10
12.94551476087054
 20
-12.19191861559943
 30
0.0
 10
12.94516304583152
 20
-12.20413268989397
 30
0.0
 10
12.94479492656081
 20
-12.21634629142007
 30
0.0
 10
12.94441040969114
 20
-12.22855937615542
 30
0.0
 10
12.94406905105759
 20
-12.23940166227066
 30
0.0
 10
12.94371476918882
 20
-12.25024354109397
 30
0.0
 10
12.94334758058464
 20
-12.261084982821
 30
0.0
 10
12.94303042184093
 20
-12.27044926591487
 30
0.0
 10
12.94270363387088
 20
-12.27981322290768
 30
0.0
 10
12.94236719610242
 20
-12.28917683170551
 30
0.0
 10
12.9422199390005
 20
-12.29327523570471
 30
0.0
 10
12.94207083322064
 20
-12.29737357299781
 30
0.0
 10
12.94191989213166
 20
-12.30147184276092
 30
0.0
 10
12.94178379497654
 20
-12.30516707816284
 30
0.0
 10
12.9416462057406
 20
-12.30886225866379
 30
0.0
 10
12.94150711589893
 20
-12.3125573826495
 30
0.0
 10
12.94138354077768
 20
-12.31584033551457
 30
0.0
 10
12.94125878114896
 20
-12.31912324376907
 30
0.0
 10
12.94113282256138
 20
-12.3224061060131
 30
0.0
 10
12.94102299406758
 20
-12.32526856916684
 30
0.0
 10
12.9409122540275
 20
-12.32813099733976
 30
0.0
 10
12.94080064754664
 20
-12.33099339172203
 30
0.0
 10
12.94070572890096
 20
-12.33342778976243
 30
0.0
 10
12.94061018355043
 20
-12.33586216336175
 30
0.0
 10
12.94051396272228
 20
-12.33829651029019
 30
0.0
 10
12.94043488660468
 20
-12.3402971031717
 30
0.0
 10
12.94035535427858
 20
-12.34229767803999
 30
0.0
 10
12.9402753690464
 20
-12.3442982347105
 30
0.0
 10
12.9402419473756
 20
-12.34513416335186
 30
0.0
 10
12.94020844662873
 20
-12.3459700888161
 30
0.0
 10
12.94017487433974
 20
-12.3468060114692
 30
0.0
 10
12.94014573845258
 20
-12.34753147133149
 30
0.0
 10
12.94011654868179
 20
-12.34825692907657
 30
0.0
 10
12.9400873208723
 20
-12.34898238508387
 30
0.0
 10
12.94006256249066
 20
-12.34959690656248
 30
0.0
 10
12.94003777681438
 20
-12.3502114267942
 30
0.0
 10
12.94001292506911
 20
-12.35082594499181
 30
0.0
 10
12.93999256965278
 20
-12.35132928081803
 30
0.0
 10
12.93997216991192
 20
-12.35183261527966
 30
0.0
 10
12.93995180446326
 20
-12.3523359493279
 30
0.0
 10
12.93993594713174
 20
-12.35272786482106
 30
0.0
 10
12.93992011059082
 20
-12.3531197800634
 30
0.0
 10
12.93990407152377
 20
-12.3535116917766
 30
0.0
 10
12.93989260191877
 20
-12.35379194950875
 30
0.0
 10
12.93988102874714
 20
-12.35407220543609
 30
0.0
 10
12.93986983856474
 20
-12.35435246617855
 30
0.0
 10
12.9398659182275
 20
-12.35445065194426
 30
0.0
 10
12.93986204489693
 20
-12.35454883830097
 30
0.0
 10
12.93985781965375
 20
-12.35464701966604
 30
0.0
 10
12.93985479944685
 20
-12.35471719977704
 30
0.0
 10
12.93985159943375
 20
-12.35478737733764
 30
0.0
 10
12.93984921782976
 20
-12.35485756628481
 30
0.0
 10
12.93984778746744
 20
-12.35489972090797
 30
0.0
 10
12.93984665230997
 20
-12.35494187963832
 30
0.0
 10
12.93984404721858
 20
-12.35498401786951
 30
0.0
 10
12.93984317643485
 20
-12.3549981030896
 30
0.0
 10
12.93984214141361
 20
-12.35501218601936
 30
0.0
 10
12.9398423218468
 20
-12.35502628594205
 30
0.0
  0
SPLINE
  5
11E
330
70
100
AcDbEntity
  8
Layer 1
 62
    18
420
        0
370
     5
100
AcDbSpline
210
0.0
220
0.0
230
1.0
 70
     8
 71
     3
 72
    29
 73
    25
 74
     0
 42
0.0000000001
 43
0.0000000001
 40
0.0
 40
0.0
 40
0.0
 40
0.0
 40
1.0
 40
1.0
 40
1.0
 40
2.0
 40
2.0
 40
2.0
 40
3.0
 40
3.0
 40
3.0
 40
4.0
 40
4.0
 40
4.0
 40
5.0
 40
5.0
 40
5.0
 40
6.0
 40
6.0
 40
6.0
 40
7.0
 40
7.0
 40
7.0
 40
8.0
 40
8.0
 40
8.0
 40
8.0
 10
12.94142474525253
 20
-12.45967481936711
 30
0.0
 10
12.9413645340949
 20
-12.4609005803887
 30
0.0
 10
12.94131479341437
 20
-12.46212685140904
 30
0.0
 10
12.94127036110467
 20
-12.46335329801407
 30
0.0
 10
12.94121617309939
 20
-12.46484902703385
 30
0.0
 10
12.94116988041529
 20
-12.4663450172068
 30
0.0
 10
12.94112805468315
 20
-12.46784112852401
 30
0.0
 10
12.9410229698305
 20
-12.47160002596517
 30
0.0
 10
12.9409460820764
 20
-12.47535968811406
 30
0.0
 10
12.94088084673487
 20
-12.47911951430604
 30
0.0
 10
12.94079927841277
 20
-12.48382068864432
 30
0.0
 10
12.940735927769
 20
-12.4885221194518
 30
0.0
 10
12.94068251312951
 20
-12.49322366360045
 30
0.0
 10
12.94061970619168
 20
-12.49875191566816
 30
0.0
 10
12.94057063671289
 20
-12.50428032444074
 30
0.0
 10
12.9405295182395
 20
-12.50980878564011
 30
0.0
 10
12.94048328550909
 20
-12.51602486894103
 30
0.0
 10
12.94044710465586
 20
-12.52224101852127
 30
0.0
 10
12.94041746597804
 20
-12.52845719820304
 30
0.0
 10
12.94038529625575
 20
-12.53520421893725
 30
0.0
 10
12.94036083377851
 20
-12.54195127513374
 30
0.0
 10
12.94034165547226
 20
-12.54869834658075
 30
0.0
 10
12.94030068557428
 20
-12.56311186283862
 30
0.0
 10
12.94028383061337
 20
-12.57752544869393
 30
0.0
 10
12.94028377340525
 20
-12.59193901902583
 30
0.0
  0
SPLINE
  5
11F
330
70
100
AcDbEntity
  8
Layer 1
 62
    18
420
        0
370
     5
100
AcDbSpline
210
0.0
220
0.0
230
1.0
 70
     8
 71
     3
 72
    89
 73
    85
 74
     0
 42
0.0000000001
 43
0.0000000001
 40
0.0
 40
0.0
 40
0.0
 40
0.0
 40
1.0
 40
1.0
 40
1.0
 40
2.0
 40
2.0
 40
2.0
 40
3.0
 40
3.0
 40
3.0
 40
4.0
 40
4.0
 40
4.0
 40
5.0
 40
5.0
 40
5.0
 40
6.0
 40
6.0
 40
6.0
 40
7.0
 40
7.0
 40
7.0
 40
8.0
 40
8.0
 40
8.0
 40
9.0
 40
9.0
 40
9.0
 40
10.0
 40
10.0
 40
10.0
 40
11.0
 40
11.0
 40
11.0
 40
12.0
 40
12.0
 40
12.0
 40
13.0
 40
13.0
 40
13.0
 40
14.0
 40
14.0
 40
14.0
 40
15.0
 40
15.0
 40
15.0
 40
16.0
 40
16.0
 40
16.0
 40
17.0
 40
17.0
 40
17.0
 40
18.0
 40
18.0
 40
18.0
 40
19.0
 40
19.0
 40
19.0
 40
20.0
 40
20.0
 40
20.0
 40
21.0
 40
21.0
 40
21.0
 40
22.0
 40
22.0
 40
22.0
 40
23.0
 40
23.0
 40
23.0
 40
24.0
 40
24.0
 40
24.0
 40
25.0
 40
25.0
 40
25.0
 40
26.0
 40
26.0
 40
26.0
 40
27.0
 40
27.0
 40
27.0
 40
28.0
 40
28.0
 40
28.0
 40
28.0
 10
13.64599465915696
 20
-11.79977093734093
 30
0.0
 10
13.64599468588049
 20
-11.8268631294189
 30
0.0
 10
13.64607725226708
 20
-11.85395541829825
 30
0.0
 10
13.64624241343558
 20
-11.88104713608383
 30
0.0
 10
13.64632296342946
 20
-11.89425991316837
 30
0.0
 10
13.64642315913397
 20
-11.90747255441462
 30
0.0
 10
13.64654301733521
 20
-11.92068502152817
 30
0.0
 10
13.64665930278609
 20
-11.93350364954504
 30
0.0
 10
13.64679409599936
 20
-11.94632211365559
 30
0.0
 10
13.64694742387721
 20
-11.95914035474844
 30
0.0
 10
13.64709453109971
 20
-11.97143854782158
 30
0.0
 10
13.64725869955762
 20
-11.98373653560593
 30
0.0
 10
13.64743993142818
 20
-11.99603427203864
 30
0.0
 10
13.64761173413459
 20
-12.0076921796431
 30
0.0
 10
13.64779887088682
 20
-12.01934986137022
 30
0.0
 10
13.64800136948755
 20
-12.03100727597648
 30
0.0
 10
13.64819079450424
 20
-12.04191207210192
 30
0.0
 10
13.64839366183666
 20
-12.05281663448457
 30
0.0
 10
13.64861000398777
 20
-12.06372092936335
 30
0.0
 10
13.64880932737444
 20
-12.07376742734264
 30
0.0
 10
13.64902008894715
 20
-12.08381369824941
 30
0.0
 10
13.64924229331387
 20
-12.09385971579412
 30
0.0
 10
13.64944340926124
 20
-12.10295231089288
 30
0.0
 10
13.64965389909993
 20
-12.11204469843831
 30
0.0
 10
13.64987379188996
 20
-12.12113685865774
 30
0.0
 10
13.65006856255412
 20
-12.12919026543419
 30
0.0
 10
13.65027071037993
 20
-12.13724349386022
 30
0.0
 10
13.65048023695059
 20
-12.14529652932714
 30
0.0
 10
13.65057424450742
 20
-12.14890965670702
 30
0.0
 10
13.6506697374178
 20
-12.15252274524391
 30
0.0
 10
13.65076672721448
 20
-12.15613579362859
 30
0.0
 10
13.65085602291421
 20
-12.15946222274248
 30
0.0
 10
13.65094658742752
 20
-12.16278861782191
 30
0.0
 10
13.6510384032968
 20
-12.16611497835742
 30
0.0
 10
13.65112209080583
 20
-12.16914685977111
 30
0.0
 10
13.65120681791581
 20
-12.17217871248638
 30
0.0
 10
13.6512925991108
 20
-12.17521053531297
 30
0.0
 10
13.6513698630265
 20
-12.17794132617218
 30
0.0
 10
13.65144798209722
 20
-12.18067209278342
 30
0.0
 10
13.65152696434754
 20
-12.18340283466854
 30
0.0
 10
13.65159706631155
 20
-12.18582654846525
 30
0.0
 10
13.65166784826553
 20
-12.18825024278319
 30
0.0
 10
13.65173928349754
 20
-12.19067391707179
 30
0.0
 10
13.65180150324891
 20
-12.19278492598773
 30
0.0
 10
13.6518642185984
 20
-12.19489591970864
 30
0.0
 10
13.65192745538444
 20
-12.19700690013625
 30
0.0
 10
13.65198119791264
 20
-12.19880094174201
 30
0.0
 10
13.65203531705613
 20
-12.20059497374662
 30
0.0
 10
13.65208981345904
 20
-12.20238898747026
 30
0.0
 10
13.65213456245071
 20
-12.20386211781849
 30
0.0
 10
13.65217956581525
 20
-12.20533523584059
 30
0.0
 10
13.65222479600051
 20
-12.2068083658946
 30
0.0
 10
13.65224368202118
 20
-12.20742347645536
 30
0.0
 10
13.6522626075882
 20
-12.20803858911394
 30
0.0
 10
13.65228157547537
 20
-12.20865367988598
 30
0.0
 10
13.65229803479592
 20
-12.20918742284175
 30
0.0
 10
13.65231452598285
 20
-12.2097211493174
 30
0.0
 10
13.65233105848518
 20
-12.2102549383606
 30
0.0
 10
13.65234506371386
 20
-12.21070712868744
 30
0.0
 10
13.65235909859196
 20
-12.21115936391495
 30
0.0
 10
13.65237314443922
 20
-12.21161141210842
 30
0.0
 10
13.65238464810833
 20
-12.21198164344843
 30
0.0
 10
13.6523961591353
 20
-12.21235174933058
 30
0.0
 10
13.65240773265016
 20
-12.21272237203407
 30
0.0
 10
13.65241674093007
 20
-12.21301084732636
 30
0.0
 10
13.65242578706728
 20
-12.21329963572629
 30
0.0
 10
13.65243472247357
 20
-12.21358708887523
 30
0.0
 10
13.65243823366194
 20
-12.21370004424706
 30
0.0
 10
13.65244172775222
 20
-12.21381279344071
 30
0.0
 10
13.65244533694582
 20
-12.21392688107143
 30
0.0
 10
13.65244828991449
 20
-12.21402022524454
 30
0.0
 10
13.65245131993545
 20
-12.21411446539138
 30
0.0
 10
13.65245402140954
 20
-12.21420489212712
 30
0.0
 10
13.65245612253981
 20
-12.21427522349149
 30
0.0
 10
13.6524580249227
 20
-12.21434324801301
 30
0.0
 10
13.65246077571919
 20
-12.21442112126793
 30
0.0
 10
13.65246274055456
 20
-12.2144767444751
 30
0.0
 10
13.65246513824559
 20
-12.21453739244771
 30
0.0
 10
13.6524656000444
 20
-12.21457556914871
 30
0.0
 10
13.65246587711883
 20
-12.2145984747673
 30
0.0
 10
13.65246545729658
 20
-12.21461329101218
 30
0.0
 10
13.65246849441463
 20
-12.21466823629349
 30
0.0
 10
13.65246950671892
 20
-12.21468655014935
 30
0.0
 10
13.65247090307573
 20
-12.21470932218436
 30
0.0
 10
13.65246945891694
 20
-12.21469912320269
 30
0.0
  0
SPLINE
  5
120
330
70
100
AcDbEntity
  8
Layer 1
 62
    18
420
        0
370
     5
100
AcDbSpline
210
0.0
220
0.0
230
1.0
 70
     8
 71
     3
 72
    29
 73
    25
 74
     0
 42
0.0000000001
 43
0.0000000001
 40
0.0
 40
0.0
 40
0.0
 40
0.0
 40
1.0
 40
1.0
 40
1.0
 40
2.0
 40
2.0
 40
2.0
 40
3.0
 40
3.0
 40
3.0
 40
4.0
 40
4.0
 40
4.0
 40
5.0
 40
5.0
 40
5.0
 40
6.0
 40
6.0
 40
6.0
 40
7.0
 40
7.0
 40
7.0
 40
8.0
 40
8.0
 40
8.0
 40
8.0
 10
13.65202805565882
 20
-12.59193901902583
 30
0.0
 10
13.6520279646999
 20
-12.57752571137621
 30
0.0
 10
13.65201115056925
 20
-12.56311238836398
 30
0.0
 10
13.65197018259727
 20
-12.54869913492424
 30
0.0
 10
13.65195099973451
 20
-12.54195026620682
 30
0.0
 10
13.65192652116249
 20
-12.53520141274301
 30
0.0
 10
13.65189433841275
 20
-12.52845259473828
 30
0.0
 10
13.65186469234939
 20
-12.5222357273902
 30
0.0
 10
13.65182850875044
 20
-12.51601889013149
 30
0.0
 10
13.65178226529153
 20
-12.50980211917921
 30
0.0
 10
13.65174114515907
 20
-12.50427410612256
 30
0.0
 10
13.65169207075663
 20
-12.49874614549394
 30
0.0
 10
13.65162925211037
 20
-12.49321834176322
 30
0.0
 10
13.65157582914202
 20
-12.48851732222106
 30
0.0
 10
13.651512465868
 20
-12.48381641615292
 30
0.0
 10
13.6514309090169
 20
-12.47911576609469
 30
0.0
 10
13.6513656881569
 20
-12.47535666510639
 30
0.0
 10
13.65128883219379
 20
-12.47159772784087
 30
0.0
 10
13.65118375993678
 20
-12.46783955573217
 30
0.0
 10
13.65114194116025
 20
-12.4663438025765
 30
0.0
 10
13.6510956528059
 20
-12.46484817062489
 30
0.0
 10
13.65104146746151
 20
-12.46335279998225
 30
0.0
 10
13.6509970327044
 20
-12.46212651947947
 30
0.0
 10
13.65094728734801
 20
-12.46090041470289
 30
0.0
 10
13.65088708381154
 20
-12.45967481936711
 30
0.0
  0
SPLINE
  5
121
330
70
100
AcDbEntity
  8
Layer 1
 62
    18
420
        0
370
     5
100
AcDbSpline
210
0.0
220
0.0
230
1.0
 70
     8
 71
     3
 72
    26
 73
    22
 74
     0
 42
0.0000000001
 43
0.0000000001
 40
0.0
 40
0.0
 40
0.0
 40
0.0
 40
1.0
 40
1.0
 40
1.0
 40
2.0
 40
2.0
 40
2.0
 40
3.0
 40
3.0
 40
3.0
 40
4.0
 40
4.0
 40
4.0
 40
5.0
 40
5.0
 40
5.0
 40
6.0
 40
6.0
 40
6.0
 40
7.0
 40
7.0
 40
7.0
 40
7.0
 10
12.98101052265656
 20
-12.49746459068405
 30
0.0
 10
12.97588124982455
 20
-12.49744224398225
 30
0.0
 10
12.97068862174572
 20
-12.49644153196997
 30
0.0
 10
12.96590328989254
 20
-12.49453867678067
 30
0.0
 10
12.96351532006984
 20
-12.49358911656031
 30
0.0
 10
12.96122877499399
 20
-12.49241490499861
 30
0.0
 10
12.9590712747901
 20
-12.49103314023379
 30
0.0
 10
12.95693280112745
 20
-12.48966356096224
 30
0.0
 10
12.95492110633348
 20
-12.48809007308225
 30
0.0
 10
12.95308281820634
 20
-12.48633546140139
 30
0.0
 10
12.95126098984373
 20
-12.48459656025829
 30
0.0
 10
12.94960947673411
 20
-12.48267976430566
 30
0.0
 10
12.94816187204211
 20
-12.48061870164995
 30
0.0
 10
12.94672544468211
 20
-12.47857355299457
 30
0.0
 10
12.9454897890366
 20
-12.47638635687664
 30
0.0
 10
12.94448972566306
 20
-12.47409665039193
 30
0.0
 10
12.94349554281492
 20
-12.47182040773077
 30
0.0
 10
12.94273418974757
 20
-12.46944285671169
 30
0.0
 10
12.94221830445556
 20
-12.46701106218759
 30
0.0
 10
12.94170669854985
 20
-12.46459943995427
 30
0.0
 10
12.94143650488776
 20
-12.46213447040802
 30
0.0
 10
12.94142474525253
 20
-12.45967481936711
 30
0.0
  0
SPLINE
  5
122
330
70
100
AcDbEntity
  8
Layer 1
 62
    18
420
        0
370
     5
100
AcDbSpline
210
0.0
220
0.0
230
1.0
 70
     8
 71
     3
 72
    26
 73
    22
 74
     0
 42
0.0000000001
 43
0.0000000001
 40
0.0
 40
0.0
 40
0.0
 40
0.0
 40
1.0
 40
1.0
 40
1.0
 40
2.0
 40
2.0
 40
2.0
 40
3.0
 40
3.0
 40
3.0
 40
4.0
 40
4.0
 40
4.0
 40
5.0
 40
5.0
 40
5.0
 40
6.0
 40
6.0
 40
6.0
 40
7.0
 40
7.0
 40
7.0
 40
7.0
 10
13.61130132362935
 20
-12.49746459068405
 30
0.0
 10
13.61643059646141
 20
-12.49744224229958
 30
0.0
 10
13.62162322416412
 20
-12.49644152805118
 30
0.0
 10
13.62640855542415
 20
-12.49453867115133
 30
0.0
 10
13.62879652501422
 20
-12.49358911005207
 30
0.0
 10
13.63108306979797
 20
-12.49241489773041
 30
0.0
 10
13.63324056952857
 20
-12.49103313204038
 30
0.0
 10
13.63537904235019
 20
-12.48966355208985
 30
0.0
 10
13.63739073616938
 20
-12.4880900634393
 30
0.0
 10
13.639229023183
 20
-12.48633545107084
 30
0.0
 10
13.6410508500789
 20
-12.48459654959308
 30
0.0
 10
13.64270236165354
 20
-12.48267975345824
 30
0.0
 10
13.64414996505901
 20
-12.48061869093958
 30
0.0
 10
13.64558639081179
 20
-12.4785735428911
 30
0.0
 10
13.64682204518724
 20
-12.47638634775972
 30
0.0
 10
13.64782210764487
 20
-12.47409664240394
 30
0.0
 10
13.64881628939222
 20
-12.47182040130059
 30
0.0
 10
13.6495776417979
 20
-12.46944285201872
 30
0.0
 10
13.6500935262546
 20
-12.46701105927576
 30
0.0
 10
13.65060513150365
 20
-12.46459943799982
 30
0.0
 10
13.65087532417637
 20
-12.46213446941818
 30
0.0
 10
13.65088708381154
 20
-12.45967481936711
 30
0.0
  0
LINE
  5
123
330
70
100
AcDbEntity
  8
Layer 1
 62
    18
420
        0
370
     5
100
AcDbLine
 10
4.220465700430824
 20
-11.83330099579034
 30
0.0
 11
4.209700400230454
 21
-11.85323134819802
 31
0.0
  0
LINE
  5
124
330
70
100
AcDbEntity
  8
Layer 1
 62
    18
420
        0
370
     5
100
AcDbLine
 10
4.219094283658275
 20
-11.74587039427559
 30
0.0
 11
4.219094283658275
 21
-11.77056424530171
 31
0.0
  0
LINE
  5
125
330
70
100
AcDbEntity
  8
Layer 1
 62
    40
420
 16695056
370
     5
100
AcDbLine
 10
4.385893521978106
 20
-14.32365888552777
 30
0.0
 11
4.385893521978106
 21
-14.42263488399082
 31
0.0
  0
LINE
  5
126
330
70
100
AcDbEntity
  8
Layer 1
 62
    40
420
 16695056
370
     5
100
AcDbLine
 10
4.746166154582056
 20
-14.42263488349593
 30
0.0
 11
4.746166154582056
 21
-14.32365888503295
 31
0.0
  0
LINE
  5
127
330
70
100
AcDbEntity
  8
Layer 1
 62
    18
420
        0
370
     5
100
AcDbLine
 10
4.879499792967053
 20
-11.85257112692294
 30
0.0
 11
4.879499792967053
 21
-11.84435997648322
 31
0.0
  0
LINE
  5
128
330
70
100
AcDbEntity
  8
Layer 1
 62
    18
420
        0
370
     5
100
AcDbLine
 10
4.879644118678533
 20
-11.75518190126692
 30
0.0
 11
4.879644118678533
 21
-11.74697075132205
 31
0.0
  0
LINE
  5
129
330
70
100
AcDbEntity
  8
Layer 1
 62
    18
420
        0
370
     5
100
AcDbLine
 10
4.896458049964343
 20
-11.80645909669048
 30
0.0
 11
4.896458049964343
 21
-11.77983102583147
 31
0.0
  0
LINE
  5
12A
330
70
100
AcDbEntity
  8
Layer 1
 62
    18
420
        0
370
     5
100
AcDbLine
 10
4.932106475070339
 20
-11.74697075112415
 30
0.0
 11
4.932106475070339
 21
-11.75518190156382
 31
0.0
  0
LINE
  5
12B
330
70
100
AcDbEntity
  8
Layer 1
 62
    18
420
        0
370
     5
100
AcDbLine
 10
4.932106475070339
 20
-11.84435997678017
 30
0.0
 11
4.932106475070339
 21
-11.85257112721994
 31
0.0
  0
LINE
  5
12C
330
70
100
AcDbEntity
  8
Layer 1
 62
    18
420
        0
370
     5
100
AcDbLine
 10
4.958967921632923
 20
-11.85257112692294
 30
0.0
 11
4.958967921632923
 21
-11.84436121991868
 31
0.0
  0
LINE
  5
12D
330
70
100
AcDbEntity
  8
Layer 1
 62
    18
420
        0
370
     5
100
AcDbLine
 10
4.958967921632923
 20
-11.75518065802945
 30
0.0
 11
4.958967921632923
 21
-11.74697075112415
 31
0.0
  0
LINE
  5
12E
330
70
100
AcDbEntity
  8
Layer 1
 62
    18
420
        0
370
     5
100
AcDbLine
 10
4.9945994566828
 20
-11.77983102642535
 30
0.0
 11
4.9945994566828
 21
-11.80645909669048
 31
0.0
  0
LINE
  5
12F
330
70
100
AcDbEntity
  8
Layer 1
 62
    18
420
        0
370
     5
100
AcDbLine
 10
5.011430270304572
 20
-11.74697075112415
 30
0.0
 11
5.011430270304572
 21
-11.75518190126692
 31
0.0
  0
LINE
  5
130
330
70
100
AcDbEntity
  8
Layer 1
 62
    18
420
        0
370
     5
100
AcDbLine
 10
5.011574600667964
 20
-11.84436122179924
 30
0.0
 11
5.011574600667964
 21
-11.85257112662606
 31
0.0
  0
LINE
  5
131
330
70
100
AcDbEntity
  8
Layer 1
 62
    18
420
        0
370
     5
100
AcDbLine
 10
4.979061797631427
 20
-11.75852072858242
 30
0.0
 11
4.978987159831363
 21
-11.75782470303706
 31
0.0
  0
LINE
  5
132
330
70
100
AcDbEntity
  8
Layer 1
 62
    18
420
        0
370
     5
100
AcDbLine
 10
4.211172307135762
 20
-11.77056424540071
 30
0.0
 11
4.207434332582907
 21
-11.75812244659331
 31
0.0
  0
LINE
  5
133
330
70
100
AcDbEntity
  8
Layer 1
 62
    40
420
 16695056
370
     5
100
AcDbLine
 10
4.385893521978106
 20
-14.42263488349593
 30
0.0
 11
4.407668232524303
 21
-14.42263488349593
 31
0.0
  0
LINE
  5
134
330
70
100
AcDbEntity
  8
Layer 1
 62
    40
420
 16695056
370
     5
100
AcDbLine
 10
4.724391443738934
 20
-14.42263488349593
 30
0.0
 11
4.746166154285106
 21
-14.42263488349593
 31
0.0
  0
LINE
  5
135
330
70
100
AcDbEntity
  8
Layer 1
 62
    40
420
 16695056
370
     5
100
AcDbLine
 10
4.746166154582056
 20
-14.32365888552777
 30
0.0
 11
4.724391443046126
 21
-14.32365888552777
 31
0.0
  0
LINE
  5
136
330
70
100
AcDbEntity
  8
Layer 1
 62
    40
420
 16695056
370
     5
100
AcDbLine
 10
4.407668232821214
 20
-14.32365888552777
 30
0.0
 11
4.38589352118634
 21
-14.32365888552777
 31
0.0
  0
LINE
  5
137
330
70
100
AcDbEntity
  8
Layer 1
 62
    18
420
        0
370
     5
100
AcDbLine
 10
4.213169288242751
 20
-11.83064775769407
 30
0.0
 11
4.220465700529782
 21
-11.83330099588935
 31
0.0
  0
LINE
  5
138
330
70
100
AcDbEntity
  8
Layer 1
 62
    18
420
        0
370
     5
100
AcDbLine
 10
4.879499792967053
 20
-11.84435997678017
 30
0.0
 11
4.894835628279363
 21
-11.84170277746638
 31
0.0
  0
LINE
  5
139
330
70
100
AcDbEntity
  8
Layer 1
 62
    18
420
        0
370
     5
100
AcDbLine
 10
5.011430270304572
 20
-11.75518190126692
 30
0.0
 11
4.995770731714451
 21
-11.75771505851533
 31
0.0
  0
LINE
  5
13A
330
70
100
AcDbEntity
  8
Layer 1
 62
    18
420
        0
370
     5
100
AcDbLine
 10
4.958967921632923
 20
-11.84436122001764
 30
0.0
 11
4.978768942697822
 21
-11.8417160459908
 31
0.0
  0
LINE
  5
13B
330
70
100
AcDbEntity
  8
Layer 1
 62
    18
420
        0
370
     5
100
AcDbLine
 10
4.932106475070339
 20
-11.75518190126692
 30
0.0
 11
4.912041377530916
 21
-11.75783200311083
 31
0.0
  0
LINE
  5
13C
330
70
100
AcDbEntity
  8
Layer 1
 62
    18
420
        0
370
     5
100
AcDbLine
 10
5.011574600667964
 20
-11.85257112692294
 30
0.0
 11
4.958967920445198
 21
-11.85257112692294
 31
0.0
  0
LINE
  5
13D
330
70
100
AcDbEntity
  8
Layer 1
 62
    18
420
        0
370
     5
100
AcDbLine
 10
4.932106475070339
 20
-11.85257112692294
 30
0.0
 11
4.879499795144511
 21
-11.85257112692294
 31
0.0
  0
LINE
  5
13E
330
70
100
AcDbEntity
  8
Layer 1
 62
    18
420
        0
370
     5
100
AcDbLine
 10
4.979687181235703
 20
-11.80431488957831
 30
0.0
 11
4.911305294122763
 21
-11.80431488957831
 31
0.0
  0
LINE
  5
13F
330
70
100
AcDbEntity
  8
Layer 1
 62
    18
420
        0
370
     5
100
AcDbLine
 10
4.219094283658275
 20
-11.77056424540071
 30
0.0
 11
4.211172307333716
 21
-11.77056424540071
 31
0.0
  0
LINE
  5
140
330
70
100
AcDbEntity
  8
Layer 1
 62
    18
420
        0
370
     5
100
AcDbLine
 10
4.879644118678533
 20
-11.74697075112415
 30
0.0
 11
4.932106474971343
 21
-11.74697075112415
 31
0.0
  0
LINE
  5
141
330
70
100
AcDbEntity
  8
Layer 1
 62
    18
420
        0
370
     5
100
AcDbLine
 10
4.958967921632923
 20
-11.74697075112415
 30
0.0
 11
5.011430271393312
 21
-11.74697075112415
 31
0.0
  0
LINE
  5
142
330
70
100
AcDbEntity
  8
Layer 1
 62
    18
420
        0
370
     5
100
AcDbLine
 10
4.978987159831363
 20
-11.75782470313611
 30
0.0
 11
4.958967921434969
 21
-11.75518065802945
 31
0.0
  0
LINE
  5
143
330
70
100
AcDbEntity
  8
Layer 1
 62
    18
420
        0
370
     5
100
AcDbLine
 10
4.912028872012556
 20
-11.84167785481526
 30
0.0
 11
4.93210647457546
 21
-11.84435997668116
 31
0.0
  0
LINE
  5
144
330
70
100
AcDbEntity
  8
Layer 1
 62
    18
420
        0
370
     5
100
AcDbLine
 10
4.895286507994455
 20
-11.75771228431702
 30
0.0
 11
4.879644118480604
 21
-11.75518190116799
 31
0.0
  0
LINE
  5
145
330
70
100
AcDbEntity
  8
Layer 1
 62
    18
420
        0
370
     5
100
AcDbLine
 10
4.996221688828742
 20
-11.841701063697
 30
0.0
 11
5.011574600667964
 21
-11.84436122179924
 31
0.0
  0
LINE
  5
146
330
70
100
AcDbEntity
  8
Layer 1
 62
    40
420
 16695056
370
     5
100
AcDbLine
 10
4.120654664930295
 20
-7.477664908428828
 30
0.0
 11
4.154200029028035
 21
-7.486521520446873
 31
0.0
  0
LINE
  5
147
330
70
100
AcDbEntity
  8
Layer 1
 62
    40
420
 16695056
370
     5
100
AcDbLine
 10
4.12063784742357
 20
-7.477659010251108
 30
0.0
 11
4.120654664930295
 21
-7.477664908428828
 31
0.0
  0
LINE
  5
148
330
70
100
AcDbEntity
  8
Layer 1
 62
    40
420
 16695056
370
     5
100
AcDbLine
 10
4.979061797631427
 20
-7.486459201595392
 30
0.0
 11
4.978987159831363
 21
-7.486460460965973
 31
0.0
  0
LINE
  5
149
330
70
100
AcDbEntity
  8
Layer 1
 62
    40
420
 16695056
370
     5
100
AcDbLine
 10
4.056303448744314
 20
-1.663284203685407
 30
0.0
 11
4.056303448744314
 21
-1.669367492305253
 31
0.0
  0
LINE
  5
14A
330
70
100
AcDbEntity
  8
Layer 1
 62
    40
420
 16695056
370
     5
100
AcDbLine
 10
4.219094283658275
 20
-7.502863368884415
 30
0.0
 11
4.219094283658275
 21
-7.50354612699415
 31
0.0
  0
LINE
  5
14B
330
70
100
AcDbEntity
  8
Layer 1
 62
    40
420
 16695056
370
     5
100
AcDbLine
 10
4.879644118678533
 20
-7.510473552999668
 30
0.0
 11
4.879644118678533
 21
-7.510208765877513
 31
0.0
  0
LINE
  5
14C
330
70
100
AcDbEntity
  8
Layer 1
 62
    40
420
 16695056
370
     5
100
AcDbLine
 10
4.896458049964343
 20
-7.507543657490789
 30
0.0
 11
4.896458049964343
 21
-7.507411755048602
 31
0.0
  0
LINE
  5
14D
330
70
100
AcDbEntity
  8
Layer 1
 62
    40
420
 16695056
370
     5
100
AcDbLine
 10
4.932106475070339
 20
-7.498354151679651
 30
0.0
 11
4.932106475070339
 21
-7.498621033727797
 31
0.0
  0
LINE
  5
14E
330
70
100
AcDbEntity
  8
Layer 1
 62
    40
420
 16695056
370
     5
100
AcDbLine
 10
4.958967921632923
 20
-7.491801775126305
 30
0.0
 11
4.958967921632923
 21
-7.491533709820108
 31
0.0
  0
LINE
  5
14F
330
70
100
AcDbEntity
  8
Layer 1
 62
    40
420
 16695056
370
     5
100
AcDbLine
 10
4.9945994566828
 20
-7.482493177732294
 30
0.0
 11
4.9945994566828
 21
-7.482627297434797
 31
0.0
  0
LINE
  5
150
330
70
100
AcDbEntity
  8
Layer 1
 62
    40
420
 16695056
370
     5
100
AcDbLine
 10
5.011430270304572
 20
-7.476713459583556
 30
0.0
 11
5.011430270304572
 21
-7.476984252767224
 31
0.0
  0
LINE
  5
151
330
70
100
AcDbEntity
  8
Layer 1
 62
    40
420
 16695056
370
     5
100
AcDbLine
 10
5.075756227815859
 20
-1.669367492602216
 30
0.0
 11
5.075756227815859
 21
-1.663284203982369
 31
0.0
  0
LINE
  5
152
330
70
100
AcDbEntity
  8
Layer 1
 62
    18
420
        0
370
     5
100
AcDbLine
 10
12.7367173556703
 20
-11.75852072858242
 30
0.0
 11
12.73671609629976
 21
-11.75782470303706
 31
0.0
  0
LINE
  5
153
330
70
100
AcDbEntity
  8
Layer 1
 62
    40
420
 16695056
370
     5
100
AcDbLine
 10
18.5582408467096
 20
-14.42263488349593
 30
0.0
 11
18.55838804925739
 21
-14.42263488349593
 31
0.0
  0
LINE
  5
154
330
70
100
AcDbEntity
  8
Layer 1
 62
    40
420
 16695056
370
     5
100
AcDbLine
 10
18.55607720021655
 20
-14.32365888552777
 30
0.0
 11
18.55593000083591
 21
-14.32365888552777
 31
0.0
  0
LINE
  5
155
330
70
100
AcDbEntity
  8
Layer 1
 62
    18
420
        0
370
     5
100
AcDbLine
 10
12.74650664672541
 20
-11.85257112692294
 30
0.0
 11
12.73164284724766
 21
-11.85257112692294
 31
0.0
  0
LINE
  5
156
330
70
100
AcDbEntity
  8
Layer 1
 62
    18
420
        0
370
     5
100
AcDbLine
 10
12.72482240568499
 20
-11.85257112692294
 30
0.0
 11
12.71293782204985
 21
-11.85257112692294
 31
0.0
  0
LINE
  5
157
330
70
100
AcDbEntity
  8
Layer 1
 62
    18
420
        0
370
     5
100
AcDbLine
 10
12.73632581523321
 20
-11.80431488957831
 30
0.0
 11
12.71897149271525
 21
-11.80431488957831
 31
0.0
  0
LINE
  5
158
330
70
100
AcDbEntity
  8
Layer 1
 62
    18
420
        0
370
     5
100
AcDbLine
 10
12.71296779128917
 20
-11.74697075112415
 30
0.0
 11
12.72482240558601
 21
-11.74697075112415
 31
0.0
  0
LINE
  5
159
330
70
100
AcDbEntity
  8
Layer 1
 62
    18
420
        0
370
     5
100
AcDbLine
 10
12.73164284734664
 20
-11.74697075112415
 30
0.0
 11
12.74646309797915
 21
-11.74697075112415
 31
0.0
  0
LINE
  5
15A
330
70
100
AcDbEntity
  8
Layer 1
 62
    40
420
 16695056
370
     5
100
AcDbLine
 10
18.55263046352744
 20
-9.424346986106279
 30
0.0
 11
18.55380906466345
 21
-9.424346986106279
 31
0.0
  0
LINE
  5
15B
330
70
100
AcDbEntity
  8
Layer 1
 62
    40
420
 16695056
370
     5
100
AcDbLine
 10
18.55989235348134
 20
-9.157111791592392
 30
0.0
 11
18.55871368731803
 21
-9.157111791592392
 31
0.0
  0
SPLINE
  5
15C
330
70
100
AcDbEntity
  8
Layer 1
 62
    18
420
        0
370
     5
100
AcDbSpline
210
0.0
220
0.0
230
1.0
 70
     8
 71
     3
 72
     8
 73
     4
 74
     0
 42
0.0000000001
 43
0.0000000001
 40
0.0
 40
0.0
 40
0.0
 40
0.0
 40
1.0
 40
1.0
 40
1.0
 40
1.0
 10
4.910670821361855
 20
-11.79397918622349
 30
0.0
 10
4.933841069224538
 20
-11.79673647794766
 30
0.0
 10
4.957260884635906
 20
-11.79666170108559
 30
0.0
 10
4.980413052812271
 20
-11.79375650704623
 30
0.0
  0
SPLINE
  5
15D
330
70
100
AcDbEntity
  8
Layer 1
 62
    40
420
 16695056
370
     5
100
AcDbSpline
210
0.0
220
0.0
230
1.0
 70
     8
 71
     3
 72
     8
 73
     4
 74
     0
 42
0.0000000001
 43
0.0000000001
 40
0.0
 40
0.0
 40
0.0
 40
0.0
 40
1.0
 40
1.0
 40
1.0
 40
1.0
 10
4.188632471237156
 20
-7.495514884322497
 30
0.0
 10
4.193606068663939
 20
-7.496782820943419
 30
0.0
 10
4.198587217420215
 20
-7.498020950358813
 30
0.0
 10
4.20357564935293
 20
-7.499229205915778
 30
0.0
  0
SPLINE
  5
15E
330
70
100
AcDbEntity
  8
Layer 1
 62
    40
420
 16695056
370
     5
100
AcDbSpline
210
0.0
220
0.0
230
1.0
 70
     8
 71
     3
 72
     8
 73
     4
 74
     0
 42
0.0000000001
 43
0.0000000001
 40
0.0
 40
0.0
 40
0.0
 40
0.0
 40
1.0
 40
1.0
 40
1.0
 40
1.0
 10
4.154200062504729
 20
-7.486521393809551
 30
0.0
 10
4.161441314112494
 20
-7.488434620835063
 30
0.0
 10
4.168684895694759
 20
-7.490339018389552
 30
0.0
 10
4.175930791100906
 20
-7.492234582226905
 30
0.0
  0
SPLINE
  5
15F
330
70
100
AcDbEntity
  8
Layer 1
 62
    40
420
 16695056
370
     5
100
AcDbSpline
210
0.0
220
0.0
230
1.0
 70
     8
 71
     3
 72
     8
 73
     4
 74
     0
 42
0.0000000001
 43
0.0000000001
 40
0.0
 40
0.0
 40
0.0
 40
0.0
 40
1.0
 40
1.0
 40
1.0
 40
1.0
 10
4.183220872694745
 20
-7.494129670259401
 30
0.0
 10
4.185024048317043
 20
-7.494594102015248
 30
0.0
 10
4.186827892895924
 20
-7.495055932636129
 30
0.0
 10
4.188632400802147
 20
-7.4955151606808
 30
0.0
  0
SPLINE
  5
160
330
70
100
AcDbEntity
  8
Layer 1
 62
    40
420
 16695056
370
     5
100
AcDbSpline
210
0.0
220
0.0
230
1.0
 70
     8
 71
     3
 72
     8
 73
     4
 74
     0
 42
0.0000000001
 43
0.0000000001
 40
0.0
 40
0.0
 40
0.0
 40
0.0
 40
1.0
 40
1.0
 40
1.0
 40
1.0
 10
4.211172307178748
 20
-7.501695791091933
 30
0.0
 10
4.213811335247188
 20
-7.502319530937976
 30
0.0
 10
4.216452003268374
 20
-7.502936311695052
 30
0.0
 10
4.219094283707337
 20
-7.503546126931913
 30
0.0
  0
SPLINE
  5
161
330
70
100
AcDbEntity
  8
Layer 1
 62
    40
420
 16695056
370
     5
100
AcDbSpline
210
0.0
220
0.0
230
1.0
 70
     8
 71
     3
 72
     8
 73
     4
 74
     0
 42
0.0000000001
 43
0.0000000001
 40
0.0
 40
0.0
 40
0.0
 40
0.0
 40
1.0
 40
1.0
 40
1.0
 40
1.0
 10
4.958967921619723
 20
-7.491533709838322
 30
0.0
 10
4.976541329682415
 20
-7.486903133430258
 30
0.0
 10
4.994031511361677
 20
-7.481962278200499
 30
0.0
 10
5.011430270276908
 20
-7.476713459569786
 30
0.0
  0
SPLINE
  5
162
330
70
100
AcDbEntity
  8
Layer 1
 62
    40
420
 16695056
370
     5
100
AcDbSpline
210
0.0
220
0.0
230
1.0
 70
     8
 71
     3
 72
     8
 73
     4
 74
     0
 42
0.0000000001
 43
0.0000000001
 40
0.0
 40
0.0
 40
0.0
 40
0.0
 40
1.0
 40
1.0
 40
1.0
 40
1.0
 10
4.879644118652373
 20
-7.510208765904975
 30
0.0
 10
4.89719915535492
 20
-7.506562506952402
 30
0.0
 10
4.914689266883859
 20
-7.502610367931461
 30
0.0
 10
4.932106475062128
 20
-7.498354151624576
 30
0.0
  0
SPLINE
  5
163
330
70
100
AcDbEntity
  8
Layer 1
 62
    40
420
 16695056
370
     5
100
AcDbSpline
210
0.0
220
0.0
230
1.0
 70
     8
 71
     3
 72
     8
 73
     4
 74
     0
 42
0.0000000001
 43
0.0000000001
 40
0.0
 40
0.0
 40
0.0
 40
0.0
 40
1.0
 40
1.0
 40
1.0
 40
1.0
 10
4.932870500244575
 20
-7.499092177599676
 30
0.0
 10
4.936794321577963
 20
-7.49813225930211
 30
0.0
 10
4.940714303872836
 20
-7.497156715737901
 30
0.0
 10
4.944630353842373
 20
-7.496165570122747
 30
0.0
  0
SPLINE
  5
164
330
70
100
AcDbEntity
  8
Layer 1
 62
    40
420
 16695056
370
     5
100
AcDbSpline
210
0.0
220
0.0
230
1.0
 70
     8
 71
     3
 72
     8
 73
     4
 74
     0
 42
0.0000000001
 43
0.0000000001
 40
0.0
 40
0.0
 40
0.0
 40
0.0
 40
1.0
 40
1.0
 40
1.0
 40
1.0
 10
4.94463035386621
 20
-7.496165570178972
 30
0.0
 10
4.956596206261072
 20
-7.493137152256444
 30
0.0
 10
4.968524660544454
 20
-7.489962839947136
 30
0.0
 10
4.980413052902589
 20
-7.486643342125539
 30
0.0
  0
SPLINE
  5
165
330
70
100
AcDbEntity
  8
Layer 1
 62
    40
420
 16695056
370
     5
100
AcDbSpline
210
0.0
220
0.0
230
1.0
 70
     8
 71
     3
 72
     8
 73
     4
 74
     0
 42
0.0000000001
 43
0.0000000001
 40
0.0
 40
0.0
 40
0.0
 40
0.0
 40
1.0
 40
1.0
 40
1.0
 40
1.0
 10
4.910670821404121
 20
-7.504346302476341
 30
0.0
 10
4.917870298181431
 20
-7.50269968202047
 30
0.0
 10
4.925057598548353
 20
-7.501000268623745
 30
0.0
 10
4.932232142329123
 20
-7.499248199466769
 30
0.0
  0
SPLINE
  5
166
330
70
100
AcDbEntity
  8
Layer 1
 62
    18
420
        0
370
     5
100
AcDbSpline
210
0.0
220
0.0
230
1.0
 70
     8
 71
     3
 72
     8
 73
     4
 74
     0
 42
0.0000000001
 43
0.0000000001
 40
0.0
 40
0.0
 40
0.0
 40
0.0
 40
1.0
 40
1.0
 40
1.0
 40
1.0
 10
12.71583627801197
 20
-11.77229989684007
 30
0.0
 10
12.71587955803483
 20
-11.7680182837597
 30
0.0
 10
12.71591783059133
 20
-11.76373662152675
 30
0.0
 10
12.71595109560293
 20
-11.75945491892505
 30
0.0
  0
SPLINE
  5
167
330
70
100
AcDbEntity
  8
Layer 1
 62
    18
420
        0
370
     5
100
AcDbSpline
210
0.0
220
0.0
230
1.0
 70
     8
 71
     3
 72
     8
 73
     4
 74
     0
 42
0.0000000001
 43
0.0000000001
 40
0.0
 40
0.0
 40
0.0
 40
0.0
 40
1.0
 40
1.0
 40
1.0
 40
1.0
 10
12.73648831609777
 20
-11.813315470043
 30
0.0
 10
12.73643905199252
 20
-11.81031519005948
 30
0.0
 10
12.73638485167849
 20
-11.8073149931589
 30
0.0
 10
12.73632571537584
 20
-11.80431489152253
 30
0.0
  0
SPLINE
  5
168
330
70
100
AcDbEntity
  8
Layer 1
 62
    18
420
        0
370
     5
100
AcDbSpline
210
0.0
220
0.0
230
1.0
 70
     8
 71
     3
 72
     8
 73
     4
 74
     0
 42
0.0000000001
 43
0.0000000001
 40
0.0
 40
0.0
 40
0.0
 40
0.0
 40
1.0
 40
1.0
 40
1.0
 40
1.0
 10
12.73665627020702
 20
-11.84171604811402
 30
0.0
 10
12.73667356645339
 20
-11.83527968604691
 30
0.0
 10
12.73665801096467
 20
-11.82884327761795
 30
0.0
 10
12.73660960434886
 20
-11.82240707434122
 30
0.0
  0
SPLINE
  5
169
330
70
100
AcDbEntity
  8
Layer 1
 62
    18
420
        0
370
     5
100
AcDbSpline
210
0.0
220
0.0
230
1.0
 70
     8
 71
     3
 72
     8
 73
     4
 74
     0
 42
0.0000000001
 43
0.0000000001
 40
0.0
 40
0.0
 40
0.0
 40
0.0
 40
1.0
 40
1.0
 40
1.0
 40
1.0
 10
12.73657734907389
 20
-11.77939805640628
 30
0.0
 10
12.73662464385986
 20
-11.77556482522886
 30
0.0
 10
12.73665835353757
 20
-11.77173143847519
 30
0.0
 10
12.73667847747214
 20
-11.7678979683653
 30
0.0
  0
SPLINE
  5
16A
330
70
100
AcDbEntity
  8
Layer 1
 62
    18
420
        0
370
     5
100
AcDbSpline
210
0.0
220
0.0
230
1.0
 70
     8
 71
     3
 72
     8
 73
     4
 74
     0
 42
0.0000000001
 43
0.0000000001
 40
0.0
 40
0.0
 40
0.0
 40
0.0
 40
1.0
 40
1.0
 40
1.0
 40
1.0
 10
12.71267303975178
 20
-11.84435997680308
 30
0.0
 10
12.71275385871791
 20
-11.84709726174287
 30
0.0
 10
12.71284211965076
 20
-11.84983432189417
 30
0.0
 10
12.71293782157181
 20
-11.85257112690909
 30
0.0
  0
SPLINE
  5
16B
330
70
100
AcDbEntity
  8
Layer 1
 62
    18
420
        0
370
     5
100
AcDbSpline
210
0.0
220
0.0
230
1.0
 70
     8
 71
     3
 72
     8
 73
     4
 74
     0
 42
0.0000000001
 43
0.0000000001
 40
0.0
 40
0.0
 40
0.0
 40
0.0
 40
1.0
 40
1.0
 40
1.0
 40
1.0
 10
12.71296779138326
 20
-11.74697075112625
 30
0.0
 10
12.71287208756914
 20
-11.74970755613071
 30
0.0
 10
12.71278382489082
 20
-11.75244461628153
 30
0.0
 10
12.71270300432691
 20
-11.75518190122986
 30
0.0
  0
SPLINE
  5
16C
330
70
100
AcDbEntity
  8
Layer 1
 62
    18
420
        0
370
     5
100
AcDbSpline
210
0.0
220
0.0
230
1.0
 70
     8
 71
     3
 72
     8
 73
     4
 74
     0
 42
0.0000000001
 43
0.0000000001
 40
0.0
 40
0.0
 40
0.0
 40
0.0
 40
1.0
 40
1.0
 40
1.0
 40
1.0
 10
12.7157648021492
 20
-11.77983102645999
 30
0.0
 10
12.71564737419349
 20
-11.78870653201779
 30
0.0
 10
12.7156083515225
 20
-11.79758290174211
 30
0.0
 10
12.71564773870356
 20
-11.8064590966972
 30
0.0
  0
SPLINE
  5
16D
330
70
100
AcDbEntity
  8
Layer 1
 62
    18
420
        0
370
     5
100
AcDbSpline
210
0.0
220
0.0
230
1.0
 70
     8
 71
     3
 72
     8
 73
     4
 74
     0
 42
0.0000000001
 43
0.0000000001
 40
0.0
 40
0.0
 40
0.0
 40
0.0
 40
1.0
 40
1.0
 40
1.0
 40
1.0
 10
12.72455552363398
 20
-11.84435997680409
 30
0.0
 10
12.72463698364991
 20
-11.84709726548554
 30
0.0
 10
12.72472594466944
 20
-11.84983432579833
 30
0.0
 10
12.7248224056906
 20
-11.85257112691119
 30
0.0
  0
SPLINE
  5
16E
330
70
100
AcDbEntity
  8
Layer 1
 62
    18
420
        0
370
     5
100
AcDbSpline
210
0.0
220
0.0
230
1.0
 70
     8
 71
     3
 72
     8
 73
     4
 74
     0
 42
0.0000000001
 43
0.0000000001
 40
0.0
 40
0.0
 40
0.0
 40
0.0
 40
1.0
 40
1.0
 40
1.0
 40
1.0
 10
12.72482240557242
 20
-11.74697075112256
 30
0.0
 10
12.72472594455742
 20
-11.74970755223489
 30
0.0
 10
12.72463698354401
 20
-11.75244461254689
 30
0.0
 10
12.72455552353424
 20
-11.75518190122774
 30
0.0
  0
SPLINE
  5
16F
330
70
100
AcDbEntity
  8
Layer 1
 62
    18
420
        0
370
     5
100
AcDbSpline
210
0.0
220
0.0
230
1.0
 70
     8
 71
     3
 72
     8
 73
     4
 74
     0
 42
0.0000000001
 43
0.0000000001
 40
0.0
 40
0.0
 40
0.0
 40
0.0
 40
1.0
 40
1.0
 40
1.0
 40
1.0
 10
12.73137478225372
 20
-11.84436121998225
 30
0.0
 10
12.73145660466758
 20
-11.84709809638851
 30
0.0
 10
12.73154596010924
 20
-11.84983474239688
 30
0.0
 10
12.73164284756325
 20
-11.8525711269078
 30
0.0
  0
SPLINE
  5
170
330
70
100
AcDbEntity
  8
Layer 1
 62
    18
420
        0
370
     5
100
AcDbSpline
210
0.0
220
0.0
230
1.0
 70
     8
 71
     3
 72
     8
 73
     4
 74
     0
 42
0.0000000001
 43
0.0000000001
 40
0.0
 40
0.0
 40
0.0
 40
0.0
 40
1.0
 40
1.0
 40
1.0
 40
1.0
 10
12.73164284744462
 20
-11.74697075112633
 30
0.0
 10
12.73154595999676
 20
-11.7497071356366
 30
0.0
 10
12.73145660456132
 20
-11.75244378164431
 30
0.0
 10
12.73137478215363
 20
-11.75518065804991
 30
0.0
  0
SPLINE
  5
171
330
70
100
AcDbEntity
  8
Layer 1
 62
    18
420
        0
370
     5
100
AcDbSpline
210
0.0
220
0.0
230
1.0
 70
     8
 71
     3
 72
     8
 73
     4
 74
     0
 42
0.0000000001
 43
0.0000000001
 40
0.0
 40
0.0
 40
0.0
 40
0.0
 40
1.0
 40
1.0
 40
1.0
 40
1.0
 10
12.74068337954744
 20
-11.77983102645955
 30
0.0
 10
12.7405639776305
 20
-11.78870651446067
 30
0.0
 10
12.74052429891046
 20
-11.79758289592617
 30
0.0
 10
12.74056434818926
 20
-11.80645909669738
 30
0.0
  0
SPLINE
  5
172
330
70
100
AcDbEntity
  8
Layer 1
 62
    18
420
        0
370
     5
100
AcDbSpline
210
0.0
220
0.0
230
1.0
 70
     8
 71
     3
 72
     8
 73
     4
 74
     0
 42
0.0000000001
 43
0.0000000001
 40
0.0
 40
0.0
 40
0.0
 40
0.0
 40
1.0
 40
1.0
 40
1.0
 40
1.0
 10
12.74646309771414
 20
-11.74697075112456
 30
0.0
 10
12.74636522307183
 20
-11.74970754488799
 30
0.0
 10
12.74627495832798
 20
-11.75244460550417
 30
0.0
 10
12.74619230452936
 20
-11.75518190123155
 30
0.0
  0
SPLINE
  5
173
330
70
100
AcDbEntity
  8
Layer 1
 62
    18
420
        0
370
     5
100
AcDbSpline
210
0.0
220
0.0
230
1.0
 70
     8
 71
     3
 72
     8
 73
     4
 74
     0
 42
0.0000000001
 43
0.0000000001
 40
0.0
 40
0.0
 40
0.0
 40
0.0
 40
1.0
 40
1.0
 40
1.0
 40
1.0
 10
12.74623588319532
 20
-11.84436122184497
 30
0.0
 10
12.74631852921346
 20
-11.84709810250208
 30
0.0
 10
12.74640878409339
 20
-11.84983474809984
 30
0.0
 10
12.74650664678877
 20
-11.85257112690919
 30
0.0
  0
SPLINE
  5
174
330
70
100
AcDbEntity
  8
Layer 1
 62
    18
420
        0
370
     5
100
AcDbSpline
210
0.0
220
0.0
230
1.0
 70
     8
 71
     3
 72
     8
 73
     4
 74
     0
 42
0.0000000001
 43
0.0000000001
 40
0.0
 40
0.0
 40
0.0
 40
0.0
 40
1.0
 40
1.0
 40
1.0
 40
1.0
 10
12.7190415902053
 20
-11.81901543203978
 30
0.0
 10
12.71911587080426
 20
-11.8243566931989
 30
0.0
 10
12.71924598553348
 20
-11.82969703191977
 30
0.0
 10
12.71943191306577
 20
-11.83503557285626
 30
0.0
  0
SPLINE
  5
175
330
70
100
AcDbEntity
  8
Layer 1
 62
    18
420
        0
370
     5
100
AcDbSpline
210
0.0
220
0.0
230
1.0
 70
     8
 71
     3
 72
     8
 73
     4
 74
     0
 42
0.0000000001
 43
0.0000000001
 40
0.0
 40
0.0
 40
0.0
 40
0.0
 40
1.0
 40
1.0
 40
1.0
 40
1.0
 10
12.71945652908809
 20
-11.76421779112434
 30
0.0
 10
12.71924803904716
 20
-11.76987734819633
 30
0.0
 10
12.71910716548639
 20
-11.77553919396781
 30
0.0
 10
12.71903393855912
 20
-11.78120211654936
 30
0.0
  0
SPLINE
  5
176
330
70
100
AcDbEntity
  8
Layer 1
 62
    18
420
        0
370
     5
100
AcDbSpline
210
0.0
220
0.0
230
1.0
 70
     8
 71
     3
 72
     8
 73
     4
 74
     0
 42
0.0000000001
 43
0.0000000001
 40
0.0
 40
0.0
 40
0.0
 40
0.0
 40
1.0
 40
1.0
 40
1.0
 40
1.0
 10
12.71971866441612
 20
-11.75783199874862
 30
0.0
 10
12.71961995209666
 20
-11.75996011619319
 30
0.0
 10
12.71953235625612
 20
-11.76208873472683
 30
0.0
 10
12.71945588047912
 20
-11.76421776723845
 30
0.0
  0
SPLINE
  5
177
330
70
100
AcDbEntity
  8
Layer 1
 62
    18
420
        0
370
     5
100
AcDbSpline
210
0.0
220
0.0
230
1.0
 70
     8
 71
     3
 72
     8
 73
     4
 74
     0
 42
0.0000000001
 43
0.0000000001
 40
0.0
 40
0.0
 40
0.0
 40
0.0
 40
1.0
 40
1.0
 40
1.0
 40
1.0
 10
12.74139079641175
 20
-11.75945495022506
 30
0.0
 10
12.74116433075172
 20
-11.76373433112859
 30
0.0
 10
12.74098958932452
 20
-11.76801629259949
 30
0.0
 10
12.74086661040741
 20
-11.77229989666602
 30
0.0
  0
SPLINE
  5
178
330
70
100
AcDbEntity
  8
Layer 1
 62
    18
420
        0
370
     5
100
AcDbSpline
210
0.0
220
0.0
230
1.0
 70
     8
 71
     3
 72
     8
 73
     4
 74
     0
 42
0.0000000001
 43
0.0000000001
 40
0.0
 40
0.0
 40
0.0
 40
0.0
 40
1.0
 40
1.0
 40
1.0
 40
1.0
 10
12.71943220710763
 20
-11.83503556271984
 30
0.0
 10
12.71950742907918
 20
-11.83725042954024
 30
0.0
 10
12.7196017038645
 20
-11.83946460825508
 30
0.0
 10
12.71971502099793
 20
-11.84167785306845
 30
0.0
  0
SPLINE
  5
179
330
70
100
AcDbEntity
  8
Layer 1
 62
    18
420
        0
370
     5
100
AcDbSpline
210
0.0
220
0.0
230
1.0
 70
     8
 71
     3
 72
     8
 73
     4
 74
     0
 42
0.0000000001
 43
0.0000000001
 40
0.0
 40
0.0
 40
0.0
 40
0.0
 40
1.0
 40
1.0
 40
1.0
 40
1.0
 10
12.74148531548169
 20
-11.75771506205625
 30
0.0
 10
12.74145217334919
 20
-11.75829493481142
 30
0.0
 10
12.74142046944588
 20
-11.75887488887259
 30
0.0
 10
12.74139020406412
 20
-11.75945491888888
 30
0.0
  0
SPLINE
  5
17A
330
70
100
AcDbEntity
  8
Layer 1
 62
    40
420
 16695056
370
     5
100
AcDbSpline
210
0.0
220
0.0
230
1.0
 70
     8
 71
     3
 72
     8
 73
     4
 74
     0
 42
0.0000000001
 43
0.0000000001
 40
0.0
 40
0.0
 40
0.0
 40
0.0
 40
1.0
 40
1.0
 40
1.0
 40
1.0
 10
18.55607720018699
 20
-14.32365888544579
 30
0.0
 10
18.55683267000626
 20
-14.35665122897467
 30
0.0
 10
18.55760295307548
 20
-14.38964323162743
 30
0.0
 10
18.5583880491622
 20
-14.422634883455
 30
0.0
  0
SPLINE
  5
17B
330
70
100
AcDbEntity
  8
Layer 1
 62
    40
420
 16695056
370
     5
100
AcDbSpline
210
0.0
220
0.0
230
1.0
 70
     8
 71
     3
 72
     8
 73
     4
 74
     0
 42
0.0000000001
 43
0.0000000001
 40
0.0
 40
0.0
 40
0.0
 40
0.0
 40
1.0
 40
1.0
 40
1.0
 40
1.0
 10
18.55989235352748
 20
-9.157111791588704
 30
0.0
 10
18.55775660398785
 20
-9.246187698812894
 30
0.0
 10
18.55572883954963
 20
-9.335266162418621
 30
0.0
 10
18.5538090646826
 20
-9.424346986047339
 30
0.0
  0
LINE
  5
17C
330
70
100
AcDbEntity
  8
Layer 1
 62
    18
420
        0
370
     5
100
AcDbLine
 10
4.179756311470592
 20
-11.74580588290784
 30
0.0
 11
4.18322088165496
 21
-11.74595170503734
 31
0.0
  0
LINE
  5
17D
330
70
100
AcDbEntity
  8
Layer 1
 62
    18
420
        0
370
     5
100
AcDbLine
 10
4.175930783640713
 20
-11.7457337007022
 30
0.0
 11
4.179756311470592
 21
-11.74580588290784
 31
0.0
  0
LINE
  5
17E
330
70
100
AcDbEntity
  8
Layer 1
 62
    18
420
        0
370
     5
100
AcDbLine
 10
4.911540075384474
 20
-11.83503556717866
 30
0.0
 11
4.912028872012556
 21
-11.84167785481526
 31
0.0
  0
SPLINE
  5
17F
330
70
100
AcDbEntity
  8
Layer 1
 62
    18
420
        0
370
     5
100
AcDbSpline
210
0.0
220
0.0
230
1.0
 70
     8
 71
     3
 72
    14
 73
    10
 74
     0
 42
0.0000000001
 43
0.0000000001
 40
0.0
 40
0.0
 40
0.0
 40
0.0
 40
1.0
 40
1.0
 40
1.0
 40
2.0
 40
2.0
 40
2.0
 40
3.0
 40
3.0
 40
3.0
 40
3.0
 10
4.154200029028035
 20
-11.74969147758823
 30
0.0
 10
4.156445852916779
 20
-11.74882677496963
 30
0.0
 10
4.158746387718034
 20
-11.74809956589812
 30
0.0
 10
4.161091586815851
 20
-11.74751477583949
 30
0.0
 10
4.163436785914401
 20
-11.74692998578095
 30
0.0
 10
4.165826649309488
 20
-11.74648761473536
 30
0.0
 10
4.168296107107102
 20
-11.74618854346565
 30
0.0
 10
4.170765564903995
 20
-11.74588947219609
 30
0.0
 10
4.173314617103376
 20
-11.7457337007022
 30
0.0
 10
4.175930783640713
 20
-11.7457337007022
 30
0.0
  0
SPLINE
  5
180
330
70
100
AcDbEntity
  8
Layer 1
 62
    18
420
        0
370
     5
100
AcDbSpline
210
0.0
220
0.0
230
1.0
 70
     8
 71
     3
 72
    14
 73
    10
 74
     0
 42
0.0000000001
 43
0.0000000001
 40
0.0
 40
0.0
 40
0.0
 40
0.0
 40
1.0
 40
1.0
 40
1.0
 40
2.0
 40
2.0
 40
2.0
 40
3.0
 40
3.0
 40
3.0
 40
3.0
 10
4.136520635680868
 20
-11.76103580548932
 30
0.0
 10
4.138258621543134
 20
-11.75934747687506
 30
0.0
 10
4.140076032525712
 20
-11.75780454068631
 30
0.0
 10
4.141950496020146
 20
-11.75641351883897
 30
0.0
 10
4.143824959515161
 20
-11.75502249699121
 30
0.0
 10
4.145756475522047
 20
-11.7537833894849
 30
0.0
 10
4.147792768361644
 20
-11.75266527732368
 30
0.0
 10
4.149829061200636
 20
-11.75154716516274
 30
0.0
 10
4.151970130872288
 20
-11.75055004834677
 30
0.0
 10
4.154200029028035
 20
-11.74969147758823
 30
0.0
  0
SPLINE
  5
181
330
70
100
AcDbEntity
  8
Layer 1
 62
    18
420
        0
370
     5
100
AcDbSpline
210
0.0
220
0.0
230
1.0
 70
     8
 71
     3
 72
    14
 73
    10
 74
     0
 42
0.0000000001
 43
0.0000000001
 40
0.0
 40
0.0
 40
0.0
 40
0.0
 40
1.0
 40
1.0
 40
1.0
 40
2.0
 40
2.0
 40
2.0
 40
3.0
 40
3.0
 40
3.0
 40
3.0
 10
4.124755336136887
 20
-11.7787198460566
 30
0.0
 10
4.12567666292389
 20
-11.77641652869318
 30
0.0
 10
4.126735383143302
 20
-11.7742249471159
 30
0.0
 10
4.127915189773817
 20
-11.77215479696335
 30
0.0
 10
4.129094996404711
 20
-11.77008464681032
 30
0.0
 10
4.130395889446794
 20
-11.7681359280821
 30
0.0
 10
4.13182935626873
 20
-11.7662845764971
 30
0.0
 10
4.133262823090262
 20
-11.76443322491276
 30
0.0
 10
4.134828863691609
 20
-11.76267924047152
 30
0.0
 10
4.136520635680868
 20
-11.76103580548932
 30
0.0
  0
SPLINE
  5
182
330
70
100
AcDbEntity
  8
Layer 1
 62
    18
420
        0
370
     5
100
AcDbSpline
210
0.0
220
0.0
230
1.0
 70
     8
 71
     3
 72
    14
 73
    10
 74
     0
 42
0.0000000001
 43
0.0000000001
 40
0.0
 40
0.0
 40
0.0
 40
0.0
 40
1.0
 40
1.0
 40
1.0
 40
2.0
 40
2.0
 40
2.0
 40
3.0
 40
3.0
 40
3.0
 40
3.0
 10
4.12063784742357
 20
-11.80133348597034
 30
0.0
 10
4.12063784742357
 20
-11.79852606494495
 30
0.0
 10
4.120799183348
 20
-11.7958101013052
 30
0.0
 10
4.121114561771074
 20
-11.79319238109249
 30
0.0
 10
4.121429940194237
 20
-11.79057466087894
 30
0.0
 10
4.121899361116068
 20
-11.78805518409257
 30
0.0
 10
4.122510530298983
 20
-11.7856419300546
 30
0.0
 10
4.123121699481733
 20
-11.78322867601734
 30
0.0
 10
4.123874616925465
 20
-11.7809216447285
 30
0.0
 10
4.124755336136887
 20
-11.7787198460566
 30
0.0
  0
LINE
  5
183
330
70
100
AcDbEntity
  8
Layer 1
 62
    18
420
        0
370
     5
100
AcDbLine
 10
4.911107096864333
 20
-11.81901542260473
 30
0.0
 11
4.911540075384474
 21
-11.83503556717866
 31
0.0
  0
SPLINE
  5
184
330
70
100
AcDbEntity
  8
Layer 1
 62
    18
420
        0
370
     5
100
AcDbSpline
210
0.0
220
0.0
230
1.0
 70
     8
 71
     3
 72
    14
 73
    10
 74
     0
 42
0.0000000001
 43
0.0000000001
 40
0.0
 40
0.0
 40
0.0
 40
0.0
 40
1.0
 40
1.0
 40
1.0
 40
2.0
 40
2.0
 40
2.0
 40
3.0
 40
3.0
 40
3.0
 40
3.0
 10
4.124148463023794
 20
-11.8201842593627
 30
0.0
 10
4.123348416673896
 20
-11.81806721403576
 30
0.0
 10
4.122690607839962
 20
-11.81595055332981
 30
0.0
 10
4.122171401743861
 20
-11.8138546797608
 30
0.0
 10
4.121652195647572
 20
-11.81175880619129
 30
0.0
 10
4.121271592289164
 20
-11.80968371975875
 30
0.0
 10
4.121018005233129
 20
-11.80759910206135
 30
0.0
 10
4.120764418177208
 20
-11.80551448436457
 30
0.0
 10
4.12063784742357
 20
-11.80342033540291
 30
0.0
 10
4.12063784742357
 20
-11.80133348597034
 30
0.0
  0
SPLINE
  5
185
330
70
100
AcDbEntity
  8
Layer 1
 62
    18
420
        0
370
     5
100
AcDbSpline
210
0.0
220
0.0
230
1.0
 70
     8
 71
     3
 72
    14
 73
    10
 74
     0
 42
0.0000000001
 43
0.0000000001
 40
0.0
 40
0.0
 40
0.0
 40
0.0
 40
1.0
 40
1.0
 40
1.0
 40
2.0
 40
2.0
 40
2.0
 40
3.0
 40
3.0
 40
3.0
 40
3.0
 10
4.134988047580955
 20
-11.83715324793148
 30
0.0
 10
4.133311384871628
 20
-11.83538964698204
 30
0.0
 10
4.131794485754312
 20
-11.83357689722462
 30
0.0
 10
4.130439138691928
 20
-11.83172810476354
 30
0.0
 10
4.129083791629176
 20
-11.829879312302
 30
0.0
 10
4.127889996621471
 20
-11.82799447713692
 30
0.0
 10
4.126844504906759
 20
-11.82606909157961
 30
0.0
 10
4.125799013192388
 20
-11.82414370602297
 30
0.0
 10
4.124901824770922
 20
-11.8221777700742
 30
0.0
 10
4.124148463023794
 20
-11.8201842593627
 30
0.0
  0
LINE
  5
186
330
70
100
AcDbEntity
  8
Layer 1
 62
    18
420
        0
370
     5
100
AcDbLine
 10
4.911305292737122
 20
-11.80431488957831
 30
0.0
 11
4.911107096864333
 21
-11.81901542260473
 31
0.0
  0
LINE
  5
187
330
70
100
AcDbEntity
  8
Layer 1
 62
    18
420
        0
370
     5
100
AcDbLine
 10
4.980075561962999
 20
-11.81331546367012
 30
0.0
 11
4.979687181235703
 21
-11.80431488957831
 31
0.0
  0
LINE
  5
188
330
70
100
AcDbEntity
  8
Layer 1
 62
    18
420
        0
370
     5
100
AcDbLine
 10
4.980111616840543
 20
-11.82240707578583
 30
0.0
 11
4.980075561962999
 21
-11.81331546367012
 31
0.0
  0
SPLINE
  5
189
330
70
100
AcDbEntity
  8
Layer 1
 62
    18
420
        0
370
     5
100
AcDbSpline
210
0.0
220
0.0
230
1.0
 70
     8
 71
     3
 72
    14
 73
    10
 74
     0
 42
0.0000000001
 43
0.0000000001
 40
0.0
 40
0.0
 40
0.0
 40
0.0
 40
1.0
 40
1.0
 40
1.0
 40
2.0
 40
2.0
 40
2.0
 40
3.0
 40
3.0
 40
3.0
 40
3.0
 10
4.978768943192688
 20
-11.84171604589179
 30
0.0
 10
4.979007633610422
 20
-11.83964077863048
 30
0.0
 10
4.979214614246353
 20
-11.83754093236302
 30
0.0
 10
4.979391805474088
 20
-11.83541761974409
 30
0.0
 10
4.979568996701851
 20
-11.83329430712463
 30
0.0
 10
4.979716398521405
 20
-11.83114752815375
 30
0.0
 10
4.979835788162252
 20
-11.82897874464935
 30
0.0
 10
4.979955177803099
 20
-11.8268099611456
 30
0.0
 10
4.980046555265226
 20
-11.82461917310833
 30
0.0
 10
4.980111616840543
 20
-11.82240707578583
 30
0.0
  0
SPLINE
  5
18A
330
70
100
AcDbEntity
  8
Layer 1
 62
    18
420
        0
370
     5
100
AcDbSpline
210
0.0
220
0.0
230
1.0
 70
     8
 71
     3
 72
    14
 73
    10
 74
     0
 42
0.0000000001
 43
0.0000000001
 40
0.0
 40
0.0
 40
0.0
 40
0.0
 40
1.0
 40
1.0
 40
1.0
 40
2.0
 40
2.0
 40
2.0
 40
3.0
 40
3.0
 40
3.0
 40
3.0
 10
4.153485055715628
 20
-11.84933364053796
 30
0.0
 10
4.150968782188922
 20
-11.84831745297712
 30
0.0
 10
4.14860370781173
 20
-11.84718770634438
 30
0.0
 10
4.14638360705107
 20
-11.84593594870792
 30
0.0
 10
4.144163506289752
 20
-11.84468419107118
 30
0.0
 10
4.142088379145067
 20
-11.84331042243067
 30
0.0
 10
4.140187342681352
 20
-11.84184088377318
 30
0.0
 10
4.138286306218219
 20
-11.84037134511636
 30
0.0
 10
4.136559360435979
 20
-11.83880603644247
 30
0.0
 10
4.134988047580955
 20
-11.83715324793148
 30
0.0
  0
SPLINE
  5
18B
330
70
100
AcDbEntity
  8
Layer 1
 62
    18
420
        0
370
     5
100
AcDbSpline
210
0.0
220
0.0
230
1.0
 70
     8
 71
     3
 72
    14
 73
    10
 74
     0
 42
0.0000000001
 43
0.0000000001
 40
0.0
 40
0.0
 40
0.0
 40
0.0
 40
1.0
 40
1.0
 40
1.0
 40
2.0
 40
2.0
 40
2.0
 40
3.0
 40
3.0
 40
3.0
 40
3.0
 10
4.179325413722823
 20
-11.85380878575026
 30
0.0
 10
4.176111231137522
 20
-11.85380878575026
 30
0.0
 10
4.173010377307592
 20
-11.85365299287771
 30
0.0
 10
4.170010613858506
 20
-11.85332738899688
 30
0.0
 10
4.167010850408574
 20
-11.85300178511594
 30
0.0
 10
4.164112177339512
 20
-11.85250637022666
 30
0.0
 10
4.161353434177574
 20
-11.85184081133267
 30
0.0
 10
4.158594691016497
 20
-11.85117525243888
 30
0.0
 10
4.155975877762418
 20
-11.85033954954044
 30
0.0
 10
4.153485055715628
 20
-11.84933364053796
 30
0.0
  0
LINE
  5
18C
330
70
100
AcDbEntity
  8
Layer 1
 62
    18
420
        0
370
     5
100
AcDbLine
 10
4.189430580340917
 20
-11.85319236660009
 30
0.0
 11
4.179325413722823
 21
-11.85380878575026
 31
0.0
  0
SPLINE
  5
18D
330
70
100
AcDbEntity
  8
Layer 1
 62
    18
420
        0
370
     5
100
AcDbSpline
210
0.0
220
0.0
230
1.0
 70
     8
 71
     3
 72
    14
 73
    10
 74
     0
 42
0.0000000001
 43
0.0000000001
 40
0.0
 40
0.0
 40
0.0
 40
0.0
 40
1.0
 40
1.0
 40
1.0
 40
2.0
 40
2.0
 40
2.0
 40
3.0
 40
3.0
 40
3.0
 40
3.0
 10
4.19975228080783
 20
-11.85265390955689
 30
0.0
 10
4.198636980860012
 20
-11.85265390955689
 30
0.0
 10
4.197511253197161
 20
-11.85268515058828
 30
0.0
 10
4.196374343819885
 20
-11.85273388047239
 30
0.0
 10
4.195237434442256
 20
-11.8527826103565
 30
0.0
 10
4.194089343350204
 20
-11.85284882909326
 30
0.0
 10
4.192931915802798
 20
-11.85292674432675
 30
0.0
 10
4.191774488255747
 20
-11.85300465956033
 30
0.0
 10
4.190607724253342
 20
-11.8530942712906
 30
0.0
 10
4.189430580340917
 20
-11.85319236660009
 30
0.0
  0
LINE
  5
18E
330
70
100
AcDbEntity
  8
Layer 1
 62
    18
420
        0
370
     5
100
AcDbLine
 10
4.209700400527367
 20
-11.85323134770308
 30
0.0
 11
4.19975228080783
 21
-11.85265390955689
 31
0.0
  0
LINE
  5
18F
330
70
100
AcDbEntity
  8
Layer 1
 62
    18
420
        0
370
     5
100
AcDbLine
 10
4.995934229670587
 20
-11.83900153472442
 30
0.0
 11
4.996221688828742
 21
-11.841701063697
 31
0.0
  0
LINE
  5
190
330
70
100
AcDbEntity
  8
Layer 1
 62
    18
420
        0
370
     5
100
AcDbLine
 10
4.994996287881829
 20
-11.82218901612302
 30
0.0
 11
4.995934229670587
 21
-11.83900153472442
 31
0.0
  0
LINE
  5
191
330
70
100
AcDbEntity
  8
Layer 1
 62
    18
420
        0
370
     5
100
AcDbLine
 10
4.9945994566828
 20
-11.80645909669048
 30
0.0
 11
4.994996287881829
 21
-11.82218901612302
 31
0.0
  0
LINE
  5
192
330
70
100
AcDbEntity
  8
Layer 1
 62
    18
420
        0
370
     5
100
AcDbLine
 10
4.994815944507725
 20
-11.77229989216324
 30
0.0
 11
4.9945994566828
 21
-11.77983102642535
 31
0.0
  0
SPLINE
  5
193
330
70
100
AcDbEntity
  8
Layer 1
 62
    18
420
        0
370
     5
100
AcDbSpline
210
0.0
220
0.0
230
1.0
 70
     8
 71
     3
 72
    77
 73
    73
 74
     0
 42
0.0000000001
 43
0.0000000001
 40
0.0
 40
0.0
 40
0.0
 40
0.0
 40
1.0
 40
1.0
 40
1.0
 40
2.0
 40
2.0
 40
2.0
 40
3.0
 40
3.0
 40
3.0
 40
4.0
 40
4.0
 40
4.0
 40
5.0
 40
5.0
 40
5.0
 40
6.0
 40
6.0
 40
6.0
 40
7.0
 40
7.0
 40
7.0
 40
8.0
 40
8.0
 40
8.0
 40
9.0
 40
9.0
 40
9.0
 40
10.0
 40
10.0
 40
10.0
 40
11.0
 40
11.0
 40
11.0
 40
12.0
 40
12.0
 40
12.0
 40
13.0
 40
13.0
 40
13.0
 40
14.0
 40
14.0
 40
14.0
 40
15.0
 40
15.0
 40
15.0
 40
16.0
 40
16.0
 40
16.0
 40
17.0
 40
17.0
 40
17.0
 40
18.0
 40
18.0
 40
18.0
 40
19.0
 40
19.0
 40
19.0
 40
20.0
 40
20.0
 40
20.0
 40
21.0
 40
21.0
 40
21.0
 40
22.0
 40
22.0
 40
22.0
 40
23.0
 40
23.0
 40
23.0
 40
24.0
 40
24.0
 40
24.0
 40
24.0
 10
4.207434332384941
 20
-11.75812244599936
 30
0.0
 10
4.20462433560816
 20
-11.75751348112756
 30
0.0
 10
4.201797517314275
 20
-11.75696221654026
 30
0.0
 10
4.198934039968851
 20
-11.75651384305403
 30
0.0
 10
4.196070562627292
 20
-11.75606546956836
 30
0.0
 10
4.193170426234283
 20
-11.75571998718336
 30
0.0
 10
4.190253262752952
 20
-11.75553550943335
 30
0.0
 10
4.187336099267692
 20
-11.75535103168325
 30
0.0
 10
4.184401908694022
 20
-11.75532755856855
 30
0.0
 10
4.181518536357404
 20
-11.75551380196781
 30
0.0
 10
4.178635164020836
 20
-11.75570004536717
 30
0.0
 10
4.17580260992127
 20
-11.75609600528049
 30
0.0
 10
4.173010464534311
 20
-11.75675219127449
 30
0.0
 10
4.170218319147326
 20
-11.75740837726845
 30
0.0
 10
4.167466582472911
 20
-11.75832478934307
 30
0.0
 10
4.164714977924151
 20
-11.75962434407857
 30
0.0
 10
4.163339175651609
 20
-11.76027412144546
 30
0.0
 10
4.161963406410475
 20
-11.76101968447723
 30
0.0
 10
4.160600889742188
 20
-11.76186486896234
 30
0.0
 10
4.15923837307389
 20
-11.76271005344741
 30
0.0
 10
4.157889108978451
 20
-11.76365485938577
 30
0.0
 10
4.156549861385946
 20
-11.76473107890703
 30
0.0
 10
4.155210613789853
 20
-11.7658072984312
 30
0.0
 10
4.153881382696718
 20
-11.7670149315391
 30
0.0
 10
4.152618387645361
 20
-11.76835740192511
 30
0.0
 10
4.151355392597439
 20
-11.76969987230768
 30
0.0
 10
4.150158633590889
 20
-11.77117717996755
 30
0.0
 10
4.149041801756829
 20
-11.77285775594439
 30
0.0
 10
4.147924969919737
 20
-11.77453833192574
 30
0.0
 10
4.146888065255565
 20
-11.77642217622502
 30
0.0
 10
4.146022321263217
 20
-11.77845975464348
 30
0.0
 10
4.145589449268237
 20
-11.77947854384999
 30
0.0
 10
4.145199367440997
 20
-11.780535766586
 30
0.0
 10
4.144859110163868
 20
-11.78160570940872
 30
0.0
 10
4.144518852886739
 20
-11.78267565223142
 30
0.0
 10
4.144228420159694
 20
-11.78375831514083
 30
0.0
 10
4.143979339769581
 20
-11.78485294772905
 30
0.0
 10
4.143730259379481
 20
-11.78594758031722
 30
0.0
 10
4.143522531326261
 20
-11.78705418258424
 30
0.0
 10
4.143349631850457
 20
-11.78818146970406
 30
0.0
 10
4.14317673237469
 20
-11.7893087568239
 30
0.0
 10
4.143038661476301
 20
-11.79045672879657
 30
0.0
 10
4.142934498604947
 20
-11.79160980443041
 30
0.0
 10
4.142726172861658
 20
-11.79391595570425
 30
0.0
 10
4.142653479227204
 20
-11.79624252162261
 30
0.0
 10
4.14269640538829
 20
-11.79858664750994
 30
0.0
 10
4.142739331549288
 20
-11.80093077339079
 30
0.0
 10
4.142897877505169
 20
-11.80329245924043
 30
0.0
 10
4.143176912221999
 20
-11.80563855005248
 30
0.0
 10
4.143455946938868
 20
-11.80798464086453
 30
0.0
 10
4.14385547041661
 20
-11.81031513663889
 30
0.0
 10
4.144426548347951
 20
-11.81259096246006
 30
0.0
 10
4.144997626280806
 20
-11.81486678828736
 30
0.0
 10
4.145740258668145
 20
-11.81708794416113
 30
0.0
 10
4.146661436629604
 20
-11.81921967465872
 30
0.0
 10
4.147582614588587
 20
-11.8213514051505
 30
0.0
 10
4.148682338120756
 20
-11.82339371026652
 30
0.0
 10
4.149954472744196
 20
-11.8253089571404
 30
0.0
 10
4.151226607371086
 20
-11.82722420401943
 30
0.0
 10
4.152671153090206
 20
-11.82901239265551
 30
0.0
 10
4.154236883965861
 20
-11.83067678087582
 30
0.0
 10
4.155802614837321
 20
-11.83234116909163
 30
0.0
 10
4.157489530864672
 20
-11.83388175689217
 30
0.0
 10
4.15927002346877
 20
-11.83529668484834
 30
0.0
 10
4.161050516072868
 20
-11.83671161280452
 30
0.0
 10
4.162924585253739
 20
-11.83800088091619
 30
0.0
 10
4.164870509045928
 20
-11.83913798682614
 30
0.0
 10
4.16681643284341
 20
-11.84027509273914
 30
0.0
 10
4.168834211252589
 20
-11.84126003644961
 30
0.0
 10
4.170908829663554
 20
-11.84207487167049
 30
0.0
 10
4.17298344806895
 20
-11.84288970688921
 30
0.0
 10
4.175114906475818
 20
-11.84353443361937
 30
0.0
 10
4.177266060515282
 20
-11.84397666471265
 30
0.0
  0
LINE
  5
194
330
70
100
AcDbEntity
  8
Layer 1
 62
    18
420
        0
370
     5
100
AcDbLine
 10
4.995609735079697
 20
-11.75945491809218
 30
0.0
 11
4.994815944507725
 21
-11.77229989216324
 31
0.0
  0
LINE
  5
195
330
70
100
AcDbEntity
  8
Layer 1
 62
    18
420
        0
370
     5
100
AcDbLine
 10
4.995770731813396
 20
-11.75771505851533
 30
0.0
 11
4.995609735079697
 21
-11.75945491809218
 31
0.0
  0
SPLINE
  5
196
330
70
100
AcDbEntity
  8
Layer 1
 62
    18
420
        0
370
     5
100
AcDbSpline
210
0.0
220
0.0
230
1.0
 70
     8
 71
     3
 72
    20
 73
    16
 74
     0
 42
0.0000000001
 43
0.0000000001
 40
0.0
 40
0.0
 40
0.0
 40
0.0
 40
1.0
 40
1.0
 40
1.0
 40
2.0
 40
2.0
 40
2.0
 40
3.0
 40
3.0
 40
3.0
 40
4.0
 40
4.0
 40
4.0
 40
5.0
 40
5.0
 40
5.0
 40
5.0
 10
4.203575632452447
 20
-11.74681639508599
 30
0.0
 10
4.205441262413538
 20
-11.74681639567981
 30
0.0
 10
4.207260042118794
 20
-11.74679175158015
 30
0.0
 10
4.209033691353296
 20
-11.74673624994251
 30
0.0
 10
4.209920515970818
 20
-11.74670849912367
 30
0.0
 10
4.210796057970671
 20
-11.74667303392028
 30
0.0
 10
4.21165957948814
 20
-11.74662813880768
 30
0.0
 10
4.212523101005609
 20
-11.74658324369499
 30
0.0
 10
4.213374602040744
 20
-11.74652891867299
 30
0.0
 10
4.214214133298102
 20
-11.74646483001525
 30
0.0
 10
4.215053664554956
 20
-11.74640074135747
 30
0.0
 10
4.215881226034007
 20
-11.74632688906392
 30
0.0
 10
4.216695566621006
 20
-11.74623352749601
 30
0.0
 10
4.217509907208446
 20
-11.74614016592798
 30
0.0
 10
4.218311026903797
 20
-11.74602729508547
 30
0.0
 10
4.219094283658275
 20
-11.74587039427559
 30
0.0
  0
LINE
  5
197
330
70
100
AcDbEntity
  8
Layer 1
 62
    18
420
        0
370
     5
100
AcDbLine
 10
4.979750804392842
 20
-11.76789796751354
 30
0.0
 11
4.979061797631427
 21
-11.75852072858242
 31
0.0
  0
SPLINE
  5
198
330
70
100
AcDbEntity
  8
Layer 1
 62
    18
420
        0
370
     5
100
AcDbSpline
210
0.0
220
0.0
230
1.0
 70
     8
 71
     3
 72
    14
 73
    10
 74
     0
 42
0.0000000001
 43
0.0000000001
 40
0.0
 40
0.0
 40
0.0
 40
0.0
 40
1.0
 40
1.0
 40
1.0
 40
2.0
 40
2.0
 40
2.0
 40
3.0
 40
3.0
 40
3.0
 40
3.0
 10
4.188632403053765
 20
-11.7462077237769
 30
0.0
 10
4.190337221168293
 20
-11.74631060032005
 30
0.0
 10
4.192027002651027
 20
-11.74640706034812
 30
0.0
 10
4.193702879078323
 20
-11.74649333440988
 30
0.0
 10
4.195378755506086
 20
-11.74657960847152
 30
0.0
 10
4.197040726878488
 20
-11.7466556965669
 30
0.0
 10
4.198686407783043
 20
-11.7467148930968
 30
0.0
 10
4.200332088687105
 20
-11.74677408962669
 30
0.0
 10
4.201961479123371
 20
-11.7468163945911
 30
0.0
 10
4.203575632452447
 20
-11.74681639508599
 30
0.0
  0
LINE
  5
199
330
70
100
AcDbEntity
  8
Layer 1
 62
    18
420
        0
370
     5
100
AcDbLine
 10
4.980111620700603
 20
-11.77939804790518
 30
0.0
 11
4.979750804392842
 21
-11.76789796751354
 31
0.0
  0
LINE
  5
19A
330
70
100
AcDbEntity
  8
Layer 1
 62
    18
420
        0
370
     5
100
AcDbLine
 10
4.980413052894239
 20
-11.79375650711464
 30
0.0
 11
4.980111620700603
 21
-11.77939804790518
 31
0.0
  0
LINE
  5
19B
330
70
100
AcDbEntity
  8
Layer 1
 62
    18
420
        0
370
     5
100
AcDbLine
 10
4.911107096864333
 20
-11.78120211449865
 30
0.0
 11
4.910670821354705
 21
-11.79397918628418
 31
0.0
  0
LINE
  5
19C
330
70
100
AcDbEntity
  8
Layer 1
 62
    18
420
        0
370
     5
100
AcDbLine
 10
4.895447771567445
 20
-11.75945491809218
 30
0.0
 11
4.895286507994455
 21
-11.75771228431702
 31
0.0
  0
SPLINE
  5
19D
330
70
100
AcDbEntity
  8
Layer 1
 62
    18
420
        0
370
     5
100
AcDbSpline
210
0.0
220
0.0
230
1.0
 70
     8
 71
     3
 72
    14
 73
    10
 74
     0
 42
0.0000000001
 43
0.0000000001
 40
0.0
 40
0.0
 40
0.0
 40
0.0
 40
1.0
 40
1.0
 40
1.0
 40
2.0
 40
2.0
 40
2.0
 40
3.0
 40
3.0
 40
3.0
 40
3.0
 10
4.911614182079347
 20
-11.76421776812109
 30
0.0
 10
4.91150887953558
 20
-11.76616586933755
 30
0.0
 10
4.911418405575873
 20
-11.7680922642267
 30
0.0
 10
4.911343856491271
 20
-11.76999936443783
 30
0.0
 10
4.911269307406668
 20
-11.77190646464957
 30
0.0
 10
4.911210683197256
 20
-11.77379427018339
 30
0.0
 10
4.91117013056166
 20
-11.77566124324916
 30
0.0
 10
4.911129577926076
 20
-11.77752821631434
 30
0.0
 10
4.911107096864333
 20
-11.77937435691132
 30
0.0
 10
4.911107096864333
 20
-11.78120211449865
 30
0.0
  0
LINE
  5
19E
330
70
100
AcDbEntity
  8
Layer 1
 62
    18
420
        0
370
     5
100
AcDbLine
 10
4.896241562139405
 20
-11.77229989216324
 30
0.0
 11
4.895447771567445
 21
-11.75945491809218
 31
0.0
  0
LINE
  5
19F
330
70
100
AcDbEntity
  8
Layer 1
 62
    18
420
        0
370
     5
100
AcDbLine
 10
4.912041377530916
 20
-11.75783200311083
 30
0.0
 11
4.911614182079347
 21
-11.76421776812109
 31
0.0
  0
LINE
  5
1A0
330
70
100
AcDbEntity
  8
Layer 1
 62
    18
420
        0
370
     5
100
AcDbLine
 10
4.896458049964343
 20
-11.77983102642535
 30
0.0
 11
4.896241562139405
 21
-11.77229989216324
 31
0.0
  0
LINE
  5
1A1
330
70
100
AcDbEntity
  8
Layer 1
 62
    18
420
        0
370
     5
100
AcDbLine
 10
4.896061218765301
 20
-11.82218901612302
 30
0.0
 11
4.896458049964343
 21
-11.80645909669048
 31
0.0
  0
LINE
  5
1A2
330
70
100
AcDbEntity
  8
Layer 1
 62
    18
420
        0
370
     5
100
AcDbLine
 10
4.895123276976542
 20
-11.83900153472442
 30
0.0
 11
4.896061218765301
 21
-11.82218901612302
 31
0.0
  0
LINE
  5
1A3
330
70
100
AcDbEntity
  8
Layer 1
 62
    18
420
        0
370
     5
100
AcDbLine
 10
4.894835628873225
 20
-11.84170277736749
 30
0.0
 11
4.895123276976542
 21
-11.83900153472442
 31
0.0
  0
LINE
  5
1A4
330
70
100
AcDbEntity
  8
Layer 1
 62
    18
420
        0
370
     5
100
AcDbLine
 10
4.18322088165496
 20
-11.74595170503734
 30
0.0
 11
4.188632403053765
 21
-11.7462077237769
 31
0.0
  0
SPLINE
  5
1A5
330
70
100
AcDbEntity
  8
Layer 1
 62
    18
420
        0
370
     5
100
AcDbSpline
210
0.0
220
0.0
230
1.0
 70
     8
 71
     3
 72
    38
 73
    34
 74
     0
 42
0.0000000001
 43
0.0000000001
 40
0.0
 40
0.0
 40
0.0
 40
0.0
 40
1.0
 40
1.0
 40
1.0
 40
2.0
 40
2.0
 40
2.0
 40
3.0
 40
3.0
 40
3.0
 40
4.0
 40
4.0
 40
4.0
 40
5.0
 40
5.0
 40
5.0
 40
6.0
 40
6.0
 40
6.0
 40
7.0
 40
7.0
 40
7.0
 40
8.0
 40
8.0
 40
8.0
 40
9.0
 40
9.0
 40
9.0
 40
10.0
 40
10.0
 40
10.0
 40
11.0
 40
11.0
 40
11.0
 40
11.0
 10
4.177266060515282
 20
-11.84397666471265
 30
0.0
 10
4.179417214554783
 20
-11.84441889570707
 30
0.0
 10
4.181588064274263
 20
-11.84465863111346
 30
0.0
 10
4.183746848002897
 20
-11.84470803965119
 30
0.0
 10
4.185905631730014
 20
-11.84475744818888
 30
0.0
 10
4.188052349466336
 20
-11.8446165298581
 30
0.0
 10
4.190147919119049
 20
-11.8443099895596
 30
0.0
 10
4.19224348877324
 20
-11.8440034492609
 30
0.0
 10
4.194287910343783
 20
-11.84353128699409
 30
0.0
 10
4.196236955653463
 20
-11.84295100433031
 30
0.0
 10
4.197211478307622
 20
-11.84266086299857
 30
0.0
 10
4.198162156896627
 20
-11.84234369156764
 30
0.0
 10
4.199100220396632
 20
-11.84199294456251
 30
0.0
 10
4.200038283896597
 20
-11.84164219755745
 30
0.0
 10
4.200963732307652
 20
-11.84125787497825
 30
0.0
 10
4.201859066908405
 20
-11.84084605582754
 30
0.0
 10
4.202754401510434
 20
-11.84043423667627
 30
0.0
 10
4.20361962230216
 20
-11.83999492095348
 30
0.0
 10
4.204440585118478
 20
-11.83953228533081
 30
0.0
 10
4.205261547933661
 20
-11.83906964970886
 30
0.0
 10
4.206038252773597
 20
-11.83858369418701
 30
0.0
 10
4.206763318008508
 20
-11.83807062326665
 30
0.0
 10
4.207488383243419
 20
-11.83755755234622
 30
0.0
 10
4.208161808873316
 20
-11.83701736602731
 30
0.0
 10
4.208784992471944
 20
-11.83644327465569
 30
0.0
 10
4.209408176070559
 20
-11.83586918328413
 30
0.0
 10
4.209981117637943
 20
-11.8352611868596
 30
0.0
 10
4.210509610107401
 20
-11.83462867429502
 30
0.0
 10
4.211038102577642
 20
-11.8339961617295
 30
0.0
 10
4.211522145949869
 20
-11.83333913302368
 30
0.0
 10
4.211959682051125
 20
-11.83268104480463
 30
0.0
 10
4.21239721815175
 20
-11.83202295658649
 30
0.0
 10
4.212788246981618
 20
-11.8313638088552
 30
0.0
 10
4.213169288242751
 20
-11.83064775769407
 30
0.0
  0
LINE
  5
1A6
330
70
100
AcDbEntity
  8
Layer 1
 62
    40
420
 16695056
370
     5
100
AcDbLine
 10
4.994815944507725
 20
-7.482310104501228
 30
0.0
 11
4.9945994566828
 21
-7.482493177732294
 31
0.0
  0
LINE
  5
1A7
330
70
100
AcDbEntity
  8
Layer 1
 62
    40
420
 16695056
370
     5
100
AcDbLine
 10
4.995609735079697
 20
-7.481786369048954
 30
0.0
 11
4.994815944507725
 21
-7.482310104501228
 31
0.0
  0
LINE
  5
1A8
330
70
100
AcDbEntity
  8
Layer 1
 62
    40
420
 16695056
370
     5
100
AcDbLine
 10
4.995770731813396
 20
-7.481691304780345
 30
0.0
 11
4.995609735079697
 21
-7.481786369048954
 31
0.0
  0
LINE
  5
1A9
330
70
100
AcDbEntity
  8
Layer 1
 62
    40
420
 16695056
370
     5
100
AcDbLine
 10
5.011430270304572
 20
-7.476984252767224
 30
0.0
 11
4.995770731714451
 21
-7.481691304780345
 31
0.0
  0
LINE
  5
1AA
330
70
100
AcDbEntity
  8
Layer 1
 62
    40
420
 16695056
370
     5
100
AcDbLine
 10
4.978987159831363
 20
-7.486460460965973
 30
0.0
 11
4.958967921434969
 21
-7.491801775225262
 31
0.0
  0
LINE
  5
1AB
330
70
100
AcDbEntity
  8
Layer 1
 62
    40
420
 16695056
370
     5
100
AcDbLine
 10
4.979750804392842
 20
-7.486498246438877
 30
0.0
 11
4.979061797631427
 21
-7.486459201595392
 31
0.0
  0
LINE
  5
1AC
330
70
100
AcDbEntity
  8
Layer 1
 62
    40
420
 16695056
370
     5
100
AcDbLine
 10
4.203575632452447
 20
-7.499229275777956
 30
0.0
 11
4.219094283658275
 21
-7.502863368884415
 31
0.0
  0
LINE
  5
1AD
330
70
100
AcDbEntity
  8
Layer 1
 62
    40
420
 16695056
370
     5
100
AcDbLine
 10
4.980111620700603
 20
-7.486599894095976
 30
0.0
 11
4.979750804392842
 21
-7.486498246438877
 31
0.0
  0
LINE
  5
1AE
330
70
100
AcDbEntity
  8
Layer 1
 62
    40
420
 16695056
370
     5
100
AcDbLine
 10
4.980418442731168
 20
-7.486636599047882
 30
0.0
 11
4.980266199137771
 21
-7.486637824271749
 31
0.0
  0
LINE
  5
1AF
330
70
100
AcDbEntity
  8
Layer 1
 62
    40
420
 16695056
370
     5
100
AcDbLine
 10
4.980266199137771
 20
-7.486637824271749
 30
0.0
 11
4.980111620700603
 21
-7.486599894095976
 31
0.0
  0
LINE
  5
1B0
330
70
100
AcDbEntity
  8
Layer 1
 62
    40
420
 16695056
370
     5
100
AcDbLine
 10
4.932232142321582
 20
-7.499248199493877
 30
0.0
 11
4.932870500194515
 21
-7.499092177590732
 31
0.0
  0
LINE
  5
1B1
330
70
100
AcDbEntity
  8
Layer 1
 62
    40
420
 16695056
370
     5
100
AcDbLine
 10
4.911107096864333
 20
-7.504142782716017
 30
0.0
 11
4.910670821354705
 21
-7.504346302507756
 31
0.0
  0
LINE
  5
1B2
330
70
100
AcDbEntity
  8
Layer 1
 62
    40
420
 16695056
370
     5
100
AcDbLine
 10
4.911614182079347
 20
-7.503720653845776
 30
0.0
 11
4.911107096864333
 21
-7.504142782716017
 31
0.0
  0
LINE
  5
1B3
330
70
100
AcDbEntity
  8
Layer 1
 62
    40
420
 16695056
370
     5
100
AcDbLine
 10
4.912041377530916
 20
-7.503457798834043
 30
0.0
 11
4.911614182079347
 21
-7.503720653845776
 31
0.0
  0
LINE
  5
1B4
330
70
100
AcDbEntity
  8
Layer 1
 62
    40
420
 16695056
370
     5
100
AcDbLine
 10
4.932106475070339
 20
-7.498621033628839
 30
0.0
 11
4.912041377530916
 21
-7.503457798834043
 31
0.0
  0
LINE
  5
1B5
330
70
100
AcDbEntity
  8
Layer 1
 62
    40
420
 16695056
370
     5
100
AcDbLine
 10
4.179756311470592
 20
-7.493232254736893
 30
0.0
 11
4.18322088165496
 21
-7.494129635171955
 31
0.0
  0
LINE
  5
1B6
330
70
100
AcDbEntity
  8
Layer 1
 62
    40
420
 16695056
370
     5
100
AcDbLine
 10
4.175930783640713
 20
-7.492234610527171
 30
0.0
 11
4.179756311470592
 21
-7.493232254736893
 31
0.0
  0
LINE
  5
1B7
330
70
100
AcDbEntity
  8
Layer 1
 62
    40
420
 16695056
370
     5
100
AcDbLine
 10
4.207434332384941
 20
-7.500513611784892
 30
0.0
 11
4.143972753840696
 21
-7.484420034839583
 31
0.0
  0
LINE
  5
1B8
330
70
100
AcDbEntity
  8
Layer 1
 62
    40
420
 16695056
370
     5
100
AcDbLine
 10
4.143972753840696
 20
-7.484420034839583
 30
0.0
 11
4.142686885091456
 21
-7.484127240875181
 31
0.0
  0
LINE
  5
1B9
330
70
100
AcDbEntity
  8
Layer 1
 62
    40
420
 16695056
370
     5
100
AcDbLine
 10
4.211172307135762
 20
-7.50169579110118
 30
0.0
 11
4.207434332582907
 21
-7.500513611784892
 31
0.0
  0
LINE
  5
1BA
330
70
100
AcDbEntity
  8
Layer 1
 62
    40
420
 16695056
370
     5
100
AcDbLine
 10
4.895286507994455
 20
-7.507213189203512
 30
0.0
 11
4.879644118480604
 21
-7.510473552999668
 31
0.0
  0
LINE
  5
1BB
330
70
100
AcDbEntity
  8
Layer 1
 62
    40
420
 16695056
370
     5
100
AcDbLine
 10
4.895447771567445
 20
-7.507225574960935
 30
0.0
 11
4.895286507994455
 21
-7.507213189203512
 31
0.0
  0
LINE
  5
1BC
330
70
100
AcDbEntity
  8
Layer 1
 62
    40
420
 16695056
370
     5
100
AcDbLine
 10
4.896241562139405
 20
-7.507340744026034
 30
0.0
 11
4.895447771567445
 21
-7.507225574960935
 31
0.0
  0
LINE
  5
1BD
330
70
100
AcDbEntity
  8
Layer 1
 62
    40
420
 16695056
370
     5
100
AcDbLine
 10
4.896458049964343
 20
-7.507411755048602
 30
0.0
 11
4.896241562139405
 21
-7.507340744026034
 31
0.0
  0
LINE
  5
1BE
330
70
100
AcDbEntity
  8
Layer 1
 62
    18
420
        0
370
     5
100
AcDbLine
 10
12.71571267650784
 20
-11.82218901612302
 30
0.0
 11
12.71564773875141
 21
-11.80645909669048
 31
0.0
  0
LINE
  5
1BF
330
70
100
AcDbEntity
  8
Layer 1
 62
    18
420
        0
370
     5
100
AcDbLine
 10
12.71585143669992
 20
-11.83900153472442
 30
0.0
 11
12.71571267650784
 21
-11.82218901612302
 31
0.0
  0
LINE
  5
1C0
330
70
100
AcDbEntity
  8
Layer 1
 62
    18
420
        0
370
     5
100
AcDbLine
 10
12.71586138883549
 20
-11.84170277736749
 30
0.0
 11
12.71585143669992
 21
-11.83900153472442
 31
0.0
  0
LINE
  5
1C1
330
70
100
AcDbEntity
  8
Layer 1
 62
    18
420
        0
370
     5
100
AcDbLine
 10
12.71267303977755
 20
-11.84435997678017
 30
0.0
 11
12.71586138873656
 21
-11.84170277746638
 31
0.0
  0
LINE
  5
1C2
330
70
100
AcDbEntity
  8
Layer 1
 62
    18
420
        0
370
     5
100
AcDbLine
 10
12.71971498685232
 20
-11.84167785481526
 30
0.0
 11
12.72455552353793
 21
-11.84435997668116
 31
0.0
  0
LINE
  5
1C3
330
70
100
AcDbEntity
  8
Layer 1
 62
    18
420
        0
370
     5
100
AcDbLine
 10
12.7189714924183
 20
-11.80431488957831
 30
0.0
 11
12.71904226906579
 21
-11.81901542260473
 31
0.0
  0
LINE
  5
1C4
330
70
100
AcDbEntity
  8
Layer 1
 62
    18
420
        0
370
     5
100
AcDbLine
 10
12.73660940829
 20
-11.82240707578583
 30
0.0
 11
12.73648870834712
 21
-11.81331546367012
 31
0.0
  0
LINE
  5
1C5
330
70
100
AcDbEntity
  8
Layer 1
 62
    18
420
        0
370
     5
100
AcDbLine
 10
12.73137478223841
 20
-11.84436122001764
 30
0.0
 11
12.73665544598563
 21
-11.8417160459908
 31
0.0
  0
LINE
  5
1C6
330
70
100
AcDbEntity
  8
Layer 1
 62
    18
420
        0
370
     5
100
AcDbLine
 10
12.74161258144461
 20
-11.841701063697
 30
0.0
 11
12.74623588313554
 21
-11.84436122179924
 31
0.0
  0
LINE
  5
1C7
330
70
100
AcDbEntity
  8
Layer 1
 62
    18
420
        0
370
     5
100
AcDbLine
 10
12.74145517724274
 20
-11.83900153472442
 30
0.0
 11
12.74161258144461
 21
-11.841701063697
 31
0.0
  0
LINE
  5
1C8
330
70
100
AcDbEntity
  8
Layer 1
 62
    18
420
        0
370
     5
100
AcDbLine
 10
12.74083359293116
 20
-11.82218901612302
 30
0.0
 11
12.74145517724274
 21
-11.83900153472442
 31
0.0
  0
LINE
  5
1C9
330
70
100
AcDbEntity
  8
Layer 1
 62
    18
420
        0
370
     5
100
AcDbLine
 10
12.74056434812797
 20
-11.80645909669048
 30
0.0
 11
12.74083359293116
 21
-11.82218901612302
 31
0.0
  0
LINE
  5
1CA
330
70
100
AcDbEntity
  8
Layer 1
 62
    18
420
        0
370
     5
100
AcDbLine
 10
12.74086645266551
 20
-11.77229989216324
 30
0.0
 11
12.74068337953339
 21
-11.77983102642535
 31
0.0
  0
LINE
  5
1CB
330
70
100
AcDbEntity
  8
Layer 1
 62
    18
420
        0
370
     5
100
AcDbLine
 10
12.74619230449848
 20
-11.75518190126692
 30
0.0
 11
12.74148525238645
 21
-11.75771505851533
 31
0.0
  0
LINE
  5
1CC
330
70
100
AcDbEntity
  8
Layer 1
 62
    18
420
        0
370
     5
100
AcDbLine
 10
12.73671609629976
 20
-11.75782470313611
 30
0.0
 11
12.73137478204044
 21
-11.75518065802945
 31
0.0
  0
LINE
  5
1CD
330
70
100
AcDbEntity
  8
Layer 1
 62
    18
420
        0
370
     5
100
AcDbLine
 10
12.73667831072786
 20
-11.76789796751354
 30
0.0
 11
12.7367173556703
 21
-11.75852072858242
 31
0.0
  0
LINE
  5
1CE
330
70
100
AcDbEntity
  8
Layer 1
 62
    18
420
        0
370
     5
100
AcDbLine
 10
12.73653321518107
 20
-11.79375650711464
 30
0.0
 11
12.73657666316977
 21
-11.77939804790518
 31
0.0
  0
SPLINE
  5
1CF
330
70
100
AcDbEntity
  8
Layer 1
 62
    18
420
        0
370
     5
100
AcDbSpline
210
0.0
220
0.0
230
1.0
 70
     8
 71
     3
 72
    14
 73
    10
 74
     0
 42
0.0000000001
 43
0.0000000001
 40
0.0
 40
0.0
 40
0.0
 40
0.0
 40
1.0
 40
1.0
 40
1.0
 40
2.0
 40
2.0
 40
2.0
 40
3.0
 40
3.0
 40
3.0
 40
3.0
 10
12.718830254758
 20
-11.79397918628418
 30
0.0
 10
12.72044694830603
 20
-11.79482047058779
 30
0.0
 10
12.72217453624454
 20
-11.79542436902665
 30
0.0
 10
12.72401710385763
 20
-11.79574060937395
 30
0.0
 10
12.72585967147117
 20
-11.79605684972143
 30
0.0
 10
12.7278172187594
 20
-11.79608543197709
 30
0.0
 10
12.72990110710265
 20
-11.79577294484081
 30
0.0
 10
12.7319849954454
 20
-11.79546045770444
 30
0.0
 10
12.73419522484305
 20
-11.79480690117634
 30
0.0
 10
12.73653321518107
 20
-11.79375650711464
 30
0.0
  0
LINE
  5
1D0
330
70
100
AcDbEntity
  8
Layer 1
 62
    18
420
        0
370
     5
100
AcDbLine
 10
12.71903377445071
 20
-11.78120211449865
 30
0.0
 11
12.718830254758
 21
-11.79397918628418
 31
0.0
  0
LINE
  5
1D1
330
70
100
AcDbEntity
  8
Layer 1
 62
    18
420
        0
370
     5
100
AcDbLine
 10
12.72455552353793
 20
-11.75518190126692
 30
0.0
 11
12.7197187584317
 21
-11.75783200311083
 31
0.0
  0
LINE
  5
1D2
330
70
100
AcDbEntity
  8
Layer 1
 62
    18
420
        0
370
     5
100
AcDbLine
 10
12.7159633680622
 20
-11.75771228431702
 30
0.0
 11
12.71270300426603
 21
-11.75518190116799
 31
0.0
  0
LINE
  5
1D3
330
70
100
AcDbEntity
  8
Layer 1
 62
    18
420
        0
370
     5
100
AcDbLine
 10
12.71595098230485
 20
-11.75945491809218
 30
0.0
 11
12.7159633680622
 21
-11.75771228431702
 31
0.0
  0
LINE
  5
1D4
330
70
100
AcDbEntity
  8
Layer 1
 62
    18
420
        0
370
     5
100
AcDbLine
 10
12.71576480221711
 20
-11.77983102642535
 30
0.0
 11
12.71583581323966
 21
-11.77229989216324
 31
0.0
  0
LINE
  5
1D5
330
70
100
AcDbEntity
  8
Layer 1
 62
    18
420
        0
370
     5
100
AcDbLine
 10
5.034324445015727
 20
-7.470560603407066
 30
0.0
 11
4.097735231544485
 21
-7.470560603407066
 31
0.0
  0
LINE
  5
1D6
330
70
100
AcDbEntity
  8
Layer 1
 62
    18
420
        0
370
     5
100
AcDbLine
 10
3.50203786012288
 20
-6.260353396920284
 30
0.0
 11
3.50203786012288
 21
-6.052717663079975
 31
0.0
  0
LINE
  5
1D7
330
70
100
AcDbEntity
  8
Layer 1
 62
    18
420
        0
370
     5
100
AcDbLine
 10
3.561423458903732
 20
-5.962004662544573
 30
0.0
 11
3.561423458903732
 21
-4.972244682863447
 31
0.0
  0
LINE
  5
1D8
330
70
100
AcDbEntity
  8
Layer 1
 62
    18
420
        0
370
     5
100
AcDbLine
 10
3.835092093285588
 20
-7.225984168797203
 30
0.0
 11
3.835092093285588
 21
-6.628057116670131
 31
0.0
  0
LINE
  5
1D9
330
70
100
AcDbEntity
  8
Layer 1
 62
    18
420
        0
370
     5
100
AcDbLine
 10
4.051231317329223
 20
-6.511321451267614
 30
0.0
 11
4.051231317329223
 21
-6.410731287697394
 31
0.0
  0
LINE
  5
1DA
330
70
100
AcDbEntity
  8
Layer 1
 62
    18
420
        0
370
     5
100
AcDbLine
 10
4.070160088459829
 20
-7.4328374894555
 30
0.0
 11
4.070160088459829
 21
-7.331350299487375
 31
0.0
  0
LINE
  5
1DB
330
70
100
AcDbEntity
  8
Layer 1
 62
    18
420
        0
370
     5
100
AcDbLine
 10
5.606267576924929
 20
-6.016432462826236
 30
0.0
 11
3.525792099635231
 21
-6.016432462826236
 31
0.0
  0
LINE
  5
1DC
330
70
100
AcDbEntity
  8
Layer 1
 62
    18
420
        0
370
     5
100
AcDbLine
 10
3.60101681400916
 20
-4.932654283676217
 30
0.0
 11
5.531042862550988
 21
-4.932654283676217
 31
0.0
  0
LINE
  5
1DD
330
70
100
AcDbEntity
  8
Layer 1
 62
    18
420
        0
370
     5
100
AcDbLine
 10
5.061899588100319
 20
-7.4328374894555
 30
0.0
 11
5.061899588100319
 21
-7.331350299487375
 31
0.0
  0
LINE
  5
1DE
330
70
100
AcDbEntity
  8
Layer 1
 62
    18
420
        0
370
     5
100
AcDbLine
 10
5.08082835923095
 20
-6.511321451267614
 30
0.0
 11
5.08082835923095
 21
-6.410731287697394
 31
0.0
  0
LINE
  5
1DF
330
70
100
AcDbEntity
  8
Layer 1
 62
    18
420
        0
370
     5
100
AcDbLine
 10
5.296967583274585
 20
-7.225984168797203
 30
0.0
 11
5.296967583274585
 21
-6.628057116670131
 31
0.0
  0
LINE
  5
1E0
330
70
100
AcDbEntity
  8
Layer 1
 62
    18
420
        0
370
     5
100
AcDbLine
 10
5.570636217656442
 20
-5.962004662544573
 30
0.0
 11
5.570636217656442
 21
-4.972244682863447
 31
0.0
  0
LINE
  5
1E1
330
70
100
AcDbEntity
  8
Layer 1
 62
    18
420
        0
370
     5
100
AcDbLine
 10
5.630021816437293
 20
-6.260353396920284
 30
0.0
 11
5.630021816437293
 21
-6.052717663079975
 31
0.0
  0
LINE
  5
1E2
330
70
100
AcDbEntity
  8
Layer 1
 62
    18
420
        0
370
     5
100
AcDbLine
 10
12.75261595385867
 20
-12.26806554407656
 30
0.0
 11
12.75261595385867
 21
-11.33147633060535
 31
0.0
  0
LINE
  5
1E3
330
70
100
AcDbEntity
  8
Layer 1
 62
    18
420
        0
370
     5
100
AcDbLine
 10
14.20674409443947
 20
-12.84000867598577
 30
0.0
 11
14.20674409443947
 21
-10.75953319869604
 31
0.0
  0
LINE
  5
1E4
330
70
100
AcDbEntity
  8
Layer 1
 62
    18
420
        0
370
     5
100
AcDbLine
 10
14.27601829441634
 20
-12.80437731671729
 30
0.0
 11
14.27601829441634
 21
-12.79809757786428
 31
0.0
  0
LINE
  5
1E5
330
70
100
AcDbEntity
  8
Layer 1
 62
    18
420
        0
370
     5
100
AcDbLine
 10
15.29052227358953
 20
-12.7679298173047
 30
0.0
 11
15.29052227358953
 21
-10.83475495715187
 31
0.0
  0
LINE
  5
1E6
330
70
100
AcDbEntity
  8
Layer 1
 62
    18
420
        0
370
     5
100
AcDbLine
 10
14.27601829441634
 20
-12.80437731671729
 30
0.0
 11
14.26117189472117
 21
-12.80437731671729
 31
0.0
  0
LINE
  5
1E7
330
70
100
AcDbEntity
  8
Layer 1
 62
    18
420
        0
370
     5
100
AcDbLine
 10
14.37499429238444
 20
-12.77668299663347
 30
0.0
 11
15.17669987592616
 21
-12.77668299663347
 31
0.0
  0
LINE
  5
1E8
330
70
100
AcDbEntity
  8
Layer 1
 62
    18
420
        0
370
     5
100
AcDbLine
 10
12.99719238846844
 20
-11.06883319234642
 30
0.0
 11
13.59511944059563
 21
-11.06883319234642
 31
0.0
  0
LINE
  5
1E9
330
70
100
AcDbEntity
  8
Layer 1
 62
    18
420
        0
370
     5
100
AcDbLine
 10
15.25093187440224
 20
-10.79516455796465
 30
0.0
 11
14.26117189472117
 21
-10.79516455796465
 31
0.0
  0
SPLINE
  5
1EA
330
70
100
AcDbEntity
  8
Layer 1
 62
    18
420
        0
370
     5
100
AcDbSpline
210
0.0
220
0.0
230
1.0
 70
     8
 71
     3
 72
     8
 73
     4
 74
     0
 42
0.0000000001
 43
0.0000000001
 40
0.0
 40
0.0
 40
0.0
 40
0.0
 40
1.0
 40
1.0
 40
1.0
 40
1.0
 10
4.618281118018544
 20
-10.73706273028286
 30
0.0
 10
4.600877164561236
 20
-10.73620701200138
 30
0.0
 10
4.5834548160339
 20
-10.73577895918376
 30
0.0
 10
4.566029838280087
 20
-10.73577895918376
 30
0.0
  0
CIRCLE
  5
1EB
330
70
100
AcDbEntity
  8
Layer 1
 62
    18
420
        0
370
     5
100
AcDbCircle
 10
4.566029838280083
 20
-11.79977093734092
 30
0.0
 40
0.4958697498202472
  0
SPLINE
  5
1EC
330
70
100
AcDbEntity
  8
Layer 1
 62
    18
420
        0
370
     5
100
AcDbSpline
210
0.0
220
0.0
230
1.0
 70
     8
 71
     3
 72
     8
 73
     4
 74
     0
 42
0.0000000001
 43
0.0000000001
 40
0.0
 40
0.0
 40
0.0
 40
0.0
 40
1.0
 40
1.0
 40
1.0
 40
1.0
 10
3.525792099635231
 20
-6.016432462865306
 30
0.0
 10
3.547433799648906
 20
-6.006987250629094
 30
0.0
 10
3.561423458903732
 20
-5.98561769313513
 30
0.0
 10
3.561423458903732
 20
-5.962004662544573
 30
0.0
  0
SPLINE
  5
1ED
330
70
100
AcDbEntity
  8
Layer 1
 62
    18
420
        0
370
     5
100
AcDbSpline
210
0.0
220
0.0
230
1.0
 70
     8
 71
     3
 72
     8
 73
     4
 74
     0
 42
0.0000000001
 43
0.0000000001
 40
0.0
 40
0.0
 40
0.0
 40
0.0
 40
1.0
 40
1.0
 40
1.0
 40
1.0
 10
4.070160088459829
 20
-7.4328374894555
 30
0.0
 10
4.070160088459829
 20
-7.450073852749987
 30
0.0
 10
4.081311823074631
 20
-7.465329554406227
 30
0.0
 10
4.097735231540911
 20
-7.470560603437623
 30
0.0
  0
SPLINE
  5
1EE
330
70
100
AcDbEntity
  8
Layer 1
 62
    18
420
        0
370
     5
100
AcDbSpline
210
0.0
220
0.0
230
1.0
 70
     8
 71
     3
 72
     8
 73
     4
 74
     0
 42
0.0000000001
 43
0.0000000001
 40
0.0
 40
0.0
 40
0.0
 40
0.0
 40
1.0
 40
1.0
 40
1.0
 40
1.0
 10
3.601013858091012
 20
-4.932654283676217
 30
0.0
 10
3.579148684380154
 20
-4.932654283676217
 30
0.0
 10
3.561423458903732
 20
-4.950379509152614
 30
0.0
 10
3.561423458903732
 20
-4.972244682863447
 30
0.0
  0
SPLINE
  5
1EF
330
70
100
AcDbEntity
  8
Layer 1
 62
    18
420
        0
370
     5
100
AcDbSpline
210
0.0
220
0.0
230
1.0
 70
     8
 71
     3
 72
     8
 73
     4
 74
     0
 42
0.0000000001
 43
0.0000000001
 40
0.0
 40
0.0
 40
0.0
 40
0.0
 40
1.0
 40
1.0
 40
1.0
 40
1.0
 10
3.525792099635231
 20
-6.016432462866153
 30
0.0
 10
3.511364299626102
 20
-6.022729271023649
 30
0.0
 10
3.50203786012288
 20
-6.036975642686305
 30
0.0
 10
3.50203786012288
 20
-6.052717663079975
 30
0.0
  0
SPLINE
  5
1F0
330
70
100
AcDbEntity
  8
Layer 1
 62
    18
420
        0
370
     5
100
AcDbSpline
210
0.0
220
0.0
230
1.0
 70
     8
 71
     3
 72
     8
 73
     4
 74
     0
 42
0.0000000001
 43
0.0000000001
 40
0.0
 40
0.0
 40
0.0
 40
0.0
 40
1.0
 40
1.0
 40
1.0
 40
1.0
 10
4.097735231541971
 20
-7.470560603413003
 30
0.0
 10
4.402391431181083
 20
-7.567597191239062
 30
0.0
 10
4.729668245379078
 20
-7.567597191239062
 30
0.0
 10
5.034324445018228
 20
-7.470560603413003
 30
0.0
  0
SPLINE
  5
1F1
330
70
100
AcDbEntity
  8
Layer 1
 62
    18
420
        0
370
     5
100
AcDbSpline
210
0.0
220
0.0
230
1.0
 70
     8
 71
     3
 72
     8
 73
     4
 74
     0
 42
0.0000000001
 43
0.0000000001
 40
0.0
 40
0.0
 40
0.0
 40
0.0
 40
1.0
 40
1.0
 40
1.0
 40
1.0
 10
5.570636217656442
 20
-5.962004662544573
 30
0.0
 10
5.570636217656442
 20
-5.98561769313513
 30
0.0
 10
5.584625876911255
 20
-6.006987250629094
 30
0.0
 10
5.606267576924929
 20
-6.016432462865306
 30
0.0
  0
SPLINE
  5
1F2
330
70
100
AcDbEntity
  8
Layer 1
 62
    18
420
        0
370
     5
100
AcDbSpline
210
0.0
220
0.0
230
1.0
 70
     8
 71
     3
 72
     8
 73
     4
 74
     0
 42
0.0000000001
 43
0.0000000001
 40
0.0
 40
0.0
 40
0.0
 40
0.0
 40
1.0
 40
1.0
 40
1.0
 40
1.0
 10
5.034324445019263
 20
-7.470560603437623
 30
0.0
 10
5.05074785348553
 20
-7.465329554406227
 30
0.0
 10
5.061899588100319
 20
-7.450073852749987
 30
0.0
 10
5.061899588100319
 20
-7.4328374894555
 30
0.0
  0
SPLINE
  5
1F3
330
70
100
AcDbEntity
  8
Layer 1
 62
    18
420
        0
370
     5
100
AcDbSpline
210
0.0
220
0.0
230
1.0
 70
     8
 71
     3
 72
     8
 73
     4
 74
     0
 42
0.0000000001
 43
0.0000000001
 40
0.0
 40
0.0
 40
0.0
 40
0.0
 40
1.0
 40
1.0
 40
1.0
 40
1.0
 10
5.570636217656442
 20
-4.972244682863447
 30
0.0
 10
5.570636217656442
 20
-4.950379509152614
 30
0.0
 10
5.552910992179994
 20
-4.932654283676217
 30
0.0
 10
5.531045818469161
 20
-4.932654283676217
 30
0.0
  0
SPLINE
  5
1F4
330
70
100
AcDbEntity
  8
Layer 1
 62
    18
420
        0
370
     5
100
AcDbSpline
210
0.0
220
0.0
230
1.0
 70
     8
 71
     3
 72
     8
 73
     4
 74
     0
 42
0.0000000001
 43
0.0000000001
 40
0.0
 40
0.0
 40
0.0
 40
0.0
 40
1.0
 40
1.0
 40
1.0
 40
1.0
 10
5.630021816437293
 20
-6.052717663079975
 30
0.0
 10
5.630021816437293
 20
-6.036975642686305
 30
0.0
 10
5.620695376934059
 20
-6.022729271023649
 30
0.0
 10
5.606267576924929
 20
-6.016432462866153
 30
0.0
  0
SPLINE
  5
1F5
330
70
100
AcDbEntity
  8
Layer 1
 62
    18
420
        0
370
     5
100
AcDbSpline
210
0.0
220
0.0
230
1.0
 70
     8
 71
     3
 72
     8
 73
     4
 74
     0
 42
0.0000000001
 43
0.0000000001
 40
0.0
 40
0.0
 40
0.0
 40
0.0
 40
1.0
 40
1.0
 40
1.0
 40
1.0
 10
12.75261595382219
 20
-12.26806554406175
 30
0.0
 10
12.75784700284778
 20
-12.28448895253733
 30
0.0
 10
12.7731027045086
 20
-12.29564068716116
 30
0.0
 10
12.79033906781018
 20
-12.29564068716116
 30
0.0
  0
SPLINE
  5
1F6
330
70
100
AcDbEntity
  8
Layer 1
 62
    18
420
        0
370
     5
100
AcDbSpline
210
0.0
220
0.0
230
1.0
 70
     8
 71
     3
 72
     8
 73
     4
 74
     0
 42
0.0000000001
 43
0.0000000001
 40
0.0
 40
0.0
 40
0.0
 40
0.0
 40
1.0
 40
1.0
 40
1.0
 40
1.0
 10
12.79033906781018
 20
-11.30390118752072
 30
0.0
 10
12.7731027045086
 20
-11.30390118752072
 30
0.0
 10
12.75784700284778
 20
-11.31505292214453
 30
0.0
 10
12.75261595382219
 20
-11.33147633062016
 30
0.0
  0
SPLINE
  5
1F7
330
70
100
AcDbEntity
  8
Layer 1
 62
    18
420
        0
370
     5
100
AcDbSpline
210
0.0
220
0.0
230
1.0
 70
     8
 71
     3
 72
     8
 73
     4
 74
     0
 42
0.0000000001
 43
0.0000000001
 40
0.0
 40
0.0
 40
0.0
 40
0.0
 40
1.0
 40
1.0
 40
1.0
 40
1.0
 10
15.2608294741991
 20
-12.80626305643045
 30
0.0
 10
15.23693990324656
 20
-12.81243131712704
 30
0.0
 10
15.21935288942525
 20
-12.83272858254556
 30
0.0
 10
15.21664817346749
 20
-12.8572529286511
 30
0.0
  0
SPLINE
  5
1F8
330
70
100
AcDbEntity
  8
Layer 1
 62
    18
420
        0
370
     5
100
AcDbSpline
210
0.0
220
0.0
230
1.0
 70
     8
 71
     3
 72
     8
 73
     4
 74
     0
 42
0.0000000001
 43
0.0000000001
 40
0.0
 40
0.0
 40
0.0
 40
0.0
 40
1.0
 40
1.0
 40
1.0
 40
1.0
 10
14.33410617538195
 20
-12.85141595504746
 30
0.0
 10
14.32827645812898
 20
-12.82398929172892
 30
0.0
 10
14.30405768570861
 20
-12.80437731651934
 30
0.0
 10
14.27601829441634
 20
-12.80437731651934
 30
0.0
  0
SPLINE
  5
1F9
330
70
100
AcDbEntity
  8
Layer 1
 62
    18
420
        0
370
     5
100
AcDbSpline
210
0.0
220
0.0
230
1.0
 70
     8
 71
     3
 72
     8
 73
     4
 74
     0
 42
0.0000000001
 43
0.0000000001
 40
0.0
 40
0.0
 40
0.0
 40
0.0
 40
1.0
 40
1.0
 40
1.0
 40
1.0
 10
14.26117189472117
 20
-12.80437731671729
 30
0.0
 10
14.23755886413063
 20
-12.80437731671729
 30
0.0
 10
14.2161893066367
 20
-12.81836697597216
 30
0.0
 10
14.20674409440036
 20
-12.84000867598577
 30
0.0
  0
SPLINE
  5
1FA
330
70
100
AcDbEntity
  8
Layer 1
 62
    18
420
        0
370
     5
100
AcDbSpline
210
0.0
220
0.0
230
1.0
 70
     8
 71
     3
 72
     8
 73
     4
 74
     0
 42
0.0000000001
 43
0.0000000001
 40
0.0
 40
0.0
 40
0.0
 40
0.0
 40
1.0
 40
1.0
 40
1.0
 40
1.0
 10
15.26082947419905
 20
-12.80626305648512
 30
0.0
 10
15.27830936549162
 20
-12.80174976796047
 30
0.0
 10
15.29052227358953
 20
-12.78598297140317
 30
0.0
 10
15.29052227358953
 20
-12.7679298173047
 30
0.0
  0
SPLINE
  5
1FB
330
70
100
AcDbEntity
  8
Layer 1
 62
    18
420
        0
370
     5
100
AcDbSpline
210
0.0
220
0.0
230
1.0
 70
     8
 71
     3
 72
     8
 73
     4
 74
     0
 42
0.0000000001
 43
0.0000000001
 40
0.0
 40
0.0
 40
0.0
 40
0.0
 40
1.0
 40
1.0
 40
1.0
 40
1.0
 10
14.17045889418573
 20
-12.86376291549823
 30
0.0
 10
14.18620091457978
 20
-12.86376291549823
 30
0.0
 10
14.20044728624271
 20
-12.85443647599451
 30
0.0
 10
14.20674409439996
 20
-12.84000867598484
 30
0.0
  0
SPLINE
  5
1FC
330
70
100
AcDbEntity
  8
Layer 1
 62
    18
420
        0
370
     5
100
AcDbSpline
210
0.0
220
0.0
230
1.0
 70
     8
 71
     3
 72
     8
 73
     4
 74
     0
 42
0.0000000001
 43
0.0000000001
 40
0.0
 40
0.0
 40
0.0
 40
0.0
 40
1.0
 40
1.0
 40
1.0
 40
1.0
 10
12.75261595385271
 20
-11.33147633060283
 30
0.0
 10
12.65557936602666
 20
-11.63613253024194
 30
0.0
 10
12.65557936602666
 20
-11.96340934444002
 30
0.0
 10
12.75261595385271
 20
-12.26806554407911
 30
0.0
  0
SPLINE
  5
1FD
330
70
100
AcDbEntity
  8
Layer 1
 62
    18
420
        0
370
     5
100
AcDbSpline
210
0.0
220
0.0
230
1.0
 70
     8
 71
     3
 72
     8
 73
     4
 74
     0
 42
0.0000000001
 43
0.0000000001
 40
0.0
 40
0.0
 40
0.0
 40
0.0
 40
1.0
 40
1.0
 40
1.0
 40
1.0
 10
15.29052227358953
 20
-10.83475495715187
 30
0.0
 10
15.29052227358953
 20
-10.81288978344102
 30
0.0
 10
15.27279704811311
 20
-10.79516455796465
 30
0.0
 10
15.25093187440224
 20
-10.79516455796465
 30
0.0
  0
SPLINE
  5
1FE
330
70
100
AcDbEntity
  8
Layer 1
 62
    18
420
        0
370
     5
100
AcDbSpline
210
0.0
220
0.0
230
1.0
 70
     8
 71
     3
 72
     8
 73
     4
 74
     0
 42
0.0000000001
 43
0.0000000001
 40
0.0
 40
0.0
 40
0.0
 40
0.0
 40
1.0
 40
1.0
 40
1.0
 40
1.0
 10
14.20674409440036
 20
-10.75953319869604
 30
0.0
 10
14.2161893066367
 20
-10.78117489870982
 30
0.0
 10
14.23755886413063
 20
-10.79516455796465
 30
0.0
 10
14.26117189472117
 20
-10.79516455796465
 30
0.0
  0
SPLINE
  5
1FF
330
70
100
AcDbEntity
  8
Layer 1
 62
    18
420
        0
370
     5
100
AcDbSpline
210
0.0
220
0.0
230
1.0
 70
     8
 71
     3
 72
     8
 73
     4
 74
     0
 42
0.0000000001
 43
0.0000000001
 40
0.0
 40
0.0
 40
0.0
 40
0.0
 40
1.0
 40
1.0
 40
1.0
 40
1.0
 10
14.20674409439996
 20
-10.7595331986971
 30
0.0
 10
14.20044728624275
 20
-10.74510539868748
 30
0.0
 10
14.18620091457983
 20
-10.73577895918376
 30
0.0
 10
14.17045889418578
 20
-10.73577895918376
 30
0.0
  0
SPLINE
  5
200
330
70
100
AcDbEntity
  8
Layer 1
 62
    18
420
        0
370
     5
100
AcDbSpline
210
0.0
220
0.0
230
1.0
 70
     8
 71
     3
 72
    62
 73
    58
 74
     0
 42
0.0000000001
 43
0.0000000001
 40
0.0
 40
0.0
 40
0.0
 40
0.0
 40
1.0
 40
1.0
 40
1.0
 40
2.0
 40
2.0
 40
2.0
 40
3.0
 40
3.0
 40
3.0
 40
4.0
 40
4.0
 40
4.0
 40
5.0
 40
5.0
 40
5.0
 40
6.0
 40
6.0
 40
6.0
 40
7.0
 40
7.0
 40
7.0
 40
8.0
 40
8.0
 40
8.0
 40
9.0
 40
9.0
 40
9.0
 40
10.0
 40
10.0
 40
10.0
 40
11.0
 40
11.0
 40
11.0
 40
12.0
 40
12.0
 40
12.0
 40
13.0
 40
13.0
 40
13.0
 40
14.0
 40
14.0
 40
14.0
 40
15.0
 40
15.0
 40
15.0
 40
16.0
 40
16.0
 40
16.0
 40
17.0
 40
17.0
 40
17.0
 40
18.0
 40
18.0
 40
18.0
 40
19.0
 40
19.0
 40
19.0
 40
19.0
 10
4.407668241531092
 20
-12.87293049020763
 30
0.0
 10
4.407668237868985
 20
-12.87293301845056
 30
0.0
 10
4.407669810303622
 20
-12.87292772962999
 30
0.0
 10
4.407671165167508
 20
-12.87292349168648
 30
0.0
 10
4.407675254821697
 20
-12.87291069946198
 30
0.0
 10
4.407677362116865
 20
-12.87290748212758
 30
0.0
 10
4.40767988625675
 20
-12.87290232355579
 30
0.0
 10
4.407684024107614
 20
-12.87289386705111
 30
0.0
 10
4.407689282162411
 20
-12.87288019377868
 30
0.0
 10
4.407694328978474
 20
-12.87286768306272
 30
0.0
 10
4.407701253680999
 20
-12.8728505171933
 30
0.0
 10
4.407707780697074
 20
-12.87283553999898
 30
0.0
 10
4.4077144174009
 20
-12.87282026719145
 30
0.0
 10
4.407732745190931
 20
-12.87277809010798
 30
0.0
 10
4.407751909495421
 20
-12.87273365858113
 30
0.0
 10
4.40777122773103
 20
-12.87268989783064
 30
0.0
 10
4.407797046877186
 20
-12.87263141085307
 30
0.0
 10
4.407823140987034
 20
-12.87257412206804
 30
0.0
 10
4.40784970988169
 20
-12.87251679250428
 30
0.0
 10
4.407882230136111
 20
-12.8724466212751
 30
0.0
 10
4.407915461698558
 20
-12.87237638895261
 30
0.0
 10
4.407949256700691
 20
-12.87230652689211
 30
0.0
 10
4.407988534561708
 20
-12.87222533049824
 30
0.0
 10
4.408028573516477
 20
-12.87214463425385
 30
0.0
 10
4.40806930361508
 20
-12.87206425510057
 30
0.0
 10
4.408115145804976
 20
-12.87197378744804
 30
0.0
 10
4.408161863519239
 20
-12.8718837214787
 30
0.0
 10
4.408209390863033
 20
-12.87179409660939
 30
0.0
 10
4.408261653378127
 20
-12.87169554237253
 30
0.0
 10
4.408314894886871
 20
-12.87159752150794
 30
0.0
 10
4.408369074437548
 20
-12.87150001495714
 30
0.0
 10
4.408489853607521
 20
-12.87128264954655
 30
0.0
 10
4.408615294383328
 20
-12.87106784002137
 30
0.0
 10
4.408745454433465
 20
-12.87085593601536
 30
0.0
 10
4.408889773673296
 20
-12.87062098047383
 30
0.0
 10
4.409039894786878
 20
-12.87038959697623
 30
0.0
 10
4.409195180149923
 20
-12.87016174069979
 30
0.0
 10
4.409363218077954
 20
-12.86991517208664
 30
0.0
 10
4.409537303296107
 20
-12.86967273381788
 30
0.0
 10
4.40971684153798
 20
-12.86943440644813
 30
0.0
 10
4.409908383436762
 20
-12.86918014486878
 30
0.0
 10
4.410106131896579
 20
-12.86893056226149
 30
0.0
 10
4.410309761074346
 20
-12.86868587448427
 30
0.0
 10
4.410524638230665
 20
-12.86842767075169
 30
0.0
 10
4.410746063721136
 20
-12.86817491754136
 30
0.0
 10
4.410973282625036
 20
-12.86792751295656
 30
0.0
 10
4.411211687686659
 20
-12.8676679284578
 30
0.0
 10
4.411456470631252
 20
-12.86741423218169
 30
0.0
 10
4.411706907144737
 20
-12.8671661955723
 30
0.0
 10
4.412241667087061
 20
-12.86663656017263
 30
0.0
 10
4.412802204786493
 20
-12.8661327303336
 30
0.0
 10
4.41338276899272
 20
-12.86565351622266
 30
0.0
 10
4.414011364903381
 20
-12.86513465538483
 30
0.0
 10
4.41466343809471
 20
-12.86464465181908
 30
0.0
 10
4.415333009827324
 20
-12.86417991900672
 30
0.0
 10
4.416053806115288
 20
-12.86367963252549
 30
0.0
 10
4.416794880757619
 20
-12.86320863130201
 30
0.0
 10
4.417550961771262
 20
-12.86276401221474
 30
0.0
  0
SPLINE
  5
201
330
70
100
AcDbEntity
  8
Layer 1
 62
    18
420
        0
370
     5
100
AcDbSpline
210
0.0
220
0.0
230
1.0
 70
     8
 71
     3
 72
    62
 73
    58
 74
     0
 42
0.0000000001
 43
0.0000000001
 40
0.0
 40
0.0
 40
0.0
 40
0.0
 40
1.0
 40
1.0
 40
1.0
 40
2.0
 40
2.0
 40
2.0
 40
3.0
 40
3.0
 40
3.0
 40
4.0
 40
4.0
 40
4.0
 40
5.0
 40
5.0
 40
5.0
 40
6.0
 40
6.0
 40
6.0
 40
7.0
 40
7.0
 40
7.0
 40
8.0
 40
8.0
 40
8.0
 40
9.0
 40
9.0
 40
9.0
 40
10.0
 40
10.0
 40
10.0
 40
11.0
 40
11.0
 40
11.0
 40
12.0
 40
12.0
 40
12.0
 40
13.0
 40
13.0
 40
13.0
 40
14.0
 40
14.0
 40
14.0
 40
15.0
 40
15.0
 40
15.0
 40
16.0
 40
16.0
 40
16.0
 40
17.0
 40
17.0
 40
17.0
 40
18.0
 40
18.0
 40
18.0
 40
19.0
 40
19.0
 40
19.0
 40
19.0
 10
4.714508743590941
 20
-12.86276402923866
 30
0.0
 10
4.715264823515831
 20
-12.86320864862283
 30
0.0
 10
4.716005896918065
 20
-12.8636796500269
 30
0.0
 10
4.716726691872016
 20
-12.86417993675599
 30
0.0
 10
4.717396261226364
 20
-12.86464466900816
 30
0.0
 10
4.718048332017966
 20
-12.86513467198566
 30
0.0
 10
4.718676925549061
 20
-12.86565353216474
 30
0.0
 10
4.719257487908217
 20
-12.86613274595667
 30
0.0
 10
4.719818023753595
 20
-12.86663657544608
 30
0.0
 10
4.72035278170252
 20
-12.8671662105892
 30
0.0
 10
4.720603217423242
 20
-12.86741424721776
 30
0.0
 10
4.720847999538123
 20
-12.86766794353985
 30
0.0
 10
4.72108640394419
 20
-12.86792752787563
 30
0.0
 10
4.721313622053634
 20
-12.86817493212038
 30
0.0
 10
4.721535046916452
 20
-12.86842768479285
 30
0.0
 10
4.721749923441848
 20
-12.86868588800345
 30
0.0
 10
4.721953552045798
 20
-12.86893057531503
 30
0.0
 10
4.72215129992743
 20
-12.86918015747238
 30
0.0
 10
4.722342841200744
 20
-12.86943441862455
 30
0.0
 10
4.722522378926492
 20
-12.86967274568696
 30
0.0
 10
4.722696463582716
 20
-12.86991518367179
 30
0.0
 10
4.722864501007228
 20
-12.87016175197512
 30
0.0
 10
4.723019785877517
 20
-12.87038960792529
 30
0.0
 10
4.72316990655002
 20
-12.87062099107321
 30
0.0
 10
4.723314225182257
 20
-12.87085594633021
 30
0.0
 10
4.723444384875543
 20
-12.87106785039085
 30
0.0
 10
4.723569825145191
 20
-12.87128266003237
 30
0.0
 10
4.723690604074716
 20
-12.8715000254422
 30
0.0
 10
4.723744783435752
 20
-12.87159753184551
 30
0.0
 10
4.723798024811103
 20
-12.87169555253737
 30
0.0
 10
4.723850287292823
 20
-12.87179410651803
 30
0.0
 10
4.723897814389172
 20
-12.87188373074521
 30
0.0
 10
4.723944531946042
 20
-12.87197379599934
 30
0.0
 10
4.723990374215822
 20
-12.87206426286482
 30
0.0
 10
4.724031104033959
 20
-12.87214464062524
 30
0.0
 10
4.724071142907417
 20
-12.87222533541457
 30
0.0
 10
4.72411042088845
 20
-12.87230653021983
 30
0.0
 10
4.724144215559198
 20
-12.8723763900149
 30
0.0
 10
4.724177446953742
 20
-12.87244661996358
 30
0.0
 10
4.724209967367831
 20
-12.87251678879006
 30
0.0
 10
4.724236536202561
 20
-12.87257411597994
 30
0.0
 10
4.724262630477887
 20
-12.87263140237241
 30
0.0
 10
4.724288449235586
 20
-12.8726898868848
 30
0.0
 10
4.72430776734878
 20
-12.87273364617193
 30
0.0
 10
4.724326931218052
 20
-12.87277807620641
 30
0.0
 10
4.724345259302922
 20
-12.87282025216553
 30
0.0
 10
4.724351896314121
 20
-12.87283552502777
 30
0.0
 10
4.724358423726711
 20
-12.87285050230704
 30
0.0
 10
4.724365347668203
 20
-12.87286766826529
 30
0.0
 10
4.724370394193922
 20
-12.87288017970109
 30
0.0
 10
4.724375651365587
 20
-12.87289385381708
 30
0.0
 10
4.724379790360772
 20
-12.87290231111822
 30
0.0
 10
4.724382315543493
 20
-12.87290747088046
 30
0.0
 10
4.724384424522327
 20
-12.87291068885739
 30
0.0
 10
4.724388511450342
 20
-12.87292348401555
 30
0.0
 10
4.724389866415713
 20
-12.87292772607621
 30
0.0
 10
4.724391438790146
 20
-12.87293302082599
 30
0.0
 10
4.72439143502907
 20
-12.87293049020763
 30
0.0
  0
SPLINE
  5
202
330
70
100
AcDbEntity
  8
Layer 1
 62
    18
420
        0
370
     5
100
AcDbSpline
210
0.0
220
0.0
230
1.0
 70
     8
 71
     3
 72
    53
 73
    49
 74
     0
 42
0.0000000001
 43
0.0000000001
 40
0.0
 40
0.0
 40
0.0
 40
0.0
 40
1.0
 40
1.0
 40
1.0
 40
2.0
 40
2.0
 40
2.0
 40
3.0
 40
3.0
 40
3.0
 40
4.0
 40
4.0
 40
4.0
 40
5.0
 40
5.0
 40
5.0
 40
6.0
 40
6.0
 40
6.0
 40
7.0
 40
7.0
 40
7.0
 40
8.0
 40
8.0
 40
8.0
 40
9.0
 40
9.0
 40
9.0
 40
10.0
 40
10.0
 40
10.0
 40
11.0
 40
11.0
 40
11.0
 40
12.0
 40
12.0
 40
12.0
 40
13.0
 40
13.0
 40
13.0
 40
14.0
 40
14.0
 40
14.0
 40
15.0
 40
15.0
 40
15.0
 40
16.0
 40
16.0
 40
16.0
 40
16.0
 10
14.27601829441634
 20
-12.79809757786428
 30
0.0
 10
14.27602298419606
 20
-12.7976630355234
 30
0.0
 10
14.27604366296191
 20
-12.79722505339787
 30
0.0
 10
14.27612811668875
 20
-12.79679850888477
 30
0.0
 10
14.27617496198854
 20
-12.79656191061551
 30
0.0
 10
14.27624142934888
 20
-12.79632883143146
 30
0.0
 10
14.27632761871073
 20
-12.79610342706013
 30
0.0
 10
14.27642381092755
 20
-12.79585186299593
 30
0.0
 10
14.27654456852673
 20
-12.79560985854502
 30
0.0
 10
14.27668308397546
 20
-12.79537885192897
 30
0.0
 10
14.27684193190654
 20
-12.79511393618592
 30
0.0
 10
14.27702413361157
 20
-12.79486348395928
 30
0.0
 10
14.27722172941958
 20
-12.79462619905553
 30
0.0
 10
14.27745194620087
 20
-12.79434974092939
 30
0.0
 10
14.27770305945023
 20
-12.79409115656575
 30
0.0
 10
14.27796719756305
 20
-12.79384703994727
 30
0.0
 10
14.2782767229295
 20
-12.79356097639909
 30
0.0
 10
14.2786041338968
 20
-12.79329477980097
 30
0.0
 10
14.27894206892385
 20
-12.79304305842333
 30
0.0
 10
14.2793353943835
 20
-12.79275007776535
 30
0.0
 10
14.27974297660855
 20
-12.79247670644319
 30
0.0
 10
14.28015891910844
 20
-12.79221699558017
 30
0.0
 10
14.28118134779546
 20
-12.79157860004059
 30
0.0
 10
14.28225429144201
 20
-12.7910227445561
 30
0.0
 10
14.28334682606318
 20
-12.79051191818709
 30
0.0
 10
14.28472891971134
 20
-12.7898657053657
 30
0.0
 10
14.28614236502163
 20
-12.78929155315551
 30
0.0
 10
14.28757144371401
 20
-12.78876013596027
 30
0.0
 10
14.28930275476311
 20
-12.78811633064237
 30
0.0
 10
14.29105701095967
 20
-12.78753524759541
 30
0.0
 10
14.29282351975502
 20
-12.78699538309355
 30
0.0
 10
14.29488992254149
 20
-12.78636386769209
 30
0.0
 10
14.29697309121613
 20
-12.78578875383644
 30
0.0
 10
14.29906637144616
 20
-12.78525371175571
 30
0.0
 10
14.30144531287649
 20
-12.78464565471952
 30
0.0
 10
14.30383731393229
 20
-12.78408935256682
 30
0.0
 10
14.30623774196854
 20
-12.78357285445129
 30
0.0
 10
14.30890245345598
 20
-12.78299949068415
 30
0.0
 10
14.31157754966822
 20
-12.78247517817279
 30
0.0
 10
14.31425980271382
 20
-12.7819902763148
 30
0.0
 10
14.32031082633284
 20
-12.78089636289731
 30
0.0
 10
14.32639827323631
 20
-12.78000302218715
 30
0.0
 10
14.33250390107368
 20
-12.77926750636942
 30
0.0
 10
14.33933340926397
 20
-12.77844478814364
 30
0.0
 10
14.34618566499183
 20
-12.77781953654345
 30
0.0
 10
14.35305107832149
 20
-12.77738622837351
 30
0.0
 10
14.36035615710534
 20
-12.77692517087166
 30
0.0
 10
14.36767613269527
 20
-12.77668142835877
 30
0.0
 10
14.37499429238444
 20
-12.77668299663347
 30
0.0
  0
SPLINE
  5
203
330
70
100
AcDbEntity
  8
Layer 1
 62
    18
420
        0
370
     5
100
AcDbSpline
210
0.0
220
0.0
230
1.0
 70
     8
 71
     3
 72
    20
 73
    16
 74
     0
 42
0.0000000001
 43
0.0000000001
 40
0.0
 40
0.0
 40
0.0
 40
0.0
 40
1.0
 40
1.0
 40
1.0
 40
2.0
 40
2.0
 40
2.0
 40
3.0
 40
3.0
 40
3.0
 40
4.0
 40
4.0
 40
4.0
 40
5.0
 40
5.0
 40
5.0
 40
5.0
 10
15.17669987592616
 20
-12.77668299663347
 30
0.0
 10
15.18379599345538
 20
-12.77668141757047
 30
0.0
 10
15.19089378056282
 20
-12.77691074923928
 30
0.0
 10
15.19797793730923
 20
-12.77734487321704
 30
0.0
 10
15.20465834282777
 20
-12.77775425492895
 30
0.0
 10
15.21132662739556
 20
-12.77834575048875
 30
0.0
 10
15.21797408482593
 20
-12.77912304316712
 30
0.0
 10
15.22395607592878
 20
-12.77982252231901
 30
0.0
 10
15.22992120111358
 20
-12.78067246088638
 30
0.0
 10
15.23585336158612
 20
-12.78170938321581
 30
0.0
 10
15.23850486594635
 20
-12.78217285754188
 30
0.0
 10
15.24114978451158
 20
-12.78267368807759
 30
0.0
 10
15.24378550467044
 20
-12.78321997310927
 30
0.0
 10
15.2461765836225
 20
-12.78371555327789
 30
0.0
 10
15.2485600924708
 20
-12.78424854158394
 30
0.0
 10
15.25093174840579
 20
-12.78482936114609
 30
0.0
  0
SPLINE
  5
204
330
70
100
AcDbEntity
  8
Layer 1
 62
    18
420
        0
370
     5
100
AcDbSpline
210
0.0
220
0.0
230
1.0
 70
     8
 71
     3
 72
    29
 73
    25
 74
     0
 42
0.0000000001
 43
0.0000000001
 40
0.0
 40
0.0
 40
0.0
 40
0.0
 40
1.0
 40
1.0
 40
1.0
 40
2.0
 40
2.0
 40
2.0
 40
3.0
 40
3.0
 40
3.0
 40
4.0
 40
4.0
 40
4.0
 40
5.0
 40
5.0
 40
5.0
 40
6.0
 40
6.0
 40
6.0
 40
7.0
 40
7.0
 40
7.0
 40
8.0
 40
8.0
 40
8.0
 40
8.0
 10
15.25093174840579
 20
-12.78482935896869
 30
0.0
 10
15.25351806140669
 20
-12.78482936609495
 30
0.0
 10
15.25611124597804
 20
-12.78457923315914
 30
0.0
 10
15.25865474643175
 20
-12.78408341206472
 30
0.0
 10
15.26119517215198
 20
-12.78358819034805
 30
0.0
 10
15.26368603380397
 20
-12.78284787411846
 30
0.0
 10
15.26608275690523
 20
-12.78187426399611
 30
0.0
 10
15.2684725740342
 20
-12.78090345925607
 30
0.0
 10
15.27076879433667
 20
-12.779700703123
 30
0.0
 10
15.27292676967454
 20
-12.77828684563567
 30
0.0
 10
15.27507734653343
 20
-12.77687783546753
 30
0.0
 10
15.27709062473064
 20
-12.77525916895853
 30
0.0
 10
15.27892634022924
 20
-12.77345916376526
 30
0.0
 10
15.28075503101642
 20
-12.77166604663122
 30
0.0
 10
15.28240751545915
 20
-12.76969297601067
 30
0.0
 10
15.28384984687985
 20
-12.76757635373726
 30
0.0
 10
15.28528692873952
 20
-12.76546743519788
 30
0.0
 10
15.28651538455425
 20
-12.76321600805545
 30
0.0
 10
15.28750848249835
 20
-12.76086552935622
 30
0.0
 10
15.28849906265319
 20
-12.75852100979738
 30
0.0
 10
15.28925547682456
 20
-12.75607794029363
 30
0.0
 10
15.28976150003271
 20
-12.75358206593225
 30
0.0
 10
15.29026665141489
 20
-12.75109049170545
 30
0.0
 10
15.29052227388638
 20
-12.74854629441898
 30
0.0
 10
15.29052227358953
 20
-12.7460093493592
 30
0.0
  0
LINE
  5
205
330
70
100
AcDbEntity
  8
Layer 1
 62
    18
420
        0
370
     5
100
AcDbLine
 10
12.9398423218468
 20
-12.59193901902583
 30
0.0
 11
12.9398423218468
 21
-12.35502628594205
 31
0.0
  0
LINE
  5
206
330
70
100
AcDbEntity
  8
Layer 1
 62
    18
420
        0
370
     5
100
AcDbLine
 10
13.65246950721727
 20
-12.59193901902583
 30
0.0
 11
13.65246950721727
 21
-12.21469912409338
 31
0.0
  0
ENDSEC
  0
SECTION
  2
OBJECTS
  0
DICTIONARY
  5
C
330
0
100
AcDbDictionary
281
     1
  3
ACAD_COLOR
350
63
  3
ACAD_DETAILVIEWSTYLE
350
6A
  3
ACAD_GROUP
350
D
  3
ACAD_LAYOUT
350
62
  3
ACAD_MATERIAL
350
10
  3
ACAD_MLEADERSTYLE
350
66
  3
ACAD_MLINESTYLE
350
5F
  3
ACAD_PLOTSETTINGS
350
61
  3
ACAD_PLOTSTYLENAME
350
E
  3
ACAD_SCALELIST
350
42
  3
ACAD_SECTIONVIEWSTYLE
350
68
  3
ACAD_TABLESTYLE
350
64
  3
ACAD_VISUALSTYLE
350
29
  3
ACDB_RECOMPOSE_DATA
350
20F
  3
AcDbVariableDictionary
350
207
  0
DICTIONARY
  5
63
102
{ACAD_REACTORS
330
C
102
}
330
C
100
AcDbDictionary
281
     1
  0
DICTIONARY
  5
6A
102
{ACAD_REACTORS
330
C
102
}
330
C
100
AcDbDictionary
281
     1
  3
Imperial24
350
6B
  0
DICTIONARY
  5
D
102
{ACAD_REACTORS
330
C
102
}
330
C
100
AcDbDictionary
281
     1
  0
DICTIONARY
  5
62
102
{ACAD_REACTORS
330
C
102
}
330
C
100
AcDbDictionary
281
     1
  3
Layout1
350
6F
  3
Layout2
350
77
  3
Model
350
73
  0
DICTIONARY
  5
10
102
{ACAD_REACTORS
330
C
102
}
330
C
100
AcDbDictionary
281
     1
  3
ByBlock
350
19
  3
ByLayer
350
11
  3
Global
350
21
  0
DICTIONARY
  5
66
102
{ACAD_REACTORS
330
C
102
}
330
C
100
AcDbDictionary
281
     1
  3
Standard
350
67
  0
DICTIONARY
  5
5F
102
{ACAD_REACTORS
330
C
102
}
330
C
100
AcDbDictionary
281
     1
  3
Standard
350
60
  0
DICTIONARY
  5
61
102
{ACAD_REACTORS
330
C
102
}
330
C
100
AcDbDictionary
281
     1
  0
ACDBDICTIONARYWDFLT
  5
E
102
{ACAD_REACTORS
330
C
102
}
330
C
100
AcDbDictionary
281
     1
  3
Normal
350
F
100
AcDbDictionaryWithDefault
340
F
  0
DICTIONARY
  5
42
102
{ACAD_REACTORS
330
C
102
}
330
C
100
AcDbDictionary
281
     1
  3
A0
350
43
  3
A1
350
44
  3
A2
350
45
  3
A3
350
46
  3
A4
350
47
  3
A5
350
48
  3
A6
350
49
  3
A7
350
4A
  3
A8
350
4B
  3
A9
350
4C
  3
B0
350
4D
  3
B1
350
4E
  3
B2
350
4F
  3
B3
350
50
  3
B4
350
51
  3
B5
350
52
  3
B6
350
53
  0
DICTIONARY
  5
68
102
{ACAD_REACTORS
330
C
102
}
330
C
100
AcDbDictionary
281
     1
  3
Imperial24
350
69
  0
DICTIONARY
  5
64
102
{ACAD_REACTORS
330
C
102
}
330
C
100
AcDbDictionary
281
     1
  3
Standard
350
65
  0
DICTIONARY
  5
29
102
{ACAD_REACTORS
330
C
102
}
330
C
100
AcDbDictionary
281
     1
  3
2dWireframe
350
2F
  3
Basic
350
2E
  3
Brighten
350
35
  3
ColorChange
350
39
  3
Conceptual
350
32
  3
Dim
350
34
  3
EdgeColorOff
350
41
  3
Facepattern
350
38
  3
Flat
350
2A
  3
FlatWithEdges
350
2B
  3
Gouraud
350
2C
  3
GouraudWithEdges
350
2D
  3
Hidden
350
31
  3
JitterOff
350
3F
  3
Linepattern
350
37
  3
OverhangOff
350
40
  3
Realistic
350
33
  3
Shaded
350
3E
  3
Shaded with edges
350
3D
  3
Shades of Gray
350
3A
  3
Sketchy
350
3B
  3
Thicken
350
36
  3
Wireframe
350
30
  3
X-Ray
350
3C
  0
XRECORD
  5
20F
102
{ACAD_REACTORS
330
C
102
}
330
C
100
AcDbXrecord
280
     1
 90
        1
330
65
  0
DICTIONARY
  5
207
102
{ACAD_REACTORS
330
C
102
}
330
C
100
AcDbDictionary
281
     1
  3
CANNOSCALE
350
20C
  3
CMLEADERSTYLE
350
209
  3
CTABLESTYLE
350
208
  3
CVIEWDETAILSTYLE
350
20A
  3
CVIEWSECTIONSTYLE
350
20B
  0
ACDBDETAILVIEWSTYLE
  5
6B
102
{ACAD_REACTORS
330
6A
102
}
330
6A
100
AcDbModelDocViewStyle
 70
     0
  3
Imperial24
290
     1
300
Imperial24
 90
        0
100
AcDbDetailViewStyle
 70
     0
 71
     0
 90
        3
 71
     1
340
55
 62
   256
 40
0.24
340
0
 62
   256
 40
0.24
300

 40
0.36
280
     3
 71
     2
340
5D
 90
       25
 62
   256
 71
     3
340
55
 62
   256
 40
0.24
 90
        1
 40
0.75
 90
        1
300
%<\AcVar ViewType \f "%tc1">% %<\AcVar ViewDetailId>%\PSCALE %<\AcVar ViewScale \f "%sn">%
 71
     4
340
5D
 90
       25
 62
   256
340
5D
 90
       25
 62
   256
280
     0
  0
LAYOUT
  5
6F
102
{ACAD_REACTORS
330
62
102
}
330
62
100
AcDbPlotSettings
  1

  2

  4

  6

 40
0.0
 41
0.0
 42
0.0
 43
0.0
 44
0.0
 45
0.0
 46
0.0
 47
0.0
 48
0.0
 49
0.0
140
0.0
141
0.0
142
1.0
143
1.0
 70
   688
 72
     0
 73
     0
 74
     5
  7

 75
    16
147
1.0
 76
     0
 77
     2
 78
   300
148
0.0
149
0.0
100
AcDbLayout
  1
Layout1
 70
     1
 71
     1
 10
0.0
 20
0.0
 11
12.0
 21
9.0
 12
0.0
 22
0.0
 32
0.0
 14
0.0
 24
0.0
 34
0.0
 15
0.0
 25
0.0
 35
0.0
146
0.0
 13
0.0
 23
0.0
 33
0.0
 16
1.0
 26
0.0
 36
0.0
 17
0.0
 27
1.0
 37
0.0
 76
     0
330
6C
  0
LAYOUT
  5
77
102
{ACAD_REACTORS
330
62
102
}
330
62
100
AcDbPlotSettings
  1

  2

  4

  6

 40
0.0
 41
0.0
 42
0.0
 43
0.0
 44
0.0
 45
0.0
 46
0.0
 47
0.0
 48
0.0
 49
0.0
140
0.0
141
0.0
142
1.0
143
1.0
 70
   688
 72
     0
 73
     0
 74
     5
  7

 75
    16
147
1.0
 76
     0
 77
     2
 78
   300
148
0.0
149
0.0
100
AcDbLayout
  1
Layout2
 70
     1
 71
     2
 10
0.0
 20
0.0
 11
12.0
 21
9.0
 12
0.0
 22
0.0
 32
0.0
 14
0.0
 24
0.0
 34
0.0
 15
0.0
 25
0.0
 35
0.0
146
0.0
 13
0.0
 23
0.0
 33
0.0
 16
1.0
 26
0.0
 36
0.0
 17
0.0
 27
1.0
 37
0.0
 76
     0
330
74
  0
LAYOUT
  5
73
102
{ACAD_REACTORS
330
62
102
}
330
62
100
AcDbPlotSettings
  1

  2

  4

  6

 40
0.0
 41
0.0
 42
0.0
 43
0.0
 44
0.0
 45
0.0
 46
0.0
 47
0.0
 48
0.0
 49
0.0
140
0.0
141
0.0
142
1.0
143
1.0
 70
  1712
 72
     0
 73
     0
 74
     0
  7

 75
     0
147
1.0
 76
     0
 77
     2
 78
   300
148
0.0
149
0.0
100
AcDbLayout
  1
Model
 70
     1
 71
     0
 10
0.0
 20
0.0
 11
12.0
 21
9.0
 12
0.0
 22
0.0
 32
0.0
 14
0.0
 24
0.0
 34
0.0
 15
0.0
 25
0.0
 35
0.0
146
0.0
 13
0.0
 23
0.0
 33
0.0
 16
1.0
 26
0.0
 36
0.0
 17
0.0
 27
1.0
 37
0.0
 76
     0
330
70
  0
MATERIAL
  5
19
102
{ACAD_XDICTIONARY
360
1A
102
}
102
{ACAD_REACTORS
330
10
102
}
330
10
100
AcDbMaterial
  1
ByBlock
 72
     0
 43
0.0208333333333333
 43
0.0
 43
0.0
 43
0.0
 43
0.0
 43
0.0208333333333333
 43
0.0
 43
0.0
 43
0.0
 43
0.0
 43
1.0
 43
0.0
 43
0.0
 43
0.0
 43
0.0
 43
1.0
 77
     0
 47
0.0208333333333333
 47
0.0
 47
0.0
 47
0.0
 47
0.0
 47
0.0208333333333333
 47
0.0
 47
0.0
 47
0.0
 47
0.0
 47
1.0
 47
0.0
 47
0.0
 47
0.0
 47
0.0
 47
1.0
171
     0
 49
0.0208333333333333
 49
0.0
 49
0.0
 49
0.0
 49
0.0
 49
0.0208333333333333
 49
0.0
 49
0.0
 49
0.0
 49
0.0
 49
1.0
 49
0.0
 49
0.0
 49
0.0
 49
0.0
 49
1.0
175
     0
142
0.0208333333333333
142
0.0
142
0.0
142
0.0
142
0.0
142
0.0208333333333333
142
0.0
142
0.0
142
0.0
142
0.0
142
1.0
142
0.0
142
0.0
142
0.0
142
0.0
142
1.0
179
     0
144
0.0208333333333333
144
0.0
144
0.0
144
0.0
144
0.0
144
0.0208333333333333
144
0.0
144
0.0
144
0.0
144
0.0
144
1.0
144
0.0
144
0.0
144
0.0
144
0.0
144
1.0
147
0.0208333333333333
147
0.0
147
0.0
147
0.0
147
0.0
147
0.0208333333333333
147
0.0
147
0.0
147
0.0
147
0.0
147
1.0
147
0.0
147
0.0
147
0.0
147
0.0
147
1.0
  0
MATERIAL
  5
11
102
{ACAD_XDICTIONARY
360
12
102
}
102
{ACAD_REACTORS
330
10
102
}
330
10
100
AcDbMaterial
  1
ByLayer
 72
     0
 43
0.0208333333333333
 43
0.0
 43
0.0
 43
0.0
 43
0.0
 43
0.0208333333333333
 43
0.0
 43
0.0
 43
0.0
 43
0.0
 43
1.0
 43
0.0
 43
0.0
 43
0.0
 43
0.0
 43
1.0
 77
     0
 47
0.0208333333333333
 47
0.0
 47
0.0
 47
0.0
 47
0.0
 47
0.0208333333333333
 47
0.0
 47
0.0
 47
0.0
 47
0.0
 47
1.0
 47
0.0
 47
0.0
 47
0.0
 47
0.0
 47
1.0
171
     0
 49
0.0208333333333333
 49
0.0
 49
0.0
 49
0.0
 49
0.0
 49
0.0208333333333333
 49
0.0
 49
0.0
 49
0.0
 49
0.0
 49
1.0
 49
0.0
 49
0.0
 49
0.0
 49
0.0
 49
1.0
175
     0
142
0.0208333333333333
142
0.0
142
0.0
142
0.0
142
0.0
142
0.0208333333333333
142
0.0
142
0.0
142
0.0
142
0.0
142
1.0
142
0.0
142
0.0
142
0.0
142
0.0
142
1.0
179
     0
144
0.0208333333333333
144
0.0
144
0.0
144
0.0
144
0.0
144
0.0208333333333333
144
0.0
144
0.0
144
0.0
144
0.0
144
1.0
144
0.0
144
0.0
144
0.0
144
0.0
144
1.0
147
0.0208333333333333
147
0.0
147
0.0
147
0.0
147
0.0
147
0.0208333333333333
147
0.0
147
0.0
147
0.0
147
0.0
147
1.0
147
0.0
147
0.0
147
0.0
147
0.0
147
1.0
  0
MATERIAL
  5
21
102
{ACAD_XDICTIONARY
360
22
102
}
102
{ACAD_REACTORS
330
10
102
}
330
10
100
AcDbMaterial
  1
Global
 72
     0
 43
0.0208333333333333
 43
0.0
 43
0.0
 43
0.0
 43
0.0
 43
0.0208333333333333
 43
0.0
 43
0.0
 43
0.0
 43
0.0
 43
1.0
 43
0.0
 43
0.0
 43
0.0
 43
0.0
 43
1.0
 77
     0
 47
0.0208333333333333
 47
0.0
 47
0.0
 47
0.0
 47
0.0
 47
0.0208333333333333
 47
0.0
 47
0.0
 47
0.0
 47
0.0
 47
1.0
 47
0.0
 47
0.0
 47
0.0
 47
0.0
 47
1.0
171
     0
 49
0.0208333333333333
 49
0.0
 49
0.0
 49
0.0
 49
0.0
 49
0.0208333333333333
 49
0.0
 49
0.0
 49
0.0
 49
0.0
 49
1.0
 49
0.0
 49
0.0
 49
0.0
 49
0.0
 49
1.0
175
     0
142
0.0208333333333333
142
0.0
142
0.0
142
0.0
142
0.0
142
0.0208333333333333
142
0.0
142
0.0
142
0.0
142
0.0
142
1.0
142
0.0
142
0.0
142
0.0
142
0.0
142
1.0
179
     0
144
0.0208333333333333
144
0.0
144
0.0
144
0.0
144
0.0
144
0.0208333333333333
144
0.0
144
0.0
144
0.0
144
0.0
144
1.0
144
0.0
144
0.0
144
0.0
144
0.0
144
1.0
147
0.0208333333333333
147
0.0
147
0.0
147
0.0
147
0.0
147
0.0208333333333333
147
0.0
147
0.0
147
0.0
147
0.0
147
1.0
147
0.0
147
0.0
147
0.0
147
0.0
147
1.0
  0
MLEADERSTYLE
  5
67
102
{ACAD_REACTORS
330
66
102
}
330
66
100
AcDbMLeaderStyle
179
     2
170
     2
171
     1
172
     0
 90
        2
 40
0.0
 41
0.0
173
     1
 91
-1056964608
340
5B
 92
       -2
290
     1
 42
0.09
291
     1
 43
0.36
  3
Standard
 44
0.18
300

342
55
174
     1
178
     6
175
     1
176
     0
 93
-1056964608
 45
0.18
292
     0
297
     0
 46
0.18
 94
-1056964608
 47
1.0
 49
1.0
140
1.0
293
     1
141
0.0
294
     1
177
     0
142
1.0
295
     1
296
     0
143
0.125
271
     0
272
     9
273
     9
298
     1
  0
MLINESTYLE
  5
60
102
{ACAD_REACTORS
330
5F
102
}
330
5F
100
AcDbMlineStyle
  2
STANDARD
 70
     0
  3

 62
   256
 51
90.0
 52
90.0
 71
     2
 49
0.5
 62
   256
  6
BYLAYER
 49
-0.5
 62
   256
  6
BYLAYER
  0
ACDBPLACEHOLDER
  5
F
102
{ACAD_REACTORS
330
E
102
}
330
E
  0
SCALE
  5
43
102
{ACAD_REACTORS
330
42
102
}
330
42
100
AcDbScale
 70
     0
300
1:1
140
1.0
141
1.0
290
     1
  0
SCALE
  5
44
102
{ACAD_REACTORS
330
42
102
}
330
42
100
AcDbScale
 70
     0
300
1/128" = 1'-0"
140
0.0078125
141
12.0
290
     0
  0
SCALE
  5
45
102
{ACAD_REACTORS
330
42
102
}
330
42
100
AcDbScale
 70
     0
300
1/64" = 1'-0"
140
0.015625
141
12.0
290
     0
  0
SCALE
  5
46
102
{ACAD_REACTORS
330
42
102
}
330
42
100
AcDbScale
 70
     0
300
1/32" = 1'-0"
140
0.03125
141
12.0
290
     0
  0
SCALE
  5
47
102
{ACAD_REACTORS
330
42
102
}
330
42
100
AcDbScale
 70
     0
300
1/16" = 1'-0"
140
0.0625
141
12.0
290
     0
  0
SCALE
  5
48
102
{ACAD_REACTORS
330
42
102
}
330
42
100
AcDbScale
 70
     0
300
3/32" = 1'-0"
140
0.09375
141
12.0
290
     0
  0
SCALE
  5
49
102
{ACAD_REACTORS
330
42
102
}
330
42
100
AcDbScale
 70
     0
300
1/8" = 1'-0"
140
0.125
141
12.0
290
     0
  0
SCALE
  5
4A
102
{ACAD_REACTORS
330
42
102
}
330
42
100
AcDbScale
 70
     0
300
3/16" = 1'-0"
140
0.1875
141
12.0
290
     0
  0
SCALE
  5
4B
102
{ACAD_REACTORS
330
42
102
}
330
42
100
AcDbScale
 70
     0
300
1/4" = 1'-0"
140
0.25
141
12.0
290
     0
  0
SCALE
  5
4C
102
{ACAD_REACTORS
330
42
102
}
330
42
100
AcDbScale
 70
     0
300
3/8" = 1'-0"
140
0.375
141
12.0
290
     0
  0
SCALE
  5
4D
102
{ACAD_REACTORS
330
42
102
}
330
42
100
AcDbScale
 70
     0
300
1/2" = 1'-0"
140
0.5
141
12.0
290
     0
  0
SCALE
  5
4E
102
{ACAD_REACTORS
330
42
102
}
330
42
100
AcDbScale
 70
     0
300
3/4" = 1'-0"
140
0.75
141
12.0
290
     0
  0
SCALE
  5
4F
102
{ACAD_REACTORS
330
42
102
}
330
42
100
AcDbScale
 70
     0
300
1" = 1'-0"
140
1.0
141
12.0
290
     0
  0
SCALE
  5
50
102
{ACAD_REACTORS
330
42
102
}
330
42
100
AcDbScale
 70
     0
300
1-1/2" = 1'-0"
140
1.5
141
12.0
290
     0
  0
SCALE
  5
51
102
{ACAD_REACTORS
330
42
102
}
330
42
100
AcDbScale
 70
     0
300
3" = 1'-0"
140
3.0
141
12.0
290
     0
  0
SCALE
  5
52
102
{ACAD_REACTORS
330
42
102
}
330
42
100
AcDbScale
 70
     0
300
6" = 1'-0"
140
6.0
141
12.0
290
     0
  0
SCALE
  5
53
102
{ACAD_REACTORS
330
42
102
}
330
42
100
AcDbScale
 70
     0
300
1'-0" = 1'-0"
140
12.0
141
12.0
290
     0
  0
ACDBSECTIONVIEWSTYLE
  5
69
102
{ACAD_REACTORS
330
68
102
}
330
68
100
AcDbModelDocViewStyle
 70
     0
  3
Imperial24
290
     1
300
Imperial24
 90
        0
100
AcDbSectionViewStyle
 70
     0
 71
     0
 90
       78
 71
     1
340
55
 62
   256
 40
0.24
340
0
340
0
 62
   256
 40
0.24
300
I, O, Q, S, X, Z
 40
0.48
 90
        3
 40
0.18
 90
        1
 71
     2
340
5D
 90
       25
 62
   256
340
5D
 90
       50
 62
   256
 40
0.24
 40
0.0
 40
0.24
 71
     3
340
55
 62
   256
 40
0.24
 90
        1
 40
0.75
 90
        1
300
%<\AcVar ViewType \f "%tc1">% %<\AcVar ViewSectionStartId>%-%<\AcVar ViewSectionEndId>%\PSCALE %<\AcVar ViewScale \f "%sn">%
 71
     4
 62
   256
 62
   257
300
ANSI31
 40
1.0
 90
        0
290
     0
290
     0
 90
        6
 40
0.0
 40
1.570796326794896
 40
0.2617993877991494
 40
1.308996938995747
 40
-0.2617993877991494
 40
1.832595714594046
  0
TABLESTYLE
  5
65
102
{ACAD_XDICTIONARY
360
20D
102
}
102
{ACAD_REACTORS
330
64
102
}
330
64
100
AcDbTableStyle
280
     0
  3
Standard
 70
     0
 71
     0
 40
0.06
 41
0.06
280
     0
281
     0
  7
Standard
140
0.18
170
     2
 62
     0
 63
     7
283
     0
 90
      512
 91
        0
  1

274
    -2
284
     1
 64
     0
275
    -2
285
     1
 65
     0
276
    -2
286
     1
 66
     0
277
    -2
287
     1
 67
     0
278
    -2
288
     1
 68
     0
279
    -2
289
     1
 69
     0
  7
Standard
140
0.25
170
     5
 62
     0
 63
     7
283
     0
 90
      512
 91
        0
  1

274
    -2
284
     1
 64
     0
275
    -2
285
     1
 65
     0
276
    -2
286
     1
 66
     0
277
    -2
287
     1
 67
     0
278
    -2
288
     1
 68
     0
279
    -2
289
     1
 69
     0
  7
Standard
140
0.18
170
     5
 62
     0
 63
     7
283
     0
 90
      512
 91
        0
  1

274
    -2
284
     1
 64
     0
275
    -2
285
     1
 65
     0
276
    -2
286
     1
 66
     0
277
    -2
287
     1
 67
     0
278
    -2
288
     1
 68
     0
279
    -2
289
     1
 69
     0
  0
VISUALSTYLE
  5
2F
102
{ACAD_REACTORS
330
29
102
}
330
29
100
AcDbVisualStyle
  2
2dWireframe
 70
     4
177
     3
291
     0
 70
    58
 90
        0
176
     1
 90
        2
176
     1
 90
        0
176
     1
 90
        0
176
     1
 40
0.6
176
     1
 40
30.0
176
     1
 62
     7
420
 16777215
176
     1
 90
        1
176
     1
 90
        4
176
     1
 62
     7
176
     1
 62
   257
176
     1
 90
        1
176
     1
 90
        1
176
     1
 40
1.0
176
     1
 90
        0
176
     1
 62
   257
176
     1
 40
1.0
176
     1
 90
        1
176
     1
 90
        6
176
     1
 90
        2
176
     1
 62
     7
176
     1
 90
        5
176
     1
 90
        0
176
     1
 90
        0
176
     1
290
     0
176
     1
 90
        1
176
     1
 40
0.0
176
     1
 90
        0
176
     1
290
     1
176
     1
290
     1
176
     1
290
     0
176
     1
290
     0
176
     1
290
     0
176
     1
290
     0
176
     1
290
     0
176
     1
290
     0
176
     1
290
     0
176
     1
 90
       50
176
     1
 40
0.0
176
     1
 40
1.0
176
     1
 90
        0
176
     1
 62
    18
420
        0
176
     1
 90
       50
176
     1
 90
        3
176
     1
 62
     5
420
      255
176
     1
290
     0
176
     1
 90
       50
176
     1
 90
       50
176
     1
 90
       50
176
     1
290
     0
176
     1
 90
       50
176
     1
 62
   256
176
     0
 40
1.0
176
     0
 90
        2
176
     1
  1
strokes_ogs.tif
176
     1
290
     0
176
     1
 40
1.0
176
     1
 40
1.0
176
     1
  0
VISUALSTYLE
  5
2E
102
{ACAD_REACTORS
330
29
102
}
330
29
100
AcDbVisualStyle
  2
Basic
 70
     7
177
     3
291
     1
 70
    58
 90
        1
176
     1
 90
        0
176
     1
 90
        1
176
     1
 90
        0
176
     1
 40
0.6
176
     1
 40
30.0
176
     1
 62
     7
420
 16777215
176
     1
 90
        0
176
     1
 90
        4
176
     1
 62
     7
176
     1
 62
   257
176
     1
 90
        1
176
     1
 90
        1
176
     1
 40
1.0
176
     1
 90
        8
176
     1
 62
     7
176
     1
 40
1.0
176
     1
 90
        1
176
     1
 90
        6
176
     1
 90
        2
176
     1
 62
     7
176
     1
 90
        5
176
     1
 90
        0
176
     1
 90
        0
176
     1
290
     0
176
     1
 90
        1
176
     1
 40
0.0
176
     1
 90
        0
176
     1
290
     0
176
     1
290
     1
176
     1
290
     1
176
     1
290
     0
176
     1
290
     0
176
     1
290
     0
176
     1
290
     0
176
     1
290
     0
176
     1
290
     0
176
     1
 90
       50
176
     1
 40
0.0
176
     1
 40
1.0
176
     1
 90
        0
176
     1
 62
    18
420
        0
176
     1
 90
       50
176
     1
 90
        3
176
     1
 62
     5
420
      255
176
     1
290
     0
176
     1
 90
       50
176
     1
 90
       50
176
     1
 90
       50
176
     1
290
     0
176
     1
 90
       50
176
     1
 62
   256
176
     0
 40
1.0
176
     0
 90
        2
176
     1
  1
strokes_ogs.tif
176
     1
290
     0
176
     1
 40
1.0
176
     1
 40
1.0
176
     1
  0
VISUALSTYLE
  5
35
102
{ACAD_REACTORS
330
29
102
}
330
29
100
AcDbVisualStyle
  2
Brighten
 70
    12
177
     3
291
     1
 70
    58
 90
        2
176
     1
 90
        2
176
     1
 90
        0
176
     1
 90
        0
176
     1
 40
0.6
176
     1
 40
30.0
176
     1
 62
     7
420
 16777215
176
     1
 90
        1
176
     1
 90
        4
176
     1
 62
     7
176
     1
 62
   257
176
     1
 90
        1
176
     1
 90
        1
176
     1
 40
1.0
176
     1
 90
        8
176
     1
 62
     7
176
     1
 40
1.0
176
     1
 90
        1
176
     1
 90
        6
176
     1
 90
        2
176
     1
 62
     7
176
     1
 90
        5
176
     1
 90
        0
176
     1
 90
        0
176
     1
290
     0
176
     1
 90
        1
176
     1
 40
50.0
176
     1
 90
        0
176
     1
290
     0
176
     1
290
     1
176
     1
290
     1
176
     1
290
     0
176
     1
290
     0
176
     1
290
     0
176
     1
290
     0
176
     1
290
     0
176
     1
290
     0
176
     1
 90
       50
176
     1
 40
0.0
176
     1
 40
1.0
176
     1
 90
        0
176
     1
 62
    18
420
        0
176
     1
 90
       50
176
     1
 90
        3
176
     1
 62
     5
420
      255
176
     1
290
     0
176
     1
 90
       50
176
     1
 90
       50
176
     1
 90
       50
176
     1
290
     0
176
     1
 90
       50
176
     1
 62
   256
176
     0
 40
1.0
176
     0
 90
        2
176
     1
  1
strokes_ogs.tif
176
     1
290
     0
176
     1
 40
1.0
176
     1
 40
1.0
176
     1
  0
VISUALSTYLE
  5
39
102
{ACAD_REACTORS
330
29
102
}
330
29
100
AcDbVisualStyle
  2
ColorChange
 70
    16
177
     3
291
     1
 70
    58
 90
        2
176
     1
 90
        2
176
     1
 90
        3
176
     1
 90
        0
176
     1
 40
0.6
176
     1
 40
30.0
176
     1
 62
     8
420
  8421504
176
     1
 90
        1
176
     1
 90
        4
176
     1
 62
     7
176
     1
 62
   257
176
     1
 90
        1
176
     1
 90
        1
176
     1
 40
1.0
176
     1
 90
        8
176
     1
 62
     8
420
  8421504
176
     1
 40
1.0
176
     1
 90
        1
176
     1
 90
        6
176
     1
 90
        2
176
     1
 62
     7
176
     1
 90
        5
176
     1
 90
        0
176
     1
 90
        0
176
     1
290
     0
176
     1
 90
        1
176
     1
 40
0.0
176
     1
 90
        0
176
     1
290
     0
176
     1
290
     1
176
     1
290
     1
176
     1
290
     0
176
     1
290
     0
176
     1
290
     0
176
     1
290
     0
176
     1
290
     0
176
     1
290
     0
176
     1
 90
       50
176
     1
 40
0.0
176
     1
 40
1.0
176
     1
 90
        0
176
     1
 62
    18
420
        0
176
     1
 90
       50
176
     1
 90
        3
176
     1
 62
     5
420
      255
176
     1
290
     0
176
     1
 90
       50
176
     1
 90
       50
176
     1
 90
       50
176
     1
290
     0
176
     1
 90
       50
176
     1
 62
   256
176
     0
 40
1.0
176
     0
 90
        2
176
     1
  1
strokes_ogs.tif
176
     1
290
     0
176
     1
 40
1.0
176
     1
 40
1.0
176
     1
  0
VISUALSTYLE
  5
32
102
{ACAD_REACTORS
330
29
102
}
330
29
100
AcDbVisualStyle
  2
Conceptual
 70
     9
177
     3
291
     0
 70
    58
 90
        3
176
     1
 90
        2
176
     1
 90
        0
176
     1
 90
        0
176
     1
 40
0.6
176
     1
 40
30.0
176
     1
 62
     7
420
 16777215
176
     1
 90
        2
176
     1
 90
        2
176
     1
 62
     7
176
     1
 62
   257
176
     1
 90
        1
176
     1
 90
        1
176
     1
 40
179.0
176
     1
 90
        8
176
     1
 62
     7
176
     1
 40
1.0
176
     1
 90
        1
176
     1
 90
        6
176
     1
 90
        2
176
     1
 62
     7
176
     1
 90
        3
176
     1
 90
        0
176
     1
 90
        0
176
     1
290
     0
176
     1
 90
        1
176
     1
 40
0.0
176
     1
 90
        0
176
     1
290
     0
176
     1
290
     1
176
     1
290
     1
176
     1
290
     0
176
     1
290
     0
176
     1
290
     0
176
     1
290
     0
176
     1
290
     0
176
     1
290
     0
176
     1
 90
       50
176
     1
 40
0.0
176
     1
 40
1.0
176
     1
 90
        0
176
     1
 62
    18
420
        0
176
     1
 90
       50
176
     1
 90
        3
176
     1
 62
     5
420
      255
176
     1
290
     0
176
     1
 90
       50
176
     1
 90
       50
176
     1
 90
       50
176
     1
290
     0
176
     1
 90
       50
176
     1
 62
   256
176
     0
 40
1.0
176
     0
 90
        2
176
     1
  1
strokes_ogs.tif
176
     1
290
     0
176
     1
 40
1.0
176
     1
 40
1.0
176
     1
  0
VISUALSTYLE
  5
34
102
{ACAD_REACTORS
330
29
102
}
330
29
100
AcDbVisualStyle
  2
Dim
 70
    11
177
     3
291
     1
 70
    58
 90
        2
176
     1
 90
        2
176
     1
 90
        0
176
     1
 90
        0
176
     1
 40
0.6
176
     1
 40
30.0
176
     1
 62
     7
420
 16777215
176
     1
 90
        1
176
     1
 90
        4
176
     1
 62
     7
176
     1
 62
   257
176
     1
 90
        1
176
     1
 90
        1
176
     1
 40
1.0
176
     1
 90
        8
176
     1
 62
     7
176
     1
 40
1.0
176
     1
 90
        1
176
     1
 90
        6
176
     1
 90
        2
176
     1
 62
     7
176
     1
 90
        5
176
     1
 90
        0
176
     1
 90
        0
176
     1
290
     0
176
     1
 90
        1
176
     1
 40
-50.0
176
     1
 90
        0
176
     1
290
     0
176
     1
290
     1
176
     1
290
     1
176
     1
290
     0
176
     1
290
     0
176
     1
290
     0
176
     1
290
     0
176
     1
290
     0
176
     1
290
     0
176
     1
 90
       50
176
     1
 40
0.0
176
     1
 40
1.0
176
     1
 90
        0
176
     1
 62
    18
420
        0
176
     1
 90
       50
176
     1
 90
        3
176
     1
 62
     5
420
      255
176
     1
290
     0
176
     1
 90
       50
176
     1
 90
       50
176
     1
 90
       50
176
     1
290
     0
176
     1
 90
       50
176
     1
 62
   256
176
     0
 40
1.0
176
     0
 90
        2
176
     1
  1
strokes_ogs.tif
176
     1
290
     0
176
     1
 40
1.0
176
     1
 40
1.0
176
     1
  0
VISUALSTYLE
  5
41
102
{ACAD_REACTORS
330
29
102
}
330
29
100
AcDbVisualStyle
  2
EdgeColorOff
 70
    22
177
     3
291
     1
 70
    58
 90
        2
176
     0
 90
        2
176
     0
 90
        0
176
     0
 90
        0
176
     0
 40
0.6
176
     0
 40
30.0
176
     0
 62
     7
420
 16777215
176
     0
 90
        1
176
     0
 90
        4
176
     0
 62
     7
176
     0
 62
   257
176
     0
 90
        1
176
     0
 90
        1
176
     0
 40
1.0
176
     0
 90
        8
176
     2
 62
     7
176
     0
 40
1.0
176
     0
 90
        1
176
     0
 90
        6
176
     0
 90
        2
176
     0
 62
     7
176
     0
 90
        5
176
     0
 90
        0
176
     0
 90
        0
176
     0
290
     0
176
     0
 90
        1
176
     0
 40
0.0
176
     0
 90
        0
176
     0
290
     0
176
     0
290
     1
176
     0
290
     1
176
     0
290
     0
176
     0
290
     0
176
     0
290
     0
176
     0
290
     0
176
     0
290
     0
176
     0
290
     0
176
     0
 90
       50
176
     0
 40
0.0
176
     0
 40
1.0
176
     0
 90
        0
176
     0
 62
    18
420
        0
176
     0
 90
       50
176
     0
 90
        3
176
     0
 62
     5
420
      255
176
     0
290
     0
176
     0
 90
       50
176
     0
 90
       50
176
     0
 90
       50
176
     0
290
     0
176
     0
 90
       50
176
     0
 62
   256
176
     0
 40
1.0
176
     0
 90
        2
176
     0
  1
strokes_ogs.tif
176
     0
290
     0
176
     0
 40
1.0
176
     0
 40
1.0
176
     0
  0
VISUALSTYLE
  5
38
102
{ACAD_REACTORS
330
29
102
}
330
29
100
AcDbVisualStyle
  2
Facepattern
 70
    15
177
     3
291
     1
 70
    58
 90
        2
176
     1
 90
        2
176
     1
 90
        0
176
     1
 90
        0
176
     1
 40
0.6
176
     1
 40
30.0
176
     1
 62
     7
420
 16777215
176
     1
 90
        1
176
     1
 90
        4
176
     1
 62
     7
176
     1
 62
   257
176
     1
 90
        1
176
     1
 90
        1
176
     1
 40
1.0
176
     1
 90
        8
176
     1
 62
     7
176
     1
 40
1.0
176
     1
 90
        1
176
     1
 90
        6
176
     1
 90
        2
176
     1
 62
     7
176
     1
 90
        5
176
     1
 90
        0
176
     1
 90
        0
176
     1
290
     0
176
     1
 90
        1
176
     1
 40
0.0
176
     1
 90
        0
176
     1
290
     0
176
     1
290
     1
176
     1
290
     1
176
     1
290
     0
176
     1
290
     0
176
     1
290
     0
176
     1
290
     0
176
     1
290
     0
176
     1
290
     0
176
     1
 90
       50
176
     1
 40
0.0
176
     1
 40
1.0
176
     1
 90
        0
176
     1
 62
    18
420
        0
176
     1
 90
       50
176
     1
 90
        3
176
     1
 62
     5
420
      255
176
     1
290
     0
176
     1
 90
       50
176
     1
 90
       50
176
     1
 90
       50
176
     1
290
     0
176
     1
 90
       50
176
     1
 62
   256
176
     0
 40
1.0
176
     0
 90
        2
176
     1
  1
strokes_ogs.tif
176
     1
290
     0
176
     1
 40
1.0
176
     1
 40
1.0
176
     1
  0
VISUALSTYLE
  5
2A
102
{ACAD_REACTORS
330
29
102
}
330
29
100
AcDbVisualStyle
  2
Flat
 70
     0
177
     3
291
     1
 70
    58
 90
        2
176
     1
 90
        1
176
     1
 90
        1
176
     1
 90
        2
176
     1
 40
0.6
176
     1
 40
30.0
176
     1
 62
     7
420
 16777215
176
     1
 90
        0
176
     1
 90
        0
176
     1
 62
     7
176
     1
 62
   257
176
     1
 90
        1
176
     1
 90
        1
176
     1
 40
1.0
176
     1
 90
        8
176
     1
 62
     7
176
     1
 40
1.0
176
     1
 90
        1
176
     1
 90
        6
176
     1
 90
        2
176
     1
 62
     7
176
     1
 90
        5
176
     1
 90
        0
176
     1
 90
        0
176
     1
290
     0
176
     1
 90
       13
176
     1
 40
0.0
176
     1
 90
        0
176
     1
290
     0
176
     1
290
     1
176
     1
290
     1
176
     1
290
     0
176
     1
290
     0
176
     1
290
     0
176
     1
290
     0
176
     1
290
     0
176
     1
290
     0
176
     1
 90
       50
176
     1
 40
0.0
176
     1
 40
1.0
176
     1
 90
        0
176
     1
 62
    18
420
        0
176
     1
 90
       50
176
     1
 90
        3
176
     1
 62
     5
420
      255
176
     1
290
     0
176
     1
 90
       50
176
     1
 90
       50
176
     1
 90
       50
176
     1
290
     0
176
     1
 90
       50
176
     1
 62
   256
176
     0
 40
1.0
176
     0
 90
        2
176
     1
  1
strokes_ogs.tif
176
     1
290
     0
176
     1
 40
1.0
176
     1
 40
1.0
176
     1
  0
VISUALSTYLE
  5
2B
102
{ACAD_REACTORS
330
29
102
}
330
29
100
AcDbVisualStyle
  2
FlatWithEdges
 70
     1
177
     3
291
     1
 70
    58
 90
        2
176
     1
 90
        1
176
     1
 90
        1
176
     1
 90
        2
176
     1
 40
0.6
176
     1
 40
30.0
176
     1
 62
     7
420
 16777215
176
     1
 90
        1
176
     1
 90
        0
176
     1
 62
     7
176
     1
 62
   257
176
     1
 90
        1
176
     1
 90
        1
176
     1
 40
1.0
176
     1
 90
        0
176
     1
 62
   257
176
     1
 40
1.0
176
     1
 90
        1
176
     1
 90
        6
176
     1
 90
        2
176
     1
 62
     7
176
     1
 90
        5
176
     1
 90
        0
176
     1
 90
        0
176
     1
290
     0
176
     1
 90
       13
176
     1
 40
0.0
176
     1
 90
        0
176
     1
290
     0
176
     1
290
     1
176
     1
290
     1
176
     1
290
     0
176
     1
290
     0
176
     1
290
     0
176
     1
290
     0
176
     1
290
     0
176
     1
290
     0
176
     1
 90
       50
176
     1
 40
0.0
176
     1
 40
1.0
176
     1
 90
        0
176
     1
 62
    18
420
        0
176
     1
 90
       50
176
     1
 90
        3
176
     1
 62
     5
420
      255
176
     1
290
     0
176
     1
 90
       50
176
     1
 90
       50
176
     1
 90
       50
176
     1
290
     0
176
     1
 90
       50
176
     1
 62
   256
176
     0
 40
1.0
176
     0
 90
        2
176
     1
  1
strokes_ogs.tif
176
     1
290
     0
176
     1
 40
1.0
176
     1
 40
1.0
176
     1
  0
VISUALSTYLE
  5
2C
102
{ACAD_REACTORS
330
29
102
}
330
29
100
AcDbVisualStyle
  2
Gouraud
 70
     2
177
     3
291
     1
 70
    58
 90
        2
176
     1
 90
        2
176
     1
 90
        1
176
     1
 90
        2
176
     1
 40
0.6
176
     1
 40
30.0
176
     1
 62
     7
420
 16777215
176
     1
 90
        0
176
     1
 90
        0
176
     1
 62
     7
176
     1
 62
   257
176
     1
 90
        1
176
     1
 90
        1
176
     1
 40
1.0
176
     1
 90
        0
176
     1
 62
     7
176
     1
 40
1.0
176
     1
 90
        1
176
     1
 90
        6
176
     1
 90
        2
176
     1
 62
     7
176
     1
 90
        5
176
     1
 90
        0
176
     1
 90
        0
176
     1
290
     0
176
     1
 90
       13
176
     1
 40
0.0
176
     1
 90
        0
176
     1
290
     0
176
     1
290
     1
176
     1
290
     1
176
     1
290
     0
176
     1
290
     0
176
     1
290
     0
176
     1
290
     0
176
     1
290
     0
176
     1
290
     0
176
     1
 90
       50
176
     1
 40
0.0
176
     1
 40
1.0
176
     1
 90
        0
176
     1
 62
    18
420
        0
176
     1
 90
       50
176
     1
 90
        3
176
     1
 62
     5
420
      255
176
     1
290
     0
176
     1
 90
       50
176
     1
 90
       50
176
     1
 90
       50
176
     1
290
     0
176
     1
 90
       50
176
     1
 62
   256
176
     0
 40
1.0
176
     0
 90
        2
176
     1
  1
strokes_ogs.tif
176
     1
290
     0
176
     1
 40
1.0
176
     1
 40
1.0
176
     1
  0
VISUALSTYLE
  5
2D
102
{ACAD_REACTORS
330
29
102
}
330
29
100
AcDbVisualStyle
  2
GouraudWithEdges
 70
     3
177
     3
291
     1
 70
    58
 90
        2
176
     1
 90
        2
176
     1
 90
        1
176
     1
 90
        2
176
     1
 40
0.6
176
     1
 40
30.0
176
     1
 62
     7
420
 16777215
176
     1
 90
        1
176
     1
 90
        0
176
     1
 62
     7
176
     1
 62
   257
176
     1
 90
        1
176
     1
 90
        1
176
     1
 40
1.0
176
     1
 90
        0
176
     1
 62
   257
176
     1
 40
1.0
176
     1
 90
        1
176
     1
 90
        6
176
     1
 90
        2
176
     1
 62
     7
176
     1
 90
        5
176
     1
 90
        0
176
     1
 90
        0
176
     1
290
     0
176
     1
 90
       13
176
     1
 40
0.0
176
     1
 90
        0
176
     1
290
     0
176
     1
290
     1
176
     1
290
     1
176
     1
290
     0
176
     1
290
     0
176
     1
290
     0
176
     1
290
     0
176
     1
290
     0
176
     1
290
     0
176
     1
 90
       50
176
     1
 40
0.0
176
     1
 40
1.0
176
     1
 90
        0
176
     1
 62
    18
420
        0
176
     1
 90
       50
176
     1
 90
        3
176
     1
 62
     5
420
      255
176
     1
290
     0
176
     1
 90
       50
176
     1
 90
       50
176
     1
 90
       50
176
     1
290
     0
176
     1
 90
       50
176
     1
 62
   256
176
     0
 40
1.0
176
     0
 90
        2
176
     1
  1
strokes_ogs.tif
176
     1
290
     0
176
     1
 40
1.0
176
     1
 40
1.0
176
     1
  0
VISUALSTYLE
  5
31
102
{ACAD_REACTORS
330
29
102
}
330
29
100
AcDbVisualStyle
  2
Hidden
 70
     6
177
     3
291
     0
 70
    58
 90
        1
176
     1
 90
        2
176
     1
 90
        2
176
     1
 90
        0
176
     1
 40
0.6
176
     1
 40
30.0
176
     1
 62
     7
420
 16777215
176
     1
 90
        2
176
     1
 90
        2
176
     1
 62
     7
176
     1
 62
   257
176
     1
 90
        2
176
     1
 90
        1
176
     1
 40
40.0
176
     1
 90
        0
176
     1
 62
   257
176
     1
 40
1.0
176
     1
 90
        1
176
     1
 90
        6
176
     1
 90
        2
176
     1
 62
     7
176
     1
 90
        3
176
     1
 90
        0
176
     1
 90
        0
176
     1
290
     0
176
     1
 90
        1
176
     1
 40
0.0
176
     1
 90
        0
176
     1
290
     0
176
     1
290
     1
176
     1
290
     1
176
     1
290
     0
176
     1
290
     0
176
     1
290
     0
176
     1
290
     0
176
     1
290
     0
176
     1
290
     0
176
     1
 90
       50
176
     1
 40
0.0
176
     1
 40
1.0
176
     1
 90
        0
176
     1
 62
    18
420
        0
176
     1
 90
       50
176
     1
 90
        3
176
     1
 62
     5
420
      255
176
     1
290
     0
176
     1
 90
       50
176
     1
 90
       50
176
     1
 90
       50
176
     1
290
     0
176
     1
 90
       50
176
     1
 62
   256
176
     0
 40
1.0
176
     0
 90
        2
176
     1
  1
strokes_ogs.tif
176
     1
290
     0
176
     1
 40
1.0
176
     1
 40
1.0
176
     1
  0
VISUALSTYLE
  5
3F
102
{ACAD_REACTORS
330
29
102
}
330
29
100
AcDbVisualStyle
  2
JitterOff
 70
    20
177
     3
291
     1
 70
    58
 90
        2
176
     0
 90
        2
176
     0
 90
        0
176
     0
 90
        0
176
     0
 40
0.6
176
     0
 40
30.0
176
     0
 62
     7
420
 16777215
176
     0
 90
        1
176
     0
 90
        4
176
     0
 62
     7
176
     0
 62
   257
176
     0
 90
        1
176
     0
 90
        1
176
     0
 40
1.0
176
     0
 90
       10
176
     2
 62
     7
176
     0
 40
1.0
176
     0
 90
        1
176
     0
 90
        6
176
     0
 90
        2
176
     0
 62
     7
176
     0
 90
        5
176
     0
 90
        0
176
     0
 90
        0
176
     0
290
     0
176
     0
 90
        1
176
     0
 40
0.0
176
     0
 90
        0
176
     0
290
     0
176
     0
290
     1
176
     0
290
     1
176
     0
290
     0
176
     0
290
     0
176
     0
290
     0
176
     0
290
     0
176
     0
290
     0
176
     0
290
     0
176
     0
 90
       50
176
     0
 40
0.0
176
     0
 40
1.0
176
     0
 90
        0
176
     0
 62
    18
420
        0
176
     0
 90
       50
176
     0
 90
        3
176
     0
 62
     5
420
      255
176
     0
290
     0
176
     0
 90
       50
176
     0
 90
       50
176
     0
 90
       50
176
     0
290
     0
176
     0
 90
       50
176
     0
 62
   256
176
     0
 40
1.0
176
     0
 90
        2
176
     0
  1
strokes_ogs.tif
176
     0
290
     0
176
     0
 40
1.0
176
     0
 40
1.0
176
     0
  0
VISUALSTYLE
  5
37
102
{ACAD_REACTORS
330
29
102
}
330
29
100
AcDbVisualStyle
  2
Linepattern
 70
    14
177
     3
291
     1
 70
    58
 90
        2
176
     1
 90
        2
176
     1
 90
        0
176
     1
 90
        0
176
     1
 40
0.6
176
     1
 40
30.0
176
     1
 62
     7
420
 16777215
176
     1
 90
        1
176
     1
 90
        4
176
     1
 62
     7
176
     1
 62
   257
176
     1
 90
        7
176
     1
 90
        7
176
     1
 40
1.0
176
     1
 90
        8
176
     1
 62
     7
176
     1
 40
1.0
176
     1
 90
        1
176
     1
 90
        6
176
     1
 90
        2
176
     1
 62
     7
176
     1
 90
        5
176
     1
 90
        0
176
     1
 90
        0
176
     1
290
     0
176
     1
 90
        1
176
     1
 40
0.0
176
     1
 90
        0
176
     1
290
     0
176
     1
290
     1
176
     1
290
     1
176
     1
290
     0
176
     1
290
     0
176
     1
290
     0
176
     1
290
     0
176
     1
290
     0
176
     1
290
     0
176
     1
 90
       50
176
     1
 40
0.0
176
     1
 40
1.0
176
     1
 90
        0
176
     1
 62
    18
420
        0
176
     1
 90
       50
176
     1
 90
        3
176
     1
 62
     5
420
      255
176
     1
290
     0
176
     1
 90
       50
176
     1
 90
       50
176
     1
 90
       50
176
     1
290
     0
176
     1
 90
       50
176
     1
 62
   256
176
     0
 40
1.0
176
     0
 90
        2
176
     1
  1
strokes_ogs.tif
176
     1
290
     0
176
     1
 40
1.0
176
     1
 40
1.0
176
     1
  0
VISUALSTYLE
  5
40
102
{ACAD_REACTORS
330
29
102
}
330
29
100
AcDbVisualStyle
  2
OverhangOff
 70
    21
177
     3
291
     1
 70
    58
 90
        2
176
     0
 90
        2
176
     0
 90
        0
176
     0
 90
        0
176
     0
 40
0.6
176
     0
 40
30.0
176
     0
 62
     7
420
 16777215
176
     0
 90
        1
176
     0
 90
        4
176
     0
 62
     7
176
     0
 62
   257
176
     0
 90
        1
176
     0
 90
        1
176
     0
 40
1.0
176
     0
 90
        9
176
     2
 62
     7
176
     0
 40
1.0
176
     0
 90
        1
176
     0
 90
        6
176
     0
 90
        2
176
     0
 62
     7
176
     0
 90
        5
176
     0
 90
        0
176
     0
 90
        0
176
     0
290
     0
176
     0
 90
        1
176
     0
 40
0.0
176
     0
 90
        0
176
     0
290
     0
176
     0
290
     1
176
     0
290
     1
176
     0
290
     0
176
     0
290
     0
176
     0
290
     0
176
     0
290
     0
176
     0
290
     0
176
     0
290
     0
176
     0
 90
       50
176
     0
 40
0.0
176
     0
 40
1.0
176
     0
 90
        0
176
     0
 62
    18
420
        0
176
     0
 90
       50
176
     0
 90
        3
176
     0
 62
     5
420
      255
176
     0
290
     0
176
     0
 90
       50
176
     0
 90
       50
176
     0
 90
       50
176
     0
290
     0
176
     0
 90
       50
176
     0
 62
   256
176
     0
 40
1.0
176
     0
 90
        2
176
     0
  1
strokes_ogs.tif
176
     0
290
     0
176
     0
 40
1.0
176
     0
 40
1.0
176
     0
  0
VISUALSTYLE
  5
33
102
{ACAD_REACTORS
330
29
102
}
330
29
100
AcDbVisualStyle
  2
Realistic
 70
     8
177
     3
291
     0
 70
    58
 90
        2
176
     1
 90
        3
176
     1
 90
        0
176
     1
 90
        2
176
     1
 40
0.6
176
     1
 40
30.0
176
     1
 62
     7
420
 16777215
176
     1
 90
        0
176
     1
 90
        0
176
     1
 62
     7
176
     1
 62
   257
176
     1
 90
        1
176
     1
 90
        1
176
     1
 40
1.0
176
     1
 90
        8
176
     1
 62
   257
176
     1
 40
1.0
176
     1
 90
        1
176
     1
 90
        6
176
     1
 90
        2
176
     1
 62
     7
176
     1
 90
        3
176
     1
 90
        0
176
     1
 90
        0
176
     1
290
     0
176
     1
 90
       13
176
     1
 40
0.0
176
     1
 90
        0
176
     1
290
     0
176
     1
290
     1
176
     1
290
     1
176
     1
290
     0
176
     1
290
     0
176
     1
290
     0
176
     1
290
     0
176
     1
290
     0
176
     1
290
     0
176
     1
 90
       50
176
     1
 40
0.0
176
     1
 40
1.0
176
     1
 90
        0
176
     1
 62
    18
420
        0
176
     1
 90
       50
176
     1
 90
        3
176
     1
 62
     5
420
      255
176
     1
290
     0
176
     1
 90
       50
176
     1
 90
       50
176
     1
 90
       50
176
     1
290
     0
176
     1
 90
       50
176
     1
 62
   256
176
     0
 40
1.0
176
     0
 90
        2
176
     1
  1
strokes_ogs.tif
176
     1
290
     0
176
     1
 40
1.0
176
     1
 40
1.0
176
     1
  0
VISUALSTYLE
  5
3E
102
{ACAD_REACTORS
330
29
102
}
330
29
100
AcDbVisualStyle
  2
Shaded
 70
    27
177
     3
291
     0
 70
    58
 90
        2
176
     1
 90
        2
176
     1
 90
        1
176
     1
 90
        2
176
     1
 40
0.6
176
     1
 40
30.0
176
     1
 62
     7
420
 16777215
176
     1
 90
        0
176
     1
 90
        4
176
     1
 62
     7
176
     1
 62
   257
176
     1
 90
        1
176
     1
 90
        1
176
     1
 40
1.0
176
     1
 90
        8
176
     1
 62
   257
176
     1
 40
1.0
176
     1
 90
        1
176
     1
 90
        6
176
     1
 90
        2
176
     1
 62
     8
420
  7895160
176
     1
 90
        3
176
     1
 90
        0
176
     1
 90
        0
176
     1
290
     0
176
     1
 90
        5
176
     1
 40
0.0
176
     1
 90
        0
176
     1
290
     0
176
     1
290
     1
176
     1
290
     1
176
     1
290
     0
176
     1
290
     0
176
     1
290
     0
176
     1
290
     0
176
     1
290
     0
176
     1
290
     0
176
     1
 90
       50
176
     1
 40
0.0
176
     1
 40
1.0
176
     1
 90
        0
176
     1
 62
    18
420
        0
176
     1
 90
       50
176
     1
 90
        3
176
     1
 62
     5
420
      255
176
     1
290
     0
176
     1
 90
       50
176
     1
 90
       50
176
     1
 90
       50
176
     1
290
     0
176
     1
 90
       50
176
     1
 62
   256
176
     0
 40
1.0
176
     0
 90
        2
176
     1
  1
strokes_ogs.tif
176
     1
290
     0
176
     1
 40
1.0
176
     1
 40
1.0
176
     1
  0
VISUALSTYLE
  5
3D
102
{ACAD_REACTORS
330
29
102
}
330
29
100
AcDbVisualStyle
  2
Shaded with edges
 70
    26
177
     3
291
     0
 70
    58
 90
        2
176
     1
 90
        2
176
     1
 90
        1
176
     1
 90
        2
176
     1
 40
0.6
176
     1
 40
30.0
176
     1
 62
     7
420
 16777215
176
     1
 90
        1
176
     1
 90
        2
176
     1
 62
     7
176
     1
 62
   257
176
     1
 90
        2
176
     1
 90
        1
176
     1
 40
1.0
176
     1
 90
        8
176
     1
 62
   257
176
     1
 40
1.0
176
     1
 90
        1
176
     1
 90
        6
176
     1
 90
        2
176
     1
 62
     7
176
     1
 90
        3
176
     1
 90
        0
176
     1
 90
        0
176
     1
290
     0
176
     1
 90
        5
176
     1
 40
0.0
176
     1
 90
        0
176
     1
290
     0
176
     1
290
     1
176
     1
290
     1
176
     1
290
     0
176
     1
290
     0
176
     1
290
     0
176
     1
290
     0
176
     1
290
     0
176
     1
290
     0
176
     1
 90
       50
176
     1
 40
0.0
176
     1
 40
1.0
176
     1
 90
        0
176
     1
 62
    18
420
        0
176
     1
 90
       50
176
     1
 90
        3
176
     1
 62
     5
420
      255
176
     1
290
     0
176
     1
 90
       50
176
     1
 90
       50
176
     1
 90
       50
176
     1
290
     0
176
     1
 90
       50
176
     1
 62
   256
176
     0
 40
1.0
176
     0
 90
        2
176
     1
  1
strokes_ogs.tif
176
     1
290
     0
176
     1
 40
1.0
176
     1
 40
1.0
176
     1
  0
VISUALSTYLE
  5
3A
102
{ACAD_REACTORS
330
29
102
}
330
29
100
AcDbVisualStyle
  2
Shades of Gray
 70
    23
177
     3
291
     0
 70
    58
 90
        2
176
     1
 90
        2
176
     1
 90
        3
176
     1
 90
        0
176
     1
 40
0.6
176
     1
 40
30.0
176
     1
 62
     7
420
 16777215
176
     1
 90
        2
176
     1
 90
        2
176
     1
 62
     7
176
     1
 62
     7
176
     1
 90
        1
176
     1
 90
        1
176
     1
 40
40.0
176
     1
 90
        8
176
     1
 62
     7
176
     1
 40
1.0
176
     1
 90
        1
176
     1
 90
        6
176
     1
 90
        2
176
     1
 62
     7
176
     1
 90
        3
176
     1
 90
        0
176
     1
 90
        0
176
     1
290
     0
176
     1
 90
        1
176
     1
 40
0.0
176
     1
 90
        0
176
     1
290
     0
176
     1
290
     1
176
     1
290
     1
176
     1
290
     0
176
     1
290
     0
176
     1
290
     0
176
     1
290
     0
176
     1
290
     0
176
     1
290
     0
176
     1
 90
       50
176
     1
 40
0.0
176
     1
 40
1.0
176
     1
 90
        0
176
     1
 62
    18
420
        0
176
     1
 90
       50
176
     1
 90
        3
176
     1
 62
     5
420
      255
176
     1
290
     0
176
     1
 90
       50
176
     1
 90
       50
176
     1
 90
       50
176
     1
290
     0
176
     1
 90
       50
176
     1
 62
   256
176
     0
 40
1.0
176
     0
 90
        2
176
     1
  1
strokes_ogs.tif
176
     1
290
     0
176
     1
 40
1.0
176
     1
 40
1.0
176
     1
  0
VISUALSTYLE
  5
3B
102
{ACAD_REACTORS
330
29
102
}
330
29
100
AcDbVisualStyle
  2
Sketchy
 70
    24
177
     3
291
     0
 70
    58
 90
        1
176
     1
 90
        2
176
     1
 90
        2
176
     1
 90
        0
176
     1
 40
0.6
176
     1
 40
30.0
176
     1
 62
     7
420
 16777215
176
     1
 90
        2
176
     1
 90
        2
176
     1
 62
     7
176
     1
 62
     7
176
     1
 90
        1
176
     1
 90
        1
176
     1
 40
40.0
176
     1
 90
       11
176
     1
 62
     7
176
     1
 40
1.0
176
     1
 90
        1
176
     1
 90
        6
176
     1
 90
        2
176
     1
 62
     7
176
     1
 90
        6
176
     1
 90
        0
176
     1
 90
        0
176
     1
290
     0
176
     1
 90
        1
176
     1
 40
0.0
176
     1
 90
        0
176
     1
290
     0
176
     1
290
     1
176
     1
290
     1
176
     1
290
     0
176
     1
290
     0
176
     1
290
     0
176
     1
290
     0
176
     1
290
     0
176
     1
290
     0
176
     1
 90
       50
176
     1
 40
0.0
176
     1
 40
1.0
176
     1
 90
        0
176
     1
 62
    18
420
        0
176
     1
 90
       50
176
     1
 90
        3
176
     1
 62
     5
420
      255
176
     1
290
     0
176
     1
 90
       50
176
     1
 90
       50
176
     1
 90
       50
176
     1
290
     0
176
     1
 90
       50
176
     1
 62
   256
176
     0
 40
1.0
176
     0
 90
        2
176
     1
  1
strokes_ogs.tif
176
     1
290
     0
176
     1
 40
1.0
176
     1
 40
1.0
176
     1
  0
VISUALSTYLE
  5
36
102
{ACAD_REACTORS
330
29
102
}
330
29
100
AcDbVisualStyle
  2
Thicken
 70
    13
177
     3
291
     1
 70
    58
 90
        2
176
     1
 90
        2
176
     1
 90
        0
176
     1
 90
        0
176
     1
 40
0.6
176
     1
 40
30.0
176
     1
 62
     7
420
 16777215
176
     1
 90
        1
176
     1
 90
        4
176
     1
 62
     7
176
     1
 62
   257
176
     1
 90
        1
176
     1
 90
        1
176
     1
 40
1.0
176
     1
 90
       12
176
     1
 62
     7
176
     1
 40
1.0
176
     1
 90
        1
176
     1
 90
        6
176
     1
 90
        2
176
     1
 62
     7
176
     1
 90
        5
176
     1
 90
        0
176
     1
 90
        0
176
     1
290
     0
176
     1
 90
        1
176
     1
 40
0.0
176
     1
 90
        0
176
     1
290
     0
176
     1
290
     1
176
     1
290
     1
176
     1
290
     0
176
     1
290
     0
176
     1
290
     0
176
     1
290
     0
176
     1
290
     0
176
     1
290
     0
176
     1
 90
       50
176
     1
 40
0.0
176
     1
 40
1.0
176
     1
 90
        0
176
     1
 62
    18
420
        0
176
     1
 90
       50
176
     1
 90
        3
176
     1
 62
     5
420
      255
176
     1
290
     0
176
     1
 90
       50
176
     1
 90
       50
176
     1
 90
       50
176
     1
290
     0
176
     1
 90
       50
176
     1
 62
   256
176
     0
 40
1.0
176
     0
 90
        2
176
     1
  1
strokes_ogs.tif
176
     1
290
     0
176
     1
 40
1.0
176
     1
 40
1.0
176
     1
  0
VISUALSTYLE
  5
30
102
{ACAD_REACTORS
330
29
102
}
330
29
100
AcDbVisualStyle
  2
Wireframe
 70
     5
177
     3
291
     0
 70
    58
 90
        0
176
     1
 90
        2
176
     1
 90
        0
176
     1
 90
        0
176
     1
 40
0.6
176
     1
 40
30.0
176
     1
 62
     7
420
 16777215
176
     1
 90
        1
176
     1
 90
        4
176
     1
 62
     7
176
     1
 62
   257
176
     1
 90
        1
176
     1
 90
        1
176
     1
 40
1.0
176
     1
 90
        0
176
     1
 62
   257
176
     1
 40
1.0
176
     1
 90
        1
176
     1
 90
        6
176
     1
 90
        2
176
     1
 62
     7
176
     1
 90
        3
176
     1
 90
        0
176
     1
 90
        0
176
     1
290
     0
176
     1
 90
        1
176
     1
 40
0.0
176
     1
 90
        0
176
     1
290
     0
176
     1
290
     1
176
     1
290
     1
176
     1
290
     0
176
     1
290
     0
176
     1
290
     0
176
     1
290
     0
176
     1
290
     0
176
     1
290
     0
176
     1
 90
       50
176
     1
 40
0.0
176
     1
 40
1.0
176
     1
 90
        0
176
     1
 62
    18
420
        0
176
     1
 90
       50
176
     1
 90
        3
176
     1
 62
     5
420
      255
176
     1
290
     0
176
     1
 90
       50
176
     1
 90
       50
176
     1
 90
       50
176
     1
290
     0
176
     1
 90
       50
176
     1
 62
   256
176
     0
 40
1.0
176
     0
 90
        2
176
     1
  1
strokes_ogs.tif
176
     1
290
     0
176
     1
 40
1.0
176
     1
 40
1.0
176
     1
  0
VISUALSTYLE
  5
3C
102
{ACAD_REACTORS
330
29
102
}
330
29
100
AcDbVisualStyle
  2
X-Ray
 70
    25
177
     3
291
     0
 70
    58
 90
        2
176
     1
 90
        2
176
     1
 90
        1
176
     1
 90
        1
176
     1
 40
0.5
176
     1
 40
30.0
176
     1
 62
     7
420
 16777215
176
     1
 90
        1
176
     1
 90
        0
176
     1
 62
     7
176
     1
 62
   257
176
     1
 90
        1
176
     1
 90
        1
176
     1
 40
1.0
176
     1
 90
        8
176
     1
 62
     7
176
     1
 40
1.0
176
     1
 90
        1
176
     1
 90
        6
176
     1
 90
        2
176
     1
 62
     7
176
     1
 90
        3
176
     1
 90
        0
176
     1
 90
        0
176
     1
290
     0
176
     1
 90
       13
176
     1
 40
0.0
176
     1
 90
        0
176
     1
290
     0
176
     1
290
     1
176
     1
290
     1
176
     1
290
     0
176
     1
290
     0
176
     1
290
     0
176
     1
290
     0
176
     1
290
     0
176
     1
290
     0
176
     1
 90
       50
176
     1
 40
0.0
176
     1
 40
1.0
176
     1
 90
        0
176
     1
 62
    18
420
        0
176
     1
 90
       50
176
     1
 90
        3
176
     1
 62
     5
420
      255
176
     1
290
     0
176
     1
 90
       50
176
     1
 90
       50
176
     1
 90
       50
176
     1
290
     0
176
     1
 90
       50
176
     1
 62
   256
176
     0
 40
1.0
176
     0
 90
        2
176
     1
  1
strokes_ogs.tif
176
     1
290
     0
176
     1
 40
1.0
176
     1
 40
1.0
176
     1
  0
DICTIONARYVAR
  5
20C
102
{ACAD_REACTORS
330
207
102
}
330
207
100
DictionaryVariables
280
     0
  1
1:1
  0
DICTIONARYVAR
  5
209
102
{ACAD_REACTORS
330
207
102
}
330
207
100
DictionaryVariables
280
     0
  1
STANDARD
  0
DICTIONARYVAR
  5
208
102
{ACAD_REACTORS
330
207
102
}
330
207
100
DictionaryVariables
280
     0
  1
STANDARD
  0
DICTIONARYVAR
  5
20A
102
{ACAD_REACTORS
330
207
102
}
330
207
100
DictionaryVariables
280
     0
  1
Imperial24
  0
DICTIONARYVAR
  5
20B
102
{ACAD_REACTORS
330
207
102
}
330
207
100
DictionaryVariables
280
     0
  1
Imperial24
  0
DICTIONARY
  5
1A
330
19
100
AcDbDictionary
280
     1
281
     1
  3
BUMPTILE
360
1C
  3
DIFFUSETILE
360
1B
  3
OPACITYTILE
360
1F
  3
REFLECTIONTILE
360
1E
  3
REFRACTIONTILE
360
20
  3
SPECULARTILE
360
1D
  0
DICTIONARY
  5
12
330
11
100
AcDbDictionary
280
     1
281
     1
  3
BUMPTILE
360
14
  3
DIFFUSETILE
360
13
  3
OPACITYTILE
360
17
  3
REFLECTIONTILE
360
16
  3
REFRACTIONTILE
360
18
  3
SPECULARTILE
360
15
  0
DICTIONARY
  5
22
330
21
100
AcDbDictionary
280
     1
281
     1
  3
BUMPTILE
360
24
  3
DIFFUSETILE
360
23
  3
OPACITYTILE
360
27
  3
REFLECTIONTILE
360
26
  3
REFRACTIONTILE
360
28
  3
SPECULARTILE
360
25
  0
DICTIONARY
  5
20D
330
65
100
AcDbDictionary
280
     1
281
     1
  3
ACAD_ROUNDTRIP_2008_TABLESTYLE_CELLSTYLEMAP
360
20E
  0
XRECORD
  5
1C
102
{ACAD_REACTORS
330
1A
102
}
330
1A
100
AcDbXrecord
280
     1
270
     1
271
     1
  0
XRECORD
  5
1B
102
{ACAD_REACTORS
330
1A
102
}
330
1A
100
AcDbXrecord
280
     1
270
     1
271
     1
  0
XRECORD
  5
1F
102
{ACAD_REACTORS
330
1A
102
}
330
1A
100
AcDbXrecord
280
     1
270
     1
271
     1
  0
XRECORD
  5
1E
102
{ACAD_REACTORS
330
1A
102
}
330
1A
100
AcDbXrecord
280
     1
270
     1
271
     1
  0
XRECORD
  5
20
102
{ACAD_REACTORS
330
1A
102
}
330
1A
100
AcDbXrecord
280
     1
270
     1
271
     1
  0
XRECORD
  5
1D
102
{ACAD_REACTORS
330
1A
102
}
330
1A
100
AcDbXrecord
280
     1
270
     1
271
     1
  0
XRECORD
  5
14
102
{ACAD_REACTORS
330
12
102
}
330
12
100
AcDbXrecord
280
     1
270
     1
271
     1
  0
XRECORD
  5
13
102
{ACAD_REACTORS
330
12
102
}
330
12
100
AcDbXrecord
280
     1
270
     1
271
     1
  0
XRECORD
  5
17
102
{ACAD_REACTORS
330
12
102
}
330
12
100
AcDbXrecord
280
     1
270
     1
271
     1
  0
XRECORD
  5
16
102
{ACAD_REACTORS
330
12
102
}
330
12
100
AcDbXrecord
280
     1
270
     1
271
     1
  0
XRECORD
  5
18
102
{ACAD_REACTORS
330
12
102
}
330
12
100
AcDbXrecord
280
     1
270
     1
271
     1
  0
XRECORD
  5
15
102
{ACAD_REACTORS
330
12
102
}
330
12
100
AcDbXrecord
280
     1
270
     1
271
     1
  0
XRECORD
  5
24
102
{ACAD_REACTORS
330
22
102
}
330
22
100
AcDbXrecord
280
     1
270
     1
271
     1
  0
XRECORD
  5
23
102
{ACAD_REACTORS
330
22
102
}
330
22
100
AcDbXrecord
280
     1
270
     1
271
     1
  0
XRECORD
  5
27
102
{ACAD_REACTORS
330
22
102
}
330
22
100
AcDbXrecord
280
     1
270
     1
271
     1
  0
XRECORD
  5
26
102
{ACAD_REACTORS
330
22
102
}
330
22
100
AcDbXrecord
280
     1
270
     1
271
     1
  0
XRECORD
  5
28
102
{ACAD_REACTORS
330
22
102
}
330
22
100
AcDbXrecord
280
     1
270
     1
271
     1
  0
XRECORD
  5
25
102
{ACAD_REACTORS
330
22
102
}
330
22
100
AcDbXrecord
280
     1
270
     1
271
     1
  0
CELLSTYLEMAP
  5
20E
102
{ACAD_REACTORS
330
20D
102
}
330
20D
100
AcDbCellStyleMap
 90
        3
300
CELLSTYLE
  1
TABLEFORMAT_BEGIN
 90
        5
170
     1
 91
        0
 92
    32768
 62
   257
 93
        1
300
CONTENTFORMAT
  1
CONTENTFORMAT_BEGIN
 90
        0
 91
        0
 92
      512
 93
        0
300

 40
0.0
140
1.0
 94
        5
 62
     0
340
55
144
0.25
309
CONTENTFORMAT_END
171
     0
 94
        0
309
TABLEFORMAT_END
  1
CELLSTYLE_BEGIN
 90
        1
 91
        1
300
_TITLE
309
CELLSTYLE_END
300
CELLSTYLE
  1
TABLEFORMAT_BEGIN
 90
        5
170
     1
 91
        0
 92
        0
 62
   257
 93
        1
300
CONTENTFORMAT
  1
CONTENTFORMAT_BEGIN
 90
        0
 91
        0
 92
      512
 93
        0
300

 40
0.0
140
1.0
 94
        5
 62
     0
340
55
144
0.18
309
CONTENTFORMAT_END
171
     0
 94
        0
309
TABLEFORMAT_END
  1
CELLSTYLE_BEGIN
 90
        2
 91
        1
300
_HEADER
309
CELLSTYLE_END
300
CELLSTYLE
  1
TABLEFORMAT_BEGIN
 90
        5
170
     1
 91
        0
 92
        0
 62
   257
 93
        1
300
CONTENTFORMAT
  1
CONTENTFORMAT_BEGIN
 90
        0
 91
        0
 92
      512
 93
        0
300

 40
0.0
140
1.0
 94
        2
 62
     0
340
55
144
0.18
309
CONTENTFORMAT_END
171
     0
 94
        0
309
TABLEFORMAT_END
  1
CELLSTYLE_BEGIN
 90
        3
 91
        2
300
_DATA
309
CELLSTYLE_END
  0
ENDSEC
  0
EOF
