  0
SECTION
  2
HEADER
  9
$ACADVER
  1
AC1032
  9
$ACADMAINTVER
 90
      329
  9
$DWGCODEPAGE
  3
ANSI_936
  9
$REQUIREDVERSIONS
160
                 0
  9
$INSBASE
 10
0.0
 20
0.0
 30
0.0
  9
$EXTMIN
 10
1.000000000000000E+20
 20
1.000000000000000E+20
 30
1.000000000000000E+20
  9
$EXTMAX
 10
-1.000000000000000E+20
 20
-1.000000000000000E+20
 30
-1.000000000000000E+20
  9
$LIMMIN
 10
0.0
 20
0.0
  9
$LIMMAX
 10
12.0
 20
9.0
  9
$ORTHOMODE
 70
     0
  9
$REGENMODE
 70
     1
  9
$FILLMODE
 70
     1
  9
$QTEXTMODE
 70
     0
  9
$MIRRTEXT
 70
     0
  9
$LTSCALE
 40
1.0
  9
$ATTMODE
 70
     1
  9
$TEXTSIZE
 40
0.2
  9
$TRACEWID
 40
0.05
  9
$TEXTSTYLE
  7
Standard
  9
$CLAYER
  8
0
  9
$CELTYPE
  6
ByLayer
  9
$CECOLOR
 62
   256
  9
$CELTSCALE
 40
1.0
  9
$DISPSILH
 70
     0
  9
$DIMSCALE
 40
1.0
  9
$DIMASZ
 40
0.18
  9
$DIMEXO
 40
0.0625
  9
$DIMDLI
 40
0.38
  9
$DIMRND
 40
0.0
  9
$DIMDLE
 40
0.0
  9
$DIMEXE
 40
0.18
  9
$DIMTP
 40
0.0
  9
$DIMTM
 40
0.0
  9
$DIMTXT
 40
0.18
  9
$DIMCEN
 40
0.09
  9
$DIMTSZ
 40
0.0
  9
$DIMTOL
 70
     0
  9
$DIMLIM
 70
     0
  9
$DIMTIH
 70
     1
  9
$DIMTOH
 70
     1
  9
$DIMSE1
 70
     0
  9
$DIMSE2
 70
     0
  9
$DIMTAD
 70
     0
  9
$DIMZIN
 70
     0
  9
$DIMBLK
  1

  9
$DIMASO
 70
     1
  9
$DIMSHO
 70
     1
  9
$DIMPOST
  1

  9
$DIMAPOST
  1

  9
$DIMALT
 70
     0
  9
$DIMALTD
 70
     2
  9
$DIMALTF
 40
25.4
  9
$DIMLFAC
 40
1.0
  9
$DIMTOFL
 70
     0
  9
$DIMTVP
 40
0.0
  9
$DIMTIX
 70
     0
  9
$DIMSOXD
 70
     0
  9
$DIMSAH
 70
     0
  9
$DIMBLK1
  1

  9
$DIMBLK2
  1

  9
$DIMSTYLE
  2
Standard
  9
$DIMCLRD
 70
     0
  9
$DIMCLRE
 70
     0
  9
$DIMCLRT
 70
     0
  9
$DIMTFAC
 40
1.0
  9
$DIMGAP
 40
0.09
  9
$DIMJUST
 70
     0
  9
$DIMSD1
 70
     0
  9
$DIMSD2
 70
     0
  9
$DIMTOLJ
 70
     1
  9
$DIMTZIN
 70
     0
  9
$DIMALTZ
 70
     0
  9
$DIMALTTZ
 70
     0
  9
$DIMUPT
 70
     0
  9
$DIMDEC
 70
     4
  9
$DIMTDEC
 70
     4
  9
$DIMALTU
 70
     2
  9
$DIMALTTD
 70
     2
  9
$DIMTXSTY
  7
Standard
  9
$DIMAUNIT
 70
     0
  9
$DIMADEC
 70
     0
  9
$DIMALTRND
 40
0.0
  9
$DIMAZIN
 70
     0
  9
$DIMDSEP
 70
    46
  9
$DIMATFIT
 70
     3
  9
$DIMFRAC
 70
     0
  9
$DIMLDRBLK
  1

  9
$DIMLUNIT
 70
     2
  9
$DIMLWD
 70
    -2
  9
$DIMLWE
 70
    -2
  9
$DIMTMOVE
 70
     0
  9
$DIMFXL
 40
1.0
  9
$DIMFXLON
 70
     0
  9
$DIMJOGANG
 40
0.7853981633974483
  9
$DIMTFILL
 70
     0
  9
$DIMTFILLCLR
 70
     0
  9
$DIMARCSYM
 70
     0
  9
$DIMLTYPE
  6

  9
$DIMLTEX1
  6

  9
$DIMLTEX2
  6

  9
$DIMTXTDIRECTION
 70
     0
  9
$LUNITS
 70
     2
  9
$LUPREC
 70
     4
  9
$SKETCHINC
 40
0.1
  9
$FILLETRAD
 40
0.0
  9
$AUNITS
 70
     0
  9
$AUPREC
 70
     0
  9
$MENU
  1
.
  9
$ELEVATION
 40
0.0
  9
$PELEVATION
 40
0.0
  9
$THICKNESS
 40
0.0
  9
$LIMCHECK
 70
     0
  9
$CHAMFERA
 40
0.0
  9
$CHAMFERB
 40
0.0
  9
$CHAMFERC
 40
0.0
  9
$CHAMFERD
 40
0.0
  9
$SKPOLY
 70
     0
  9
$TDCREATE
 40
2460900.570578704
  9
$TDUCREATE
 40
2460900.237245370
  9
$TDUPDATE
 40
2460900.570578704
  9
$TDUUPDATE
 40
2460900.237245370
  9
$TDINDWG
 40
0.0000000000
  9
$TDUSRTIMER
 40
0.0000000000
  9
$USRTIMER
 70
     1
  9
$ANGBASE
 50
0.0
  9
$ANGDIR
 70
     0
  9
$PDMODE
 70
     0
  9
$PDSIZE
 40
0.0
  9
$PLINEWID
 40
0.0
  9
$SPLFRAME
 70
     0
  9
$SPLINETYPE
 70
     6
  9
$SPLINESEGS
 70
     8
  9
$HANDSEED
  5
142
  9
$SURFTAB1
 70
     6
  9
$SURFTAB2
 70
     6
  9
$SURFTYPE
 70
     6
  9
$SURFU
 70
     6
  9
$SURFV
 70
     6
  9
$UCSBASE
  2

  9
$UCSNAME
  2

  9
$UCSORG
 10
0.0
 20
0.0
 30
0.0
  9
$UCSXDIR
 10
1.0
 20
0.0
 30
0.0
  9
$UCSYDIR
 10
0.0
 20
1.0
 30
0.0
  9
$UCSORTHOREF
  2

  9
$UCSORTHOVIEW
 70
     0
  9
$UCSORGTOP
 10
0.0
 20
0.0
 30
0.0
  9
$UCSORGBOTTOM
 10
0.0
 20
0.0
 30
0.0
  9
$UCSORGLEFT
 10
0.0
 20
0.0
 30
0.0
  9
$UCSORGRIGHT
 10
0.0
 20
0.0
 30
0.0
  9
$UCSORGFRONT
 10
0.0
 20
0.0
 30
0.0
  9
$UCSORGBACK
 10
0.0
 20
0.0
 30
0.0
  9
$PUCSBASE
  2

  9
$PUCSNAME
  2

  9
$PUCSORG
 10
0.0
 20
0.0
 30
0.0
  9
$PUCSXDIR
 10
1.0
 20
0.0
 30
0.0
  9
$PUCSYDIR
 10
0.0
 20
1.0
 30
0.0
  9
$PUCSORTHOREF
  2

  9
$PUCSORTHOVIEW
 70
     0
  9
$PUCSORGTOP
 10
0.0
 20
0.0
 30
0.0
  9
$PUCSORGBOTTOM
 10
0.0
 20
0.0
 30
0.0
  9
$PUCSORGLEFT
 10
0.0
 20
0.0
 30
0.0
  9
$PUCSORGRIGHT
 10
0.0
 20
0.0
 30
0.0
  9
$PUCSORGFRONT
 10
0.0
 20
0.0
 30
0.0
  9
$PUCSORGBACK
 10
0.0
 20
0.0
 30
0.0
  9
$USERI1
 70
     0
  9
$USERI2
 70
     0
  9
$USERI3
 70
     0
  9
$USERI4
 70
     0
  9
$USERI5
 70
     0
  9
$USERR1
 40
0.0
  9
$USERR2
 40
0.0
  9
$USERR3
 40
0.0
  9
$USERR4
 40
0.0
  9
$USERR5
 40
0.0
  9
$WORLDVIEW
 70
     1
  9
$SHADEDGE
 70
     3
  9
$SHADEDIF
 70
    70
  9
$TILEMODE
 70
     1
  9
$MAXACTVP
 70
    64
  9
$PINSBASE
 10
0.0
 20
0.0
 30
0.0
  9
$PLIMCHECK
 70
     0
  9
$PEXTMIN
 10
1.000000000000000E+20
 20
1.000000000000000E+20
 30
1.000000000000000E+20
  9
$PEXTMAX
 10
-1.000000000000000E+20
 20
-1.000000000000000E+20
 30
-1.000000000000000E+20
  9
$PLIMMIN
 10
0.0
 20
0.0
  9
$PLIMMAX
 10
12.0
 20
9.0
  9
$UNITMODE
 70
     0
  9
$VISRETAIN
 70
     1
  9
$PLINEGEN
 70
     0
  9
$PSLTSCALE
 70
     1
  9
$TREEDEPTH
 70
  3020
  9
$CMLSTYLE
  2
Standard
  9
$CMLJUST
 70
     0
  9
$CMLSCALE
 40
1.0
  9
$PROXYGRAPHICS
 70
     1
  9
$MEASUREMENT
 70
     0
  9
$CELWEIGHT
370
    -1
  9
$ENDCAPS
280
     0
  9
$JOINSTYLE
280
     0
  9
$LWDISPLAY
290
     1
  9
$INSUNITS
 70
     1
  9
$HYPERLINKBASE
  1

  9
$STYLESHEET
  1

  9
$XEDIT
290
     1
  9
$CEPSNTYPE
380
     0
  9
$PSTYLEMODE
290
     1
  9
$FINGERPRINTGUID
  2
{FA65F8C0-00DF-6741-AD61-6D626074C316}
  9
$VERSIONGUID
  2
{68754150-C12B-CC4E-A4CD-A26ABFE173BD}
  9
$EXTNAMES
290
     1
  9
$PSVPSCALE
 40
0.0
  9
$OLESTARTUP
290
     0
  9
$SORTENTS
280
   127
  9
$INDEXCTL
280
     0
  9
$HIDETEXT
280
     1
  9
$XCLIPFRAME
280
     2
  9
$HALOGAP
280
     0
  9
$OBSCOLOR
 70
   257
  9
$OBSLTYPE
280
     0
  9
$INTERSECTIONDISPLAY
280
     0
  9
$INTERSECTIONCOLOR
 70
   257
  9
$DIMASSOC
280
     2
  9
$PROJECTNAME
  1

  9
$CAMERADISPLAY
290
     0
  9
$LENSLENGTH
 40
50.0
  9
$CAMERAHEIGHT
 40
0.0
  9
$STEPSPERSEC
 40
2.0
  9
$STEPSIZE
 40
6.0
  9
$3DDWFPREC
 40
2.0
  9
$PSOLWIDTH
 40
0.25
  9
$PSOLHEIGHT
 40
4.0
  9
$LOFTANG1
 40
1.570796326794896
  9
$LOFTANG2
 40
1.570796326794896
  9
$LOFTMAG1
 40
0.0
  9
$LOFTMAG2
 40
0.0
  9
$LOFTPARAM
 70
     7
  9
$LOFTNORMALS
280
     1
  9
$LATITUDE
 40
37.795
  9
$LONGITUDE
 40
-122.394
  9
$NORTHDIRECTION
 40
0.0
  9
$TIMEZONE
 70
 -8000
  9
$LIGHTGLYPHDISPLAY
280
     1
  9
$TILEMODELIGHTSYNCH
280
     1
  9
$CMATERIAL
347
11
  9
$SOLIDHIST
280
     0
  9
$SHOWHIST
280
     1
  9
$DWFFRAME
280
     2
  9
$DGNFRAME
280
     0
  9
$REALWORLDSCALE
290
     1
  9
$INTERFERECOLOR
 62
     1
  9
$INTERFEREOBJVS
345
33
  9
$INTERFEREVPVS
346
30
  9
$CSHADOW
280
     0
  9
$SHADOWPLANELOCATION
 40
0.0
  0
ENDSEC
  0
SECTION
  2
CLASSES
  0
CLASS
  1
ACDBDICTIONARYWDFLT
  2
AcDbDictionaryWithDefault
  3
ObjectDBX Classes
 90
        0
 91
        1
280
     0
281
     0
  0
CLASS
  1
MATERIAL
  2
AcDbMaterial
  3
ObjectDBX Classes
 90
     1153
 91
        3
280
     0
281
     0
  0
CLASS
  1
VISUALSTYLE
  2
AcDbVisualStyle
  3
ObjectDBX Classes
 90
     4095
 91
       24
280
     0
281
     0
  0
CLASS
  1
SCALE
  2
AcDbScale
  3
ObjectDBX Classes
 90
     1153
 91
       17
280
     0
281
     0
  0
CLASS
  1
TABLESTYLE
  2
AcDbTableStyle
  3
ObjectDBX Classes
 90
     4095
 91
        1
280
     0
281
     0
  0
CLASS
  1
MLEADERSTYLE
  2
AcDbMLeaderStyle
  3
ACDB_MLEADERSTYLE_CLASS
 90
     4095
 91
        1
280
     0
281
     0
  0
CLASS
  1
ACDBSECTIONVIEWSTYLE
  2
AcDbSectionViewStyle
  3
ObjectDBX Classes
 90
     1025
 91
        1
280
     0
281
     0
  0
CLASS
  1
ACDBDETAILVIEWSTYLE
  2
AcDbDetailViewStyle
  3
ObjectDBX Classes
 90
     1025
 91
        1
280
     0
281
     0
  0
CLASS
  1
DICTIONARYVAR
  2
AcDbDictionaryVar
  3
ObjectDBX Classes
 90
        0
 91
        5
280
     0
281
     0
  0
CLASS
  1
CELLSTYLEMAP
  2
AcDbCellStyleMap
  3
ObjectDBX Classes
 90
     1152
 91
        1
280
     0
281
     0
  0
ENDSEC
  0
SECTION
  2
TABLES
  0
TABLE
  2
VPORT
  5
8
330
0
100
AcDbSymbolTable
 70
     1
  0
VPORT
  5
57
330
8
100
AcDbSymbolTableRecord
100
AcDbViewportTableRecord
  2
*Active
 70
     0
 10
0.0
 20
0.0
 11
1.0
 21
1.0
 12
0.0
 22
0.0
 13
0.0
 23
0.0
 14
1.0
 24
1.0
 15
0.0
 25
0.0
 16
0.0
 26
0.0
 36
1.0
 17
10.0
 27
-8.5
 37
0.0
 40
17.34
 41
1.176470588235293
 42
50.0
 43
0.0
 44
0.0
 50
0.0
 51
0.0
 71
     0
 72
   100
 73
     1
 74
     1
 75
     0
 76
     0
 77
     0
 78
     0
281
     0
 65
     1
110
0.0
120
0.0
130
0.0
111
1.0
121
0.0
131
0.0
112
0.0
122
1.0
132
0.0
 79
     0
146
0.0
 60
     3
 61
     5
292
     1
282
     1
141
0.0
142
0.0
 63
   250
421
  3355443
  0
ENDTAB
  0
TABLE
  2
LTYPE
  5
5
330
0
100
AcDbSymbolTable
 70
     1
  0
LTYPE
  5
5B
330
5
100
AcDbSymbolTableRecord
100
AcDbLinetypeTableRecord
  2
ByBlock
 70
     0
  3

 72
    65
 73
     0
 40
0.0
  0
LTYPE
  5
5C
330
5
100
AcDbSymbolTableRecord
100
AcDbLinetypeTableRecord
  2
ByLayer
 70
     0
  3

 72
    65
 73
     0
 40
0.0
  0
LTYPE
  5
5D
330
5
100
AcDbSymbolTableRecord
100
AcDbLinetypeTableRecord
  2
Continuous
 70
     0
  3
Solid line
 72
    65
 73
     0
 40
0.0
  0
ENDTAB
  0
TABLE
  2
LAYER
  5
2
330
0
100
AcDbSymbolTable
 70
     2
  0
LAYER
  5
54
330
2
100
AcDbSymbolTableRecord
100
AcDbLayerTableRecord
  2
0
 70
     0
 62
     7
  6
Continuous
370
    -3
390
F
347
21
348
0
  0
LAYER
  5
78
330
2
100
AcDbSymbolTableRecord
100
AcDbLayerTableRecord
  2
Layer 1
 70
     0
 62
     7
  6
Continuous
370
     0
390
F
347
21
348
0
  0
ENDTAB
  0
TABLE
  2
STYLE
  5
3
330
0
100
AcDbSymbolTable
 70
     2
  0
STYLE
  5
55
330
3
100
AcDbSymbolTableRecord
100
AcDbTextStyleTableRecord
  2
Standard
 70
     0
 40
0.0
 41
1.0
 50
0.0
 71
     0
 42
0.2
  3
txt
  4

  0
STYLE
  5
5A
330
3
100
AcDbSymbolTableRecord
100
AcDbTextStyleTableRecord
  2
Annotative
 70
     0
 40
0.0
 41
1.0
 50
0.0
 71
     0
 42
0.2
  3
txt
  4

1001
AcadAnnotative
1000
AnnotativeData
1002
{
1070
     1
1070
     1
1002
}
  0
ENDTAB
  0
TABLE
  2
VIEW
  5
6
330
0
100
AcDbSymbolTable
 70
     0
  0
ENDTAB
  0
TABLE
  2
UCS
  5
7
330
0
100
AcDbSymbolTable
 70
     0
  0
ENDTAB
  0
TABLE
  2
APPID
  5
9
330
0
100
AcDbSymbolTable
 70
     2
  0
APPID
  5
56
330
9
100
AcDbSymbolTableRecord
100
AcDbRegAppTableRecord
  2
ACAD
 70
     0
  0
APPID
  5
5E
330
9
100
AcDbSymbolTableRecord
100
AcDbRegAppTableRecord
  2
AcadAnnotative
 70
     0
  0
ENDTAB
  0
TABLE
  2
DIMSTYLE
  5
A
330
0
100
AcDbSymbolTable
 70
     2
100
AcDbDimStyleTable
 71
     0
  0
DIMSTYLE
105
58
330
A
100
AcDbSymbolTableRecord
100
AcDbDimStyleTableRecord
  2
Standard
 70
     0
340
55
  0
DIMSTYLE
105
59
330
A
100
AcDbSymbolTableRecord
100
AcDbDimStyleTableRecord
  2
Annotative
 70
     0
340
55
1001
AcadAnnotative
1000
AnnotativeData
1002
{
1070
     1
1070
     1
1002
}
  0
ENDTAB
  0
TABLE
  2
BLOCK_RECORD
  5
1
330
0
100
AcDbSymbolTable
 70
     1
  0
BLOCK_RECORD
  5
70
330
1
100
AcDbSymbolTableRecord
100
AcDbBlockTableRecord
  2
*Model_Space
340
73
 70
     0
280
     1
281
     0
  0
BLOCK_RECORD
  5
6C
330
1
100
AcDbSymbolTableRecord
100
AcDbBlockTableRecord
  2
*Paper_Space
340
6F
 70
     0
280
     1
281
     0
  0
BLOCK_RECORD
  5
74
330
1
100
AcDbSymbolTableRecord
100
AcDbBlockTableRecord
  2
*Paper_Space0
340
77
 70
     0
280
     1
281
     0
  0
ENDTAB
  0
ENDSEC
  0
SECTION
  2
BLOCKS
  0
BLOCK
  5
71
330
70
100
AcDbEntity
  8
0
100
AcDbBlockBegin
  2
*Model_Space
 70
     0
 10
0.0
 20
0.0
 30
0.0
  3
*Model_Space
  1

  0
ENDBLK
  5
72
330
70
100
AcDbEntity
  8
0
100
AcDbBlockEnd
  0
BLOCK
  5
6D
330
6C
100
AcDbEntity
 67
     1
  8
0
100
AcDbBlockBegin
  2
*Paper_Space
 70
     0
 10
0.0
 20
0.0
 30
0.0
  3
*Paper_Space
  1

  0
ENDBLK
  5
6E
330
6C
100
AcDbEntity
 67
     1
  8
0
100
AcDbBlockEnd
  0
BLOCK
  5
75
330
74
100
AcDbEntity
 67
     1
  8
0
100
AcDbBlockBegin
  2
*Paper_Space0
 70
     0
 10
0.0
 20
0.0
 30
0.0
  3
*Paper_Space0
  1

  0
ENDBLK
  5
76
330
74
100
AcDbEntity
 67
     1
  8
0
100
AcDbBlockEnd
  0
ENDSEC
  0
SECTION
  2
ENTITIES
  0
LINE
  5
79
330
70
100
AcDbEntity
  8
Layer 1
 62
    18
420
        0
370
     5
100
AcDbLine
 10
4.744875333306354
 20
-12.07879968125212
 30
0.0
 11
4.744875333306354
 21
-12.07879968125212
 31
0.0
  0
LINE
  5
7A
330
70
100
AcDbEntity
  8
Layer 1
 62
    18
420
        0
370
     5
100
AcDbLine
 10
4.744875333306354
 20
-14.53645050494467
 30
0.0
 11
4.744875333306354
 21
-12.07879968125212
 31
0.0
  0
LINE
  5
7B
330
70
100
AcDbEntity
  8
Layer 1
 62
    18
420
        0
370
     5
100
AcDbLine
 10
5.044048449534329
 20
-12.07879968125212
 30
0.0
 11
5.044048449534329
 21
-14.53645050464557
 31
0.0
  0
LINE
  5
7C
330
70
100
AcDbEntity
  8
Layer 1
 62
    18
420
        0
370
     5
100
AcDbLine
 10
5.27119840807432
 20
-5.974148987500257
 30
0.0
 11
4.517725374666635
 21
-5.974148987500257
 31
0.0
  0
LINE
  5
7D
330
70
100
AcDbEntity
  8
Layer 1
 62
    18
420
        0
370
     5
100
AcDbLine
 10
4.437541756553261
 20
-5.806238433130273
 30
0.0
 11
5.351382026187693
 21
-5.806238433130273
 31
0.0
  0
LINE
  5
7E
330
70
100
AcDbEntity
  8
Layer 1
 62
    18
420
        0
370
     5
100
AcDbLine
 10
4.3845194313155
 20
-5.804538714577802
 30
0.0
 11
5.404404351425429
 21
-5.804538714577802
 31
0.0
  0
LINE
  5
7F
330
70
100
AcDbEntity
  8
Layer 1
 62
    18
420
        0
370
     5
100
AcDbLine
 10
1.404108868760456
 20
-1.63112368067531
 30
0.0
 11
1.404108868760456
 21
-1.430545668304691
 31
0.0
  0
LINE
  5
80
330
70
100
AcDbEntity
  8
Layer 1
 62
    18
420
        0
370
     5
100
AcDbLine
 10
5.311649840568734
 20
-5.07099438228666
 30
0.0
 11
4.477273942172195
 21
-5.07099438228666
 31
0.0
  0
LINE
  5
81
330
70
100
AcDbEntity
  8
Layer 1
 62
    18
420
        0
370
     5
100
AcDbLine
 10
5.287743635963402
 20
-4.494370634114753
 30
0.0
 11
4.501180146877256
 21
-4.494370634114753
 31
0.0
  0
LINE
  5
82
330
70
100
AcDbEntity
  8
Layer 1
 62
    18
420
        0
370
     5
100
AcDbLine
 10
4.21345545358387
 20
-4.239701170859916
 30
0.0
 11
5.575468329256787
 21
-4.239701170859916
 31
0.0
  0
LINE
  5
83
330
70
100
AcDbEntity
  8
Layer 1
 62
    18
420
        0
370
     5
100
AcDbLine
 10
5.846829644746119
 20
-3.944054340140862
 30
0.0
 11
3.942094138094552
 21
-3.944054340140862
 31
0.0
  0
LINE
  5
84
330
70
100
AcDbEntity
  8
Layer 1
 62
    18
420
        0
370
     5
100
AcDbLine
 10
3.498320682356393
 20
-1.86806233536428
 30
0.0
 11
3.498320682356393
 21
-2.177765785829806
 31
0.0
  0
LINE
  5
85
330
70
100
AcDbEntity
  8
Layer 1
 62
    18
420
        0
370
     5
100
AcDbLine
 10
3.777548924169182
 20
-2.31922931296727
 30
0.0
 11
3.777548924169182
 21
-2.556854233687406
 31
0.0
  0
LINE
  5
86
330
70
100
AcDbEntity
  8
Layer 1
 62
    18
420
        0
370
     5
100
AcDbLine
 10
3.91217682647175
 20
-3.982677423404791
 30
0.0
 11
3.91217682647175
 21
-4.195417938466903
 31
0.0
  0
LINE
  5
87
330
70
100
AcDbEntity
  8
Layer 1
 62
    18
420
        0
370
     5
100
AcDbLine
 10
3.954125615526411
 20
-1.748329794711632
 30
0.0
 11
3.952383815383175
 21
-1.84811746094907
 31
0.0
  0
LINE
  5
88
330
70
100
AcDbEntity
  8
Layer 1
 62
    18
420
        0
370
     5
100
AcDbLine
 10
3.972011449717342
 20
-2.65815156755856
 30
0.0
 11
3.972011449717342
 21
-3.905431256876883
 31
0.0
  0
LINE
  5
89
330
70
100
AcDbEntity
  8
Layer 1
 62
    18
420
        0
370
     5
100
AcDbLine
 10
4.345977845002368
 20
-5.113712444549163
 30
0.0
 11
4.345977845002368
 21
-5.764671754361996
 31
0.0
  0
LINE
  5
8A
330
70
100
AcDbEntity
  8
Layer 1
 62
    18
420
        0
370
     5
100
AcDbLine
 10
4.360936500813737
 20
-4.389272910131643
 30
0.0
 11
4.360936500813737
 21
-4.451338284909044
 31
0.0
  0
LINE
  5
8B
330
70
100
AcDbEntity
  8
Layer 1
 62
    18
420
        0
370
     5
100
AcDbLine
 10
4.495564403116341
 20
-5.866045613923991
 30
0.0
 11
4.495564403116341
 21
-5.93841549460525
 31
0.0
  0
LINE
  5
8C
330
70
100
AcDbEntity
  8
Layer 1
 62
    18
420
        0
370
     5
100
AcDbLine
 10
4.535454151946724
 20
-5.011182635413129
 30
0.0
 11
4.535454151946724
 21
-4.510124863542348
 31
0.0
  0
LINE
  5
8D
330
70
100
AcDbEntity
  8
Layer 1
 62
    18
420
        0
370
     5
100
AcDbLine
 10
3.913115539565195
 20
-2.598324308259735
 30
0.0
 11
5.875808243175772
 21
-2.598324308259735
 31
0.0
  0
LINE
  5
8E
330
70
100
AcDbEntity
  8
Layer 1
 62
    18
420
        0
370
     5
100
AcDbLine
 10
5.972172370423436
 20
-2.596738061582691
 30
0.0
 11
3.816751412417261
 21
-2.596738061582691
 31
0.0
  0
LINE
  5
8F
330
70
100
AcDbEntity
  8
Layer 1
 62
    18
420
        0
370
     5
100
AcDbLine
 10
3.679064689979402
 20
-2.219512652178056
 30
0.0
 11
6.109859092761539
 21
-2.219512652178056
 31
0.0
  0
LINE
  5
90
330
70
100
AcDbEntity
  8
Layer 1
 62
    18
420
        0
370
     5
100
AcDbLine
 10
6.251267121391227
 20
-2.217651690584817
 30
0.0
 11
3.537656661349766
 21
-2.217651690584817
 31
0.0
  0
LINE
  5
91
330
70
100
AcDbEntity
  8
Layer 1
 62
    18
420
        0
370
     5
100
AcDbLine
 10
5.253469630893934
 20
-5.011182635413129
 30
0.0
 11
5.253469630893934
 21
-4.510124863542348
 31
0.0
  0
LINE
  5
92
330
70
100
AcDbEntity
  8
Layer 1
 62
    18
420
        0
370
     5
100
AcDbLine
 10
5.293359379724316
 20
-5.866045613923991
 30
0.0
 11
5.293359379724316
 21
-5.93841549460525
 31
0.0
  0
LINE
  5
93
330
70
100
AcDbEntity
  8
Layer 1
 62
    18
420
        0
370
     5
100
AcDbLine
 10
5.861852154671282
 20
-1.748329692494191
 30
0.0
 11
8.286209930728748
 21
-1.730841770016089
 31
0.0
  0
LINE
  5
94
330
70
100
AcDbEntity
  8
Layer 1
 62
    18
420
        0
370
     5
100
AcDbLine
 10
6.270658226069094
 20
-1.84811746094907
 30
0.0
 11
3.518265556771577
 21
-1.84811746094907
 31
0.0
  0
LINE
  5
95
330
70
100
AcDbEntity
  8
Layer 1
 62
    18
420
        0
370
     5
100
AcDbLine
 10
3.927071628069647
 20
-1.748329692494191
 30
0.0
 11
5.861852154671282
 21
-1.748329692494191
 31
0.0
  0
LINE
  5
96
330
70
100
AcDbEntity
  8
Layer 1
 62
    18
420
        0
370
     5
100
AcDbLine
 10
3.927071628069647
 20
-1.748329692494191
 30
0.0
 11
1.502713852012195
 21
-1.730841770016089
 31
0.0
  0
LINE
  5
97
330
70
100
AcDbEntity
  8
Layer 1
 62
    18
420
        0
370
     5
100
AcDbLine
 10
5.427987282026921
 20
-4.389272910131643
 30
0.0
 11
5.427987282026921
 21
-4.451338284909044
 31
0.0
  0
LINE
  5
98
330
70
100
AcDbEntity
  8
Layer 1
 62
    18
420
        0
370
     5
100
AcDbLine
 10
5.442945937838317
 20
-5.113712444549163
 30
0.0
 11
5.442945937838317
 21
-5.764671754361996
 31
0.0
  0
LINE
  5
99
330
70
100
AcDbEntity
  8
Layer 1
 62
    18
420
        0
370
     5
100
AcDbLine
 10
1.424080525651611
 20
-1.410600793889481
 30
0.0
 11
8.364843240335618
 21
-1.410600793889481
 31
0.0
  0
LINE
  5
9A
330
70
100
AcDbEntity
  8
Layer 1
 62
    18
420
        0
370
     5
100
AcDbLine
 10
5.834798167214507
 20
-1.748329794711632
 30
0.0
 11
5.836539967457497
 21
-1.84811746094907
 31
0.0
  0
LINE
  5
9B
330
70
100
AcDbEntity
  8
Layer 1
 62
    18
420
        0
370
     5
100
AcDbLine
 10
5.816912333123329
 20
-2.65815156755856
 30
0.0
 11
5.816912333123329
 21
-3.905431256876883
 31
0.0
  0
LINE
  5
9C
330
70
100
AcDbEntity
  8
Layer 1
 62
    18
420
        0
370
     5
100
AcDbLine
 10
5.876746956368909
 20
-3.982677423404791
 30
0.0
 11
5.876746956368909
 21
-4.195417938466903
 31
0.0
  0
LINE
  5
9D
330
70
100
AcDbEntity
  8
Layer 1
 62
    18
420
        0
370
     5
100
AcDbLine
 10
6.011374858671463
 20
-2.31922931296727
 30
0.0
 11
6.011374858671463
 21
-2.556854233687406
 31
0.0
  0
LINE
  5
9E
330
70
100
AcDbEntity
  8
Layer 1
 62
    18
420
        0
370
     5
100
AcDbLine
 10
6.290603100484304
 20
-1.86806233536428
 30
0.0
 11
6.290603100484304
 21
-2.177765785829806
 31
0.0
  0
LINE
  5
9F
330
70
100
AcDbEntity
  8
Layer 1
 62
    18
420
        0
370
     5
100
AcDbLine
 10
8.384814914080241
 20
-1.63112368067531
 30
0.0
 11
8.384814914080241
 21
-1.430545668304691
 31
0.0
  0
LINE
  5
A0
330
70
100
AcDbEntity
  8
Layer 1
 62
    18
420
        0
370
     5
100
AcDbLine
 10
17.54295444803195
 20
-14.87824198718527
 30
0.0
 11
17.70364271147241
 21
-14.87824198718527
 31
0.0
  0
LINE
  5
A1
330
70
100
AcDbEntity
  8
Layer 1
 62
    18
420
        0
370
     5
100
AcDbLine
 10
13.46102395704712
 20
-14.57629092601188
 30
0.0
 11
14.00874809796576
 21
-14.57629092730839
 31
0.0
  0
LINE
  5
A2
330
70
100
AcDbEntity
  8
Layer 1
 62
    18
420
        0
370
     5
100
AcDbLine
 10
13.19992914110725
 20
-11.76462548117941
 30
0.0
 11
13.19992914110725
 21
-11.01115244777179
 31
0.0
  0
LINE
  5
A3
330
70
100
AcDbEntity
  8
Layer 1
 62
    18
420
        0
370
     5
100
AcDbLine
 10
13.36132052180384
 20
-12.07879968125212
 30
0.0
 11
13.36132052180384
 21
-14.47656199304176
 31
0.0
  0
LINE
  5
A4
330
70
100
AcDbEntity
  8
Layer 1
 62
    18
420
        0
370
     5
100
AcDbLine
 10
13.36783969547716
 20
-10.93096882965844
 30
0.0
 11
13.36783969547716
 21
-11.38788896452552
 31
0.0
  0
LINE
  5
A5
330
70
100
AcDbEntity
  8
Layer 1
 62
    18
420
        0
370
     5
100
AcDbLine
 10
13.36953941402966
 20
-10.8779465044206
 30
0.0
 11
13.36953941402966
 21
-11.38788896452552
 31
0.0
  0
LINE
  5
A6
330
70
100
AcDbEntity
  8
Layer 1
 62
    18
420
        0
370
     5
100
AcDbLine
 10
14.10308374632086
 20
-11.38788896452552
 30
0.0
 11
14.10308374632086
 21
-10.97070101527737
 31
0.0
  0
LINE
  5
A7
330
70
100
AcDbEntity
  8
Layer 1
 62
    18
420
        0
370
     5
100
AcDbLine
 10
14.1084515366995
 20
-14.47656199264285
 30
0.0
 11
14.10845153659978
 21
-12.07879968125212
 31
0.0
  0
LINE
  5
A8
330
70
100
AcDbEntity
  8
Layer 1
 62
    18
420
        0
370
     5
100
AcDbLine
 10
17.30601579324323
 20
-12.7840301735894
 30
0.0
 11
16.99631234277765
 21
-12.7840301735894
 31
0.0
  0
LINE
  5
A9
330
70
100
AcDbEntity
  8
Layer 1
 62
    18
420
        0
370
     5
100
AcDbLine
 10
14.67970749449276
 20
-11.78117070896878
 30
0.0
 11
14.67970749449276
 21
-10.99460721998245
 31
0.0
  0
LINE
  5
AA
330
70
100
AcDbEntity
  8
Layer 1
 62
    18
420
        0
370
     5
100
AcDbLine
 10
14.93437695774767
 20
-10.7068825265893
 30
0.0
 11
14.93437695774767
 21
-12.06889540236185
 31
0.0
  0
LINE
  5
AB
330
70
100
AcDbEntity
  8
Layer 1
 62
    18
420
        0
370
     5
100
AcDbLine
 10
17.32596066765834
 20
-12.32996704056268
 30
0.0
 11
17.42574843611333
 21
-12.32822523852466
 31
0.0
  0
LINE
  5
AC
330
70
100
AcDbEntity
  8
Layer 1
 62
    18
420
        0
370
     5
100
AcDbLine
 10
16.8548488156402
 20
-12.50480193177668
 30
0.0
 11
16.61722389501978
 21
-12.50480193177668
 31
0.0
  0
LINE
  5
AD
330
70
100
AcDbEntity
  8
Layer 1
 62
    18
420
        0
370
     5
100
AcDbLine
 10
15.19140070530248
 20
-12.37017402947403
 30
0.0
 11
14.97866019014057
 21
-12.37017402947403
 31
0.0
  0
LINE
  5
AE
330
70
100
AcDbEntity
  8
Layer 1
 62
    18
420
        0
370
     5
100
AcDbLine
 10
16.51592656104892
 20
-12.31033940622844
 30
0.0
 11
15.26864687173062
 21
-12.31033940622844
 31
0.0
  0
LINE
  5
AF
330
70
100
AcDbEntity
  8
Layer 1
 62
    18
420
        0
370
     5
100
AcDbLine
 10
15.2300237884667
 20
-12.34025671785119
 30
0.0
 11
15.2300237884667
 21
-10.43552121119966
 31
0.0
  0
LINE
  5
B0
330
70
100
AcDbEntity
  8
Layer 1
 62
    18
420
        0
370
     5
100
AcDbLine
 10
14.78480521847584
 20
-11.92141435513195
 30
0.0
 11
14.72273984369839
 21
-11.92141435513195
 31
0.0
  0
LINE
  5
B1
330
70
100
AcDbEntity
  8
Layer 1
 62
    18
420
        0
370
     5
100
AcDbLine
 10
14.06681388828401
 20
-11.86289008221266
 30
0.0
 11
13.40295817011952
 21
-11.86289008221266
 31
0.0
  0
LINE
  5
B2
330
70
100
AcDbEntity
  8
Layer 1
 62
    18
420
        0
370
     5
100
AcDbLine
 10
13.30108501067118
 20
-11.78678645282942
 30
0.0
 11
13.23566263400228
 21
-11.78678645282942
 31
0.0
  0
LINE
  5
B3
330
70
100
AcDbEntity
  8
Layer 1
 62
    18
420
        0
370
     5
100
AcDbLine
 10
14.16868704773234
 20
-11.74689670399905
 30
0.0
 11
14.66395326596257
 21
-11.74689670399905
 31
0.0
  0
LINE
  5
B4
330
70
100
AcDbEntity
  8
Layer 1
 62
    18
420
        0
370
     5
100
AcDbLine
 10
14.66395326596257
 20
-11.02888122505192
 30
0.0
 11
14.16289549319435
 21
-11.02888122505192
 31
0.0
  0
LINE
  5
B5
330
70
100
AcDbEntity
  8
Layer 1
 62
    18
420
        0
370
     5
100
AcDbLine
 10
13.30803251468349
 20
-10.98899147622147
 30
0.0
 11
13.23566263400228
 21
-10.98899147622147
 31
0.0
  0
LINE
  5
B6
330
70
100
AcDbEntity
  8
Layer 1
 62
    18
420
        0
370
     5
100
AcDbLine
 10
14.78480521847584
 20
-10.85436357391887
 30
0.0
 11
14.72273984369839
 21
-10.85436357391887
 31
0.0
  0
LINE
  5
B7
330
70
100
AcDbEntity
  8
Layer 1
 62
    18
420
        0
370
     5
100
AcDbLine
 10
14.06036568415806
 20
-10.8394049181075
 30
0.0
 11
13.40940637424546
 21
-10.8394049181075
 31
0.0
  0
LINE
  5
B8
330
70
100
AcDbEntity
  8
Layer 1
 62
    18
420
        0
370
     5
100
AcDbLine
 10
16.5757538203478
 20
-12.36923531628084
 30
0.0
 11
16.57734006702483
 21
-12.46559944342872
 31
0.0
  0
LINE
  5
B9
330
70
100
AcDbEntity
  8
Layer 1
 62
    18
420
        0
370
     5
100
AcDbLine
 10
16.95456547652922
 20
-12.60328616586667
 30
0.0
 11
16.95642643802264
 21
-12.7446941944963
 31
0.0
  0
LINE
  5
BA
330
70
100
AcDbEntity
  8
Layer 1
 62
    18
420
        0
370
     5
100
AcDbLine
 10
16.5757538203478
 20
-10.40654261267031
 30
0.0
 11
16.5757538203478
 21
-12.36923531628084
 31
0.0
  0
LINE
  5
BB
330
70
100
AcDbEntity
  8
Layer 1
 62
    18
420
        0
370
     5
100
AcDbLine
 10
16.95456547652922
 20
-10.17249176308451
 30
0.0
 11
16.95456547652922
 21
-12.60328616586667
 31
0.0
  0
LINE
  5
BC
330
70
100
AcDbEntity
  8
Layer 1
 62
    18
420
        0
370
     5
100
AcDbLine
 10
16.95456547652922
 20
-10.17249176308451
 30
0.0
 11
16.95642643802264
 21
-10.03108373445487
 31
0.0
  0
LINE
  5
BD
330
70
100
AcDbEntity
  8
Layer 1
 62
    18
420
        0
370
     5
100
AcDbLine
 10
16.5757538203478
 20
-10.40654261267031
 30
0.0
 11
16.57734006702483
 21
-10.31017848552243
 31
0.0
  0
LINE
  5
BE
330
70
100
AcDbEntity
  8
Layer 1
 62
    18
420
        0
370
     5
100
AcDbLine
 10
16.51592656104892
 20
-10.46543852282249
 30
0.0
 11
15.26864687173062
 21
-10.46543852282249
 31
0.0
  0
LINE
  5
BF
330
70
100
AcDbEntity
  8
Layer 1
 62
    18
420
        0
370
     5
100
AcDbLine
 10
15.19140070530248
 20
-10.40560389957692
 30
0.0
 11
14.97866019014057
 21
-10.40560389957692
 31
0.0
  0
LINE
  5
C0
330
70
100
AcDbEntity
  8
Layer 1
 62
    18
420
        0
370
     5
100
AcDbLine
 10
16.8548488156402
 20
-10.27097599727431
 30
0.0
 11
16.61722389501978
 21
-10.27097599727431
 31
0.0
  0
LINE
  5
C1
330
70
100
AcDbEntity
  8
Layer 1
 62
    18
420
        0
370
     5
100
AcDbLine
 10
17.30601579324323
 20
-9.991747755461547
 30
0.0
 11
16.99631234277765
 21
-9.991747755461547
 31
0.0
  0
LINE
  5
C2
330
70
100
AcDbEntity
  8
Layer 1
 62
    18
420
        0
370
     5
100
AcDbLine
 10
17.32596066765834
 20
-10.44581088838852
 30
0.0
 11
17.42574843611333
 21
-10.44755269042659
 31
0.0
  0
LINE
  5
C3
330
70
100
AcDbEntity
  8
Layer 1
 62
    18
420
        0
370
     5
100
AcDbLine
 10
17.32596066765834
 20
-12.76408529917426
 30
0.0
 11
17.32596066765834
 21
-10.01169262987668
 31
0.0
  0
LINE
  5
C4
330
70
100
AcDbEntity
  8
Layer 1
 62
    18
420
        0
370
     5
100
AcDbLine
 10
17.42574843611333
 20
-10.42049870117476
 30
0.0
 11
17.42574843611333
 21
-12.35527922777644
 31
0.0
  0
LINE
  5
C5
330
70
100
AcDbEntity
  8
Layer 1
 62
    18
420
        0
370
     5
100
AcDbLine
 10
17.76347733471799
 20
-7.91748081548298
 30
0.0
 11
17.76347733471799
 21
-14.85778125863804
 31
0.0
  0
LINE
  5
C6
330
70
100
AcDbEntity
  8
Layer 1
 62
    18
420
        0
370
     5
100
AcDbLine
 10
17.54295444803195
 20
-7.897535941865586
 30
0.0
 11
17.74353246030278
 21
-7.897535941865586
 31
0.0
  0
SPLINE
  5
C7
330
70
100
AcDbEntity
  8
Layer 1
 62
    18
420
        0
370
     5
100
AcDbSpline
210
0.0
220
0.0
230
1.0
 70
     8
 71
     3
 72
     8
 73
     4
 74
     0
 42
0.0000000001
 43
0.0000000001
 40
0.0
 40
0.0
 40
0.0
 40
0.0
 40
1.0
 40
1.0
 40
1.0
 40
1.0
 10
4.744875333306354
 20
-14.53645050499275
 30
0.0
 10
4.74487533141861
 20
-14.55771011847165
 30
0.0
 10
4.761548531038632
 20
-14.57523394549096
 30
0.0
 10
4.782781852905132
 20
-14.576290925997
 30
0.0
  0
SPLINE
  5
C8
330
70
100
AcDbEntity
  8
Layer 1
 62
    18
420
        0
370
     5
100
AcDbSpline
210
0.0
220
0.0
230
1.0
 70
     8
 71
     3
 72
     8
 73
     4
 74
     0
 42
0.0000000001
 43
0.0000000001
 40
0.0
 40
0.0
 40
0.0
 40
0.0
 40
1.0
 40
1.0
 40
1.0
 40
1.0
 10
4.744875333306354
 20
-12.07879968125212
 30
0.0
 10
4.744875333306354
 20
-11.9897294647073
 30
0.0
 10
4.697356938459784
 20
-11.90742519053876
 30
0.0
 10
4.62021986821133
 20
-11.86289008226643
 30
0.0
  0
SPLINE
  5
C9
330
70
100
AcDbEntity
  8
Layer 1
 62
    18
420
        0
370
     5
100
AcDbSpline
210
0.0
220
0.0
230
1.0
 70
     8
 71
     3
 72
     8
 73
     4
 74
     0
 42
0.0000000001
 43
0.0000000001
 40
0.0
 40
0.0
 40
0.0
 40
0.0
 40
1.0
 40
1.0
 40
1.0
 40
1.0
 10
5.006141930148865
 20
-14.57629092598638
 30
0.0
 10
5.027375252054904
 20
-14.57523394536431
 30
0.0
 10
5.044048451598276
 20
-14.55771011818638
 30
0.0
 10
5.044048449534329
 20
-14.53645050466204
 30
0.0
  0
SPLINE
  5
CA
330
70
100
AcDbEntity
  8
Layer 1
 62
    18
420
        0
370
     5
100
AcDbSpline
210
0.0
220
0.0
230
1.0
 70
     8
 71
     3
 72
     8
 73
     4
 74
     0
 42
0.0000000001
 43
0.0000000001
 40
0.0
 40
0.0
 40
0.0
 40
0.0
 40
1.0
 40
1.0
 40
1.0
 40
1.0
 10
4.782781852906522
 20
-14.57629092604561
 30
0.0
 10
4.857189137104973
 20
-14.57999485215575
 30
0.0
 10
4.931734619257364
 20
-14.57999485259486
 30
0.0
 10
5.006141903499458
 20
-14.57629092736142
 30
0.0
  0
CIRCLE
  5
CB
330
70
100
AcDbEntity
  8
Layer 1
 62
    18
420
        0
370
     5
100
AcDbCircle
 10
4.894461891420339
 20
-11.38788896452545
 30
0.0
 40
3.490353022659872
  0
SPLINE
  5
CC
330
70
100
AcDbEntity
  8
Layer 1
 62
    18
420
        0
370
     5
100
AcDbSpline
210
0.0
220
0.0
230
1.0
 70
     8
 71
     3
 72
    17
 73
    13
 74
     0
 42
0.0000000001
 43
0.0000000001
 40
0.0
 40
0.0
 40
0.0
 40
0.0
 40
1.0
 40
1.0
 40
1.0
 40
2.0
 40
2.0
 40
2.0
 40
3.0
 40
3.0
 40
3.0
 40
4.0
 40
4.0
 40
4.0
 40
4.0
 10
5.044083030722782
 20
-12.77598974988672
 30
0.0
 10
5.810709925705901
 20
-12.6933562763976
 30
0.0
 10
6.365196150270636
 20
-12.00489472020609
 30
0.0
 10
6.282562676781556
 20
-11.23826782522302
 30
0.0
 10
6.199929203292476
 20
-10.47164093023992
 30
0.0
 10
5.511467647101034
 20
-9.917154705675253
 30
0.0
 10
4.744840752117877
 20
-9.999788179164244
 30
0.0
 10
3.978213857134745
 20
-10.08242165265326
 30
0.0
 10
3.423727632570072
 20
-10.77088320884478
 30
0.0
 10
3.506361106059127
 20
-11.53751010382785
 30
0.0
 10
3.576708143171496
 20
-12.19015035184886
 30
0.0
 10
4.092200504092476
 20
-12.70564271277147
 30
0.0
 10
4.744840752113026
 20
-12.77598974988606
 30
0.0
  0
SPLINE
  5
CD
330
70
100
AcDbEntity
  8
Layer 1
 62
    18
420
        0
370
     5
100
AcDbSpline
210
0.0
220
0.0
230
1.0
 70
     8
 71
     3
 72
    17
 73
    13
 74
     0
 42
0.0000000001
 43
0.0000000001
 40
0.0
 40
0.0
 40
0.0
 40
0.0
 40
1.0
 40
1.0
 40
1.0
 40
2.0
 40
2.0
 40
2.0
 40
3.0
 40
3.0
 40
3.0
 40
4.0
 40
4.0
 40
4.0
 40
4.0
 10
5.044086028146933
 20
-12.4947345698936
 30
0.0
 10
5.655379976408943
 20
-12.41209944097287
 30
0.0
 10
6.083942625709091
 20
-11.84955877606083
 30
0.0
 10
6.001307496788411
 20
-11.2382648277989
 30
0.0
 10
5.918672367867732
 20
-10.62697087953686
 30
0.0
 10
5.35613170295576
 20
-10.19840823023673
 30
0.0
 10
4.744837754693725
 20
-10.28104335915744
 30
0.0
 10
4.133543806431715
 20
-10.36367848807809
 30
0.0
 10
3.704981157131568
 20
-10.92621915299001
 30
0.0
 10
3.787616286052259
 20
-11.53751310125214
 30
0.0
 10
3.854952362609537
 20
-12.0356322018911
 30
0.0
 10
4.246732473852489
 20
-12.42740710465513
 30
0.0
 10
4.744852469645744
 20
-12.49473655897105
 30
0.0
  0
SPLINE
  5
CE
330
70
100
AcDbEntity
  8
Layer 1
 62
    18
420
        0
370
     5
100
AcDbSpline
210
0.0
220
0.0
230
1.0
 70
     8
 71
     3
 72
    17
 73
    13
 74
     0
 42
0.0000000001
 43
0.0000000001
 40
0.0
 40
0.0
 40
0.0
 40
0.0
 40
1.0
 40
1.0
 40
1.0
 40
2.0
 40
2.0
 40
2.0
 40
3.0
 40
3.0
 40
3.0
 40
4.0
 40
4.0
 40
4.0
 40
4.0
 10
5.044062097117741
 20
-12.35871527611592
 30
0.0
 10
5.580234663743643
 20
-12.27609336393769
 30
0.0
 10
5.947910115189011
 20
-11.77446132545391
 30
0.0
 10
5.865288203010777
 20
-11.23828875882802
 30
0.0
 10
5.782666290832543
 20
-10.70211619220218
 30
0.0
 10
5.281034252348793
 20
-10.33444074075676
 30
0.0
 10
4.744861685722942
 20
-10.41706265293502
 30
0.0
 10
4.208689119097041
 20
-10.49968456511326
 30
0.0
 10
3.841013667651647
 20
-11.00131660359696
 30
0.0
 10
3.923635579829881
 20
-11.53748917022284
 30
0.0
 10
3.988908245995124
 20
-11.96107429462462
 30
0.0
 10
4.321276561314927
 20
-12.29344260994665
 30
0.0
 10
4.744861685716133
 20
-12.35871527611496
 30
0.0
  0
SPLINE
  5
CF
330
70
100
AcDbEntity
  8
Layer 1
 62
    18
420
        0
370
     5
100
AcDbSpline
210
0.0
220
0.0
230
1.0
 70
     8
 71
     3
 72
    17
 73
    13
 74
     0
 42
0.0000000001
 43
0.0000000001
 40
0.0
 40
0.0
 40
0.0
 40
0.0
 40
1.0
 40
1.0
 40
1.0
 40
2.0
 40
2.0
 40
2.0
 40
3.0
 40
3.0
 40
3.0
 40
4.0
 40
4.0
 40
4.0
 40
4.0
 10
5.168703914629329
 20
-11.86289008229396
 30
0.0
 10
5.431039788125417
 20
-11.71143039511288
 30
0.0
 10
5.520922696369868
 20
-11.37598281481251
 30
0.0
 10
5.369463009188785
 20
-11.11364694131645
 30
0.0
 10
5.218003322007726
 20
-10.85131106782046
 30
0.0
 10
4.882555741707417
 20
-10.76142815957597
 30
0.0
 10
4.62021986821133
 20
-10.91288784675703
 30
0.0
 10
4.357883994715229
 20
-11.06434753393809
 30
0.0
 10
4.268001086470791
 20
-11.39979511423833
 30
0.0
 10
4.419460773651874
 20
-11.6621309877345
 30
0.0
 10
4.467600303383733
 20
-11.74551109908247
 30
0.0
 10
4.536839756863312
 20
-11.81475055256209
 30
0.0
 10
4.62021986821133
 20
-11.86289008229396
 30
0.0
  0
CIRCLE
  5
D0
330
70
100
AcDbEntity
  8
Layer 1
 62
    18
420
        0
370
     5
100
AcDbCircle
 10
4.894461891420335
 20
-11.38788896452546
 30
0.0
 40
0.3988974883039904
  0
SPLINE
  5
D1
330
70
100
AcDbEntity
  8
Layer 1
 62
    18
420
        0
370
     5
100
AcDbSpline
210
0.0
220
0.0
230
1.0
 70
     8
 71
     3
 72
     8
 73
     4
 74
     0
 42
0.0000000001
 43
0.0000000001
 40
0.0
 40
0.0
 40
0.0
 40
0.0
 40
1.0
 40
1.0
 40
1.0
 40
1.0
 10
5.168703914629329
 20
-11.86289008226643
 30
0.0
 10
5.091566844380874
 20
-11.90742519053876
 30
0.0
 10
5.044048449534329
 20
-11.9897294647073
 30
0.0
 10
5.044048449534329
 20
-12.07879968125212
 30
0.0
  0
SPLINE
  5
D2
330
70
100
AcDbEntity
  8
Layer 1
 62
    18
420
        0
370
     5
100
AcDbSpline
210
0.0
220
0.0
230
1.0
 70
     8
 71
     3
 72
     8
 73
     4
 74
     0
 42
0.0000000001
 43
0.0000000001
 40
0.0
 40
0.0
 40
0.0
 40
0.0
 40
1.0
 40
1.0
 40
1.0
 40
1.0
 10
4.360936500813737
 20
-4.389272910131643
 30
0.0
 10
4.360936500813737
 20
-4.307479622161407
 30
0.0
 10
4.295240638673602
 20
-4.240852455158611
 30
0.0
 10
4.21345545357619
 20
-4.239701170847967
 30
0.0
  0
SPLINE
  5
D3
330
70
100
AcDbEntity
  8
Layer 1
 62
    18
420
        0
370
     5
100
AcDbSpline
210
0.0
220
0.0
230
1.0
 70
     8
 71
     3
 72
     8
 73
     4
 74
     0
 42
0.0000000001
 43
0.0000000001
 40
0.0
 40
0.0
 40
0.0
 40
0.0
 40
1.0
 40
1.0
 40
1.0
 40
1.0
 10
1.404108868760456
 20
-1.63112368067531
 30
0.0
 10
1.404108868760456
 20
-1.685763279278047
 30
0.0
 10
1.448077695755765
 20
-1.730228450056882
 30
0.0
 10
1.502713852044596
 20
-1.730841770080802
 30
0.0
  0
SPLINE
  5
D4
330
70
100
AcDbEntity
  8
Layer 1
 62
    18
420
        0
370
     5
100
AcDbSpline
210
0.0
220
0.0
230
1.0
 70
     8
 71
     3
 72
     8
 73
     4
 74
     0
 42
0.0000000001
 43
0.0000000001
 40
0.0
 40
0.0
 40
0.0
 40
0.0
 40
1.0
 40
1.0
 40
1.0
 40
1.0
 10
3.777548924169182
 20
-2.31922931296727
 30
0.0
 10
3.777548924169182
 20
-2.264636758224557
 30
0.0
 10
3.733653023378918
 20
-2.220191546366941
 30
0.0
 10
3.679064690046806
 20
-2.219512652153702
 30
0.0
  0
SPLINE
  5
D5
330
70
100
AcDbEntity
  8
Layer 1
 62
    18
420
        0
370
     5
100
AcDbSpline
210
0.0
220
0.0
230
1.0
 70
     8
 71
     3
 72
     8
 73
     4
 74
     0
 42
0.0000000001
 43
0.0000000001
 40
0.0
 40
0.0
 40
0.0
 40
0.0
 40
1.0
 40
1.0
 40
1.0
 40
1.0
 10
4.495564403116341
 20
-5.866045613923991
 30
0.0
 10
4.495564403116341
 20
-5.833705393791003
 30
0.0
 10
4.469867144301941
 20
-5.807217794596036
 30
0.0
 10
4.437541756612214
 20
-5.806238433090647
 30
0.0
  0
SPLINE
  5
D6
330
70
100
AcDbEntity
  8
Layer 1
 62
    18
420
        0
370
     5
100
AcDbSpline
210
0.0
220
0.0
230
1.0
 70
     8
 71
     3
 72
     8
 73
     4
 74
     0
 42
0.0000000001
 43
0.0000000001
 40
0.0
 40
0.0
 40
0.0
 40
0.0
 40
1.0
 40
1.0
 40
1.0
 40
1.0
 10
4.477273942247935
 20
-5.070994382208898
 30
0.0
 10
4.509662968032216
 20
-5.070098490583985
 30
0.0
 10
4.535454151946724
 20
-5.043584049164021
 30
0.0
 10
4.535454151946724
 20
-5.011182635413129
 30
0.0
  0
SPLINE
  5
D7
330
70
100
AcDbEntity
  8
Layer 1
 62
    18
420
        0
370
     5
100
AcDbSpline
210
0.0
220
0.0
230
1.0
 70
     8
 71
     3
 72
     8
 73
     4
 74
     0
 42
0.0000000001
 43
0.0000000001
 40
0.0
 40
0.0
 40
0.0
 40
0.0
 40
1.0
 40
1.0
 40
1.0
 40
1.0
 10
3.972011449717342
 20
-2.65815156755856
 30
0.0
 10
3.972011449717342
 20
-2.625471830179258
 30
0.0
 10
3.945791255038165
 20
-2.598837003021028
 30
0.0
 10
3.913115539602245
 20
-2.598324308248088
 30
0.0
  0
SPLINE
  5
D8
330
70
100
AcDbEntity
  8
Layer 1
 62
    18
420
        0
370
     5
100
AcDbSpline
210
0.0
220
0.0
230
1.0
 70
     8
 71
     3
 72
     8
 73
     4
 74
     0
 42
0.0000000001
 43
0.0000000001
 40
0.0
 40
0.0
 40
0.0
 40
0.0
 40
1.0
 40
1.0
 40
1.0
 40
1.0
 10
4.495564403116341
 20
-5.93841549460525
 30
0.0
 10
4.495564403116341
 20
-5.95356908079264
 30
0.0
 10
4.504150694949506
 20
-5.967414060364831
 30
0.0
 10
4.517725374688817
 20
-5.974148987559209
 30
0.0
  0
SPLINE
  5
D9
330
70
100
AcDbEntity
  8
Layer 1
 62
    18
420
        0
370
     5
100
AcDbSpline
210
0.0
220
0.0
230
1.0
 70
     8
 71
     3
 72
     8
 73
     4
 74
     0
 42
0.0000000001
 43
0.0000000001
 40
0.0
 40
0.0
 40
0.0
 40
0.0
 40
1.0
 40
1.0
 40
1.0
 40
1.0
 10
4.345977845002368
 20
-5.764671754361996
 30
0.0
 10
4.345977845002368
 20
-5.786177488275622
 30
0.0
 10
4.363025983425674
 20
-5.803811880663892
 30
0.0
 10
4.384519431347598
 20
-5.804538714613158
 30
0.0
  0
SPLINE
  5
DA
330
70
100
AcDbEntity
  8
Layer 1
 62
    18
420
        0
370
     5
100
AcDbSpline
210
0.0
220
0.0
230
1.0
 70
     8
 71
     3
 72
     8
 73
     4
 74
     0
 42
0.0000000001
 43
0.0000000001
 40
0.0
 40
0.0
 40
0.0
 40
0.0
 40
1.0
 40
1.0
 40
1.0
 40
1.0
 10
4.384519431347674
 20
-5.073845484298001
 30
0.0
 10
4.3630259834257
 20
-5.074572318247242
 30
0.0
 10
4.345977845002368
 20
-5.092206710635486
 30
0.0
 10
4.345977845002368
 20
-5.113712444549163
 30
0.0
  0
SPLINE
  5
DB
330
70
100
AcDbEntity
  8
Layer 1
 62
    18
420
        0
370
     5
100
AcDbSpline
210
0.0
220
0.0
230
1.0
 70
     8
 71
     3
 72
     8
 73
     4
 74
     0
 42
0.0000000001
 43
0.0000000001
 40
0.0
 40
0.0
 40
0.0
 40
0.0
 40
1.0
 40
1.0
 40
1.0
 40
1.0
 10
3.91217682647175
 20
-4.195417938466903
 30
0.0
 10
3.91217682647175
 20
-4.217145349924622
 30
0.0
 10
3.929565674645509
 20
-4.234876548934632
 30
0.0
 10
3.951288957251133
 20
-4.235300107062887
 30
0.0
  0
SPLINE
  5
DC
330
70
100
AcDbEntity
  8
Layer 1
 62
    18
420
        0
370
     5
100
AcDbSpline
210
0.0
220
0.0
230
1.0
 70
     8
 71
     3
 72
     8
 73
     4
 74
     0
 42
0.0000000001
 43
0.0000000001
 40
0.0
 40
0.0
 40
0.0
 40
0.0
 40
1.0
 40
1.0
 40
1.0
 40
1.0
 10
3.777548924169182
 20
-2.556854233687406
 30
0.0
 10
3.777548924169182
 20
-2.578616804798532
 30
0.0
 10
3.794992071544356
 20
-2.596363114286961
 30
0.0
 10
3.816751412431143
 20
-2.596738061671468
 30
0.0
  0
SPLINE
  5
DD
330
70
100
AcDbEntity
  8
Layer 1
 62
    18
420
        0
370
     5
100
AcDbSpline
210
0.0
220
0.0
230
1.0
 70
     8
 71
     3
 72
     8
 73
     4
 74
     0
 42
0.0000000001
 43
0.0000000001
 40
0.0
 40
0.0
 40
0.0
 40
0.0
 40
1.0
 40
1.0
 40
1.0
 40
1.0
 10
3.498320682356393
 20
-2.177765785829806
 30
0.0
 10
3.498320682356393
 20
-2.199580327877407
 30
0.0
 10
3.515844221534494
 20
-2.217348850040252
 30
0.0
 10
3.53765666138727
 20
-2.217651690617811
 30
0.0
  0
SPLINE
  5
DE
330
70
100
AcDbEntity
  8
Layer 1
 62
    18
420
        0
370
     5
100
AcDbSpline
210
0.0
220
0.0
230
1.0
 70
     8
 71
     3
 72
     8
 73
     4
 74
     0
 42
0.0000000001
 43
0.0000000001
 40
0.0
 40
0.0
 40
0.0
 40
0.0
 40
1.0
 40
1.0
 40
1.0
 40
1.0
 10
4.360936500813737
 20
-4.451338284909133
 30
0.0
 10
4.360936500813762
 20
-4.472830463697745
 30
0.0
 10
4.377963897752477
 20
-4.490458850815179
 30
0.0
 10
4.399443153547015
 20
-4.491204048503125
 30
0.0
  0
SPLINE
  5
DF
330
70
100
AcDbEntity
  8
Layer 1
 62
    18
420
        0
370
     5
100
AcDbSpline
210
0.0
220
0.0
230
1.0
 70
     8
 71
     3
 72
     8
 73
     4
 74
     0
 42
0.0000000001
 43
0.0000000001
 40
0.0
 40
0.0
 40
0.0
 40
0.0
 40
1.0
 40
1.0
 40
1.0
 40
1.0
 10
3.942094138094552
 20
-3.94405434010303
 30
0.0
 10
3.959706197774632
 20
-3.93950692584748
 30
0.0
 10
3.972011449717342
 20
-3.923620913899109
 30
0.0
 10
3.972011449717342
 20
-3.905431256876883
 30
0.0
  0
SPLINE
  5
E0
330
70
100
AcDbEntity
  8
Layer 1
 62
    18
420
        0
370
     5
100
AcDbSpline
210
0.0
220
0.0
230
1.0
 70
     8
 71
     3
 72
     8
 73
     4
 74
     0
 42
0.0000000001
 43
0.0000000001
 40
0.0
 40
0.0
 40
0.0
 40
0.0
 40
1.0
 40
1.0
 40
1.0
 40
1.0
 10
3.942094138094578
 20
-3.94405434017867
 30
0.0
 10
3.924482078414509
 20
-3.948601754434194
 30
0.0
 10
3.91217682647175
 20
-3.96448776638259
 30
0.0
 10
3.91217682647175
 20
-3.982677423404791
 30
0.0
  0
SPLINE
  5
E1
330
70
100
AcDbEntity
  8
Layer 1
 62
    18
420
        0
370
     5
100
AcDbSpline
210
0.0
220
0.0
230
1.0
 70
     8
 71
     3
 72
     8
 73
     4
 74
     0
 42
0.0000000001
 43
0.0000000001
 40
0.0
 40
0.0
 40
0.0
 40
0.0
 40
1.0
 40
1.0
 40
1.0
 40
1.0
 10
4.535454151946724
 20
-4.510124863542348
 30
0.0
 10
4.535454151946724
 20
-4.50395574209862
 30
0.0
 10
4.53259937267646
 20
-4.498133836782193
 30
0.0
 10
4.527722028710033
 20
-4.494356327653108
 30
0.0
  0
SPLINE
  5
E2
330
70
100
AcDbEntity
  8
Layer 1
 62
    18
420
        0
370
     5
100
AcDbSpline
210
0.0
220
0.0
230
1.0
 70
     8
 71
     3
 72
     8
 73
     4
 74
     0
 42
0.0000000001
 43
0.0000000001
 40
0.0
 40
0.0
 40
0.0
 40
0.0
 40
1.0
 40
1.0
 40
1.0
 40
1.0
 10
1.424053743175666
 20
-1.410600793889481
 30
0.0
 10
1.413038493198832
 20
-1.410600793889481
 30
0.0
 10
1.404108868760456
 20
-1.419530418327882
 30
0.0
 10
1.404108868760456
 20
-1.430545668304691
 30
0.0
  0
SPLINE
  5
E3
330
70
100
AcDbEntity
  8
Layer 1
 62
    18
420
        0
370
     5
100
AcDbSpline
210
0.0
220
0.0
230
1.0
 70
     8
 71
     3
 72
     8
 73
     4
 74
     0
 42
0.0000000001
 43
0.0000000001
 40
0.0
 40
0.0
 40
0.0
 40
0.0
 40
1.0
 40
1.0
 40
1.0
 40
1.0
 10
3.518265556771577
 20
-1.84811746094907
 30
0.0
 10
3.507250306794768
 20
-1.84811746094907
 30
0.0
 10
3.498320682356393
 20
-1.857047085387496
 30
0.0
 10
3.498320682356393
 20
-1.86806233536428
 30
0.0
  0
SPLINE
  5
E4
330
70
100
AcDbEntity
  8
Layer 1
 62
    18
420
        0
370
     5
100
AcDbSpline
210
0.0
220
0.0
230
1.0
 70
     8
 71
     3
 72
     8
 73
     4
 74
     0
 42
0.0000000001
 43
0.0000000001
 40
0.0
 40
0.0
 40
0.0
 40
0.0
 40
1.0
 40
1.0
 40
1.0
 40
1.0
 10
5.351382026233269
 20
-5.806238433069514
 30
0.0
 10
5.369057117019615
 20
-5.805702931262683
 30
0.0
 10
5.386731252753545
 20
-5.805136357558479
 30
0.0
 10
5.404404351501789
 20
-5.804538714583435
 30
0.0
  0
SPLINE
  5
E5
330
70
100
AcDbEntity
  8
Layer 1
 62
    18
420
        0
370
     5
100
AcDbSpline
210
0.0
220
0.0
230
1.0
 70
     8
 71
     3
 72
     8
 73
     4
 74
     0
 42
0.0000000001
 43
0.0000000001
 40
0.0
 40
0.0
 40
0.0
 40
0.0
 40
1.0
 40
1.0
 40
1.0
 40
1.0
 10
4.384519431338869
 20
-5.804538714583435
 30
0.0
 10
4.402192530087088
 20
-5.805136357558479
 30
0.0
 10
4.419866665821043
 20
-5.805702931262683
 30
0.0
 10
4.437541756607389
 20
-5.806238433069514
 30
0.0
  0
SPLINE
  5
E6
330
70
100
AcDbEntity
  8
Layer 1
 62
    18
420
        0
370
     5
100
AcDbSpline
210
0.0
220
0.0
230
1.0
 70
     8
 71
     3
 72
     8
 73
     4
 74
     0
 42
0.0000000001
 43
0.0000000001
 40
0.0
 40
0.0
 40
0.0
 40
0.0
 40
1.0
 40
1.0
 40
1.0
 40
1.0
 10
4.478435342105487
 20
-5.070962302247506
 30
0.0
 10
4.447127121953662
 20
-5.071825885751953
 30
0.0
 10
4.415821666612107
 20
-5.072786951070851
 30
0.0
 10
4.384519431338869
 20
-5.073845484228083
 30
0.0
  0
SPLINE
  5
E7
330
70
100
AcDbEntity
  8
Layer 1
 62
    18
420
        0
370
     5
100
AcDbSpline
210
0.0
220
0.0
230
1.0
 70
     8
 71
     3
 72
     8
 73
     4
 74
     0
 42
0.0000000001
 43
0.0000000001
 40
0.0
 40
0.0
 40
0.0
 40
0.0
 40
1.0
 40
1.0
 40
1.0
 40
1.0
 10
5.404404351501789
 20
-5.073845484228083
 30
0.0
 10
5.370614547636781
 20
-5.072702830118727
 30
0.0
 10
5.336820998598782
 20
-5.071673751044941
 30
0.0
 10
5.303024277042734
 20
-5.070758264445177
 30
0.0
  0
SPLINE
  5
E8
330
70
100
AcDbEntity
  8
Layer 1
 62
    18
420
        0
370
     5
100
AcDbSpline
210
0.0
220
0.0
230
1.0
 70
     8
 71
     3
 72
     8
 73
     4
 74
     0
 42
0.0000000001
 43
0.0000000001
 40
0.0
 40
0.0
 40
0.0
 40
0.0
 40
1.0
 40
1.0
 40
1.0
 40
1.0
 10
4.39944315355491
 20
-4.491204048448417
 30
0.0
 10
4.433351614230761
 20
-4.49238046288086
 30
0.0
 10
4.467264160815223
 20
-4.493435998144036
 30
0.0
 10
4.501180146897316
 20
-4.494370634118177
 30
0.0
  0
SPLINE
  5
E9
330
70
100
AcDbEntity
  8
Layer 1
 62
    18
420
        0
370
     5
100
AcDbSpline
210
0.0
220
0.0
230
1.0
 70
     8
 71
     3
 72
     8
 73
     4
 74
     0
 42
0.0000000001
 43
0.0000000001
 40
0.0
 40
0.0
 40
0.0
 40
0.0
 40
1.0
 40
1.0
 40
1.0
 40
1.0
 10
5.287743635943368
 20
-4.494370634118177
 30
0.0
 10
5.32165962202546
 20
-4.493435998144036
 30
0.0
 10
5.355572168609897
 20
-4.49238046288086
 30
0.0
 10
5.389480629285748
 20
-4.491204048448417
 30
0.0
  0
SPLINE
  5
EA
330
70
100
AcDbEntity
  8
Layer 1
 62
    18
420
        0
370
     5
100
AcDbSpline
210
0.0
220
0.0
230
1.0
 70
     8
 71
     3
 72
     8
 73
     4
 74
     0
 42
0.0000000001
 43
0.0000000001
 40
0.0
 40
0.0
 40
0.0
 40
0.0
 40
1.0
 40
1.0
 40
1.0
 40
1.0
 10
4.517725374689348
 20
-5.974148987506509
 30
0.0
 10
4.755079418207603
 20
-6.0919095706721
 30
0.0
 10
5.033844364633081
 20
-6.0919095706721
 30
0.0
 10
5.271198408151311
 20
-5.974148987506509
 30
0.0
  0
SPLINE
  5
EB
330
70
100
AcDbEntity
  8
Layer 1
 62
    18
420
        0
370
     5
100
AcDbSpline
210
0.0
220
0.0
230
1.0
 70
     8
 71
     3
 72
     8
 73
     4
 74
     0
 42
0.0000000001
 43
0.0000000001
 40
0.0
 40
0.0
 40
0.0
 40
0.0
 40
1.0
 40
1.0
 40
1.0
 40
1.0
 10
5.575468329264493
 20
-4.239701170847967
 30
0.0
 10
5.493683144167081
 20
-4.240852455158611
 30
0.0
 10
5.427987282026921
 20
-4.307479622161407
 30
0.0
 10
5.427987282026921
 20
-4.389272910131643
 30
0.0
  0
SPLINE
  5
EC
330
70
100
AcDbEntity
  8
Layer 1
 62
    18
420
        0
370
     5
100
AcDbSpline
210
0.0
220
0.0
230
1.0
 70
     8
 71
     3
 72
     8
 73
     4
 74
     0
 42
0.0000000001
 43
0.0000000001
 40
0.0
 40
0.0
 40
0.0
 40
0.0
 40
1.0
 40
1.0
 40
1.0
 40
1.0
 10
8.286209930796024
 20
-1.730841770080802
 30
0.0
 10
8.340846087084917
 20
-1.730228450056882
 30
0.0
 10
8.384814914080241
 20
-1.685763279278047
 30
0.0
 10
8.384814914080241
 20
-1.63112368067531
 30
0.0
  0
SPLINE
  5
ED
330
70
100
AcDbEntity
  8
Layer 1
 62
    18
420
        0
370
     5
100
AcDbSpline
210
0.0
220
0.0
230
1.0
 70
     8
 71
     3
 72
     8
 73
     4
 74
     0
 42
0.0000000001
 43
0.0000000001
 40
0.0
 40
0.0
 40
0.0
 40
0.0
 40
1.0
 40
1.0
 40
1.0
 40
1.0
 10
6.109859092793865
 20
-2.219512652153702
 30
0.0
 10
6.055270759461765
 20
-2.220191546366941
 30
0.0
 10
6.011374858671463
 20
-2.264636758224557
 30
0.0
 10
6.011374858671463
 20
-2.31922931296727
 30
0.0
  0
SPLINE
  5
EE
330
70
100
AcDbEntity
  8
Layer 1
 62
    18
420
        0
370
     5
100
AcDbSpline
210
0.0
220
0.0
230
1.0
 70
     8
 71
     3
 72
     8
 73
     4
 74
     0
 42
0.0000000001
 43
0.0000000001
 40
0.0
 40
0.0
 40
0.0
 40
0.0
 40
1.0
 40
1.0
 40
1.0
 40
1.0
 10
5.35138202622732
 20
-5.806238433090697
 30
0.0
 10
5.31905663853806
 20
-5.807217794596655
 30
0.0
 10
5.293359379724316
 20
-5.833705393791433
 30
0.0
 10
5.293359379724316
 20
-5.866045613923991
 30
0.0
  0
SPLINE
  5
EF
330
70
100
AcDbEntity
  8
Layer 1
 62
    18
420
        0
370
     5
100
AcDbSpline
210
0.0
220
0.0
230
1.0
 70
     8
 71
     3
 72
     8
 73
     4
 74
     0
 42
0.0000000001
 43
0.0000000001
 40
0.0
 40
0.0
 40
0.0
 40
0.0
 40
1.0
 40
1.0
 40
1.0
 40
1.0
 10
5.253469630893934
 20
-5.011182635413129
 30
0.0
 10
5.253469630893934
 20
-5.043584049163491
 30
0.0
 10
5.279260814807634
 20
-5.070098490583202
 30
0.0
 10
5.311649840591384
 20
-5.070994382208848
 30
0.0
  0
SPLINE
  5
F0
330
70
100
AcDbEntity
  8
Layer 1
 62
    18
420
        0
370
     5
100
AcDbSpline
210
0.0
220
0.0
230
1.0
 70
     8
 71
     3
 72
     8
 73
     4
 74
     0
 42
0.0000000001
 43
0.0000000001
 40
0.0
 40
0.0
 40
0.0
 40
0.0
 40
1.0
 40
1.0
 40
1.0
 40
1.0
 10
5.875808243238402
 20
-2.598324308248088
 30
0.0
 10
5.843132527802506
 20
-2.598837003021028
 30
0.0
 10
5.816912333123329
 20
-2.625471830179258
 30
0.0
 10
5.816912333123329
 20
-2.65815156755856
 30
0.0
  0
SPLINE
  5
F1
330
70
100
AcDbEntity
  8
Layer 1
 62
    18
420
        0
370
     5
100
AcDbSpline
210
0.0
220
0.0
230
1.0
 70
     8
 71
     3
 72
     8
 73
     4
 74
     0
 42
0.0000000001
 43
0.0000000001
 40
0.0
 40
0.0
 40
0.0
 40
0.0
 40
1.0
 40
1.0
 40
1.0
 40
1.0
 10
5.271198408151841
 20
-5.974148987559209
 30
0.0
 10
5.284773087891178
 20
-5.967414060364831
 30
0.0
 10
5.293359379724316
 20
-5.95356908079264
 30
0.0
 10
5.293359379724316
 20
-5.93841549460525
 30
0.0
  0
SPLINE
  5
F2
330
70
100
AcDbEntity
  8
Layer 1
 62
    18
420
        0
370
     5
100
AcDbSpline
210
0.0
220
0.0
230
1.0
 70
     8
 71
     3
 72
     8
 73
     4
 74
     0
 42
0.0000000001
 43
0.0000000001
 40
0.0
 40
0.0
 40
0.0
 40
0.0
 40
1.0
 40
1.0
 40
1.0
 40
1.0
 10
5.404404351492707
 20
-5.804538714613183
 30
0.0
 10
5.425897799414794
 20
-5.803811880664081
 30
0.0
 10
5.442945937838317
 20
-5.786177488275762
 30
0.0
 10
5.442945937838317
 20
-5.764671754361996
 30
0.0
  0
SPLINE
  5
F3
330
70
100
AcDbEntity
  8
Layer 1
 62
    18
420
        0
370
     5
100
AcDbSpline
210
0.0
220
0.0
230
1.0
 70
     8
 71
     3
 72
     8
 73
     4
 74
     0
 42
0.0000000001
 43
0.0000000001
 40
0.0
 40
0.0
 40
0.0
 40
0.0
 40
1.0
 40
1.0
 40
1.0
 40
1.0
 10
5.442945937838317
 20
-5.113712444549087
 30
0.0
 10
5.442945937838254
 20
-5.092206710635296
 30
0.0
 10
5.425897799414642
 20
-5.074572318246977
 30
0.0
 10
5.404404351492492
 20
-5.073845484298001
 30
0.0
  0
SPLINE
  5
F4
330
70
100
AcDbEntity
  8
Layer 1
 62
    18
420
        0
370
     5
100
AcDbSpline
210
0.0
220
0.0
230
1.0
 70
     8
 71
     3
 72
     8
 73
     4
 74
     0
 42
0.0000000001
 43
0.0000000001
 40
0.0
 40
0.0
 40
0.0
 40
0.0
 40
1.0
 40
1.0
 40
1.0
 40
1.0
 10
5.816912333123329
 20
-3.905431256876883
 30
0.0
 10
5.816912333123329
 20
-3.923620913899109
 30
0.0
 10
5.829217585066039
 20
-3.93950692584748
 30
0.0
 10
5.846829644746119
 20
-3.94405434010303
 30
0.0
  0
SPLINE
  5
F5
330
70
100
AcDbEntity
  8
Layer 1
 62
    18
420
        0
370
     5
100
AcDbSpline
210
0.0
220
0.0
230
1.0
 70
     8
 71
     3
 72
     8
 73
     4
 74
     0
 42
0.0000000001
 43
0.0000000001
 40
0.0
 40
0.0
 40
0.0
 40
0.0
 40
1.0
 40
1.0
 40
1.0
 40
1.0
 10
5.876746956368909
 20
-3.982677423404791
 30
0.0
 10
5.876746956368909
 20
-3.96448776638259
 30
0.0
 10
5.864441704426174
 20
-3.948601754434194
 30
0.0
 10
5.846829644746094
 20
-3.94405434017867
 30
0.0
  0
SPLINE
  5
F6
330
70
100
AcDbEntity
  8
Layer 1
 62
    18
420
        0
370
     5
100
AcDbSpline
210
0.0
220
0.0
230
1.0
 70
     8
 71
     3
 72
     8
 73
     4
 74
     0
 42
0.0000000001
 43
0.0000000001
 40
0.0
 40
0.0
 40
0.0
 40
0.0
 40
1.0
 40
1.0
 40
1.0
 40
1.0
 10
5.837634825589601
 20
-4.235300107062887
 30
0.0
 10
5.859358108195212
 20
-4.234876548934582
 30
0.0
 10
5.876746956368909
 20
-4.217145349924597
 30
0.0
 10
5.876746956368909
 20
-4.195417938466903
 30
0.0
  0
SPLINE
  5
F7
330
70
100
AcDbEntity
  8
Layer 1
 62
    18
420
        0
370
     5
100
AcDbSpline
210
0.0
220
0.0
230
1.0
 70
     8
 71
     3
 72
     8
 73
     4
 74
     0
 42
0.0000000001
 43
0.0000000001
 40
0.0
 40
0.0
 40
0.0
 40
0.0
 40
1.0
 40
1.0
 40
1.0
 40
1.0
 10
5.972172370409629
 20
-2.596738061671468
 30
0.0
 10
5.993931711296353
 20
-2.596363114286911
 30
0.0
 10
6.011374858671463
 20
-2.578616804798507
 30
0.0
 10
6.011374858671463
 20
-2.556854233687406
 30
0.0
  0
SPLINE
  5
F8
330
70
100
AcDbEntity
  8
Layer 1
 62
    18
420
        0
370
     5
100
AcDbSpline
210
0.0
220
0.0
230
1.0
 70
     8
 71
     3
 72
     8
 73
     4
 74
     0
 42
0.0000000001
 43
0.0000000001
 40
0.0
 40
0.0
 40
0.0
 40
0.0
 40
1.0
 40
1.0
 40
1.0
 40
1.0
 10
6.251267121453363
 20
-2.217651690617811
 30
0.0
 10
6.273079561306164
 20
-2.217348850040252
 30
0.0
 10
6.290603100484304
 20
-2.199580327877407
 30
0.0
 10
6.290603100484304
 20
-2.177765785829806
 30
0.0
  0
SPLINE
  5
F9
330
70
100
AcDbEntity
  8
Layer 1
 62
    18
420
        0
370
     5
100
AcDbSpline
210
0.0
220
0.0
230
1.0
 70
     8
 71
     3
 72
     8
 73
     4
 74
     0
 42
0.0000000001
 43
0.0000000001
 40
0.0
 40
0.0
 40
0.0
 40
0.0
 40
1.0
 40
1.0
 40
1.0
 40
1.0
 10
5.389480629294628
 20
-4.491204048503125
 30
0.0
 10
5.4109598850888
 20
-4.490458850814635
 30
0.0
 10
5.427987282026921
 20
-4.472830463697315
 30
0.0
 10
5.427987282026921
 20
-4.451338284909044
 30
0.0
  0
SPLINE
  5
FA
330
70
100
AcDbEntity
  8
Layer 1
 62
    18
420
        0
370
     5
100
AcDbSpline
210
0.0
220
0.0
230
1.0
 70
     8
 71
     3
 72
     8
 73
     4
 74
     0
 42
0.0000000001
 43
0.0000000001
 40
0.0
 40
0.0
 40
0.0
 40
0.0
 40
1.0
 40
1.0
 40
1.0
 40
1.0
 10
5.261201754115568
 20
-4.494356327664755
 30
0.0
 10
5.256324410158046
 20
-4.498133836794433
 30
0.0
 10
5.253469630893934
 20
-4.503955742105327
 30
0.0
 10
5.253469630893934
 20
-4.510124863542348
 30
0.0
  0
SPLINE
  5
FB
330
70
100
AcDbEntity
  8
Layer 1
 62
    18
420
        0
370
     5
100
AcDbSpline
210
0.0
220
0.0
230
1.0
 70
     8
 71
     3
 72
     8
 73
     4
 74
     0
 42
0.0000000001
 43
0.0000000001
 40
0.0
 40
0.0
 40
0.0
 40
0.0
 40
1.0
 40
1.0
 40
1.0
 40
1.0
 10
8.384814913980523
 20
-1.430545668304691
 30
0.0
 10
8.384814913980523
 20
-1.419530418327882
 30
0.0
 10
8.375885289542098
 20
-1.410600793889481
 30
0.0
 10
8.364870039565314
 20
-1.410600793889481
 30
0.0
  0
SPLINE
  5
FC
330
70
100
AcDbEntity
  8
Layer 1
 62
    18
420
        0
370
     5
100
AcDbSpline
210
0.0
220
0.0
230
1.0
 70
     8
 71
     3
 72
     8
 73
     4
 74
     0
 42
0.0000000001
 43
0.0000000001
 40
0.0
 40
0.0
 40
0.0
 40
0.0
 40
1.0
 40
1.0
 40
1.0
 40
1.0
 10
6.290603100484304
 20
-1.86806233536428
 30
0.0
 10
6.290603100484304
 20
-1.857047085387496
 30
0.0
 10
6.281673476045902
 20
-1.84811746094907
 30
0.0
 10
6.270658226069094
 20
-1.84811746094907
 30
0.0
  0
SPLINE
  5
FD
330
70
100
AcDbEntity
  8
Layer 1
 62
    18
420
        0
370
     5
100
AcDbSpline
210
0.0
220
0.0
230
1.0
 70
     8
 71
     3
 72
     8
 73
     4
 74
     0
 42
0.0000000001
 43
0.0000000001
 40
0.0
 40
0.0
 40
0.0
 40
0.0
 40
1.0
 40
1.0
 40
1.0
 40
1.0
 10
6.109859092852338
 20
-2.219512652093107
 30
0.0
 10
6.156995545042579
 20
-2.218926434074142
 30
0.0
 10
6.20413156693894
 20
-2.218306113407
 30
0.0
 10
6.251267121538527
 20
-2.217651690578691
 30
0.0
  0
SPLINE
  5
FE
330
70
100
AcDbEntity
  8
Layer 1
 62
    18
420
        0
370
     5
100
AcDbSpline
210
0.0
220
0.0
230
1.0
 70
     8
 71
     3
 72
     8
 73
     4
 74
     0
 42
0.0000000001
 43
0.0000000001
 40
0.0
 40
0.0
 40
0.0
 40
0.0
 40
1.0
 40
1.0
 40
1.0
 40
1.0
 10
3.537656661302118
 20
-2.217651690578691
 30
0.0
 10
3.584792215901706
 20
-2.218306113407
 30
0.0
 10
3.631928237798092
 20
-2.218926434074142
 30
0.0
 10
3.679064689988283
 20
-2.219512652093107
 30
0.0
  0
SPLINE
  5
FF
330
70
100
AcDbEntity
  8
Layer 1
 62
    18
420
        0
370
     5
100
AcDbSpline
210
0.0
220
0.0
230
1.0
 70
     8
 71
     3
 72
     8
 73
     4
 74
     0
 42
0.0000000001
 43
0.0000000001
 40
0.0
 40
0.0
 40
0.0
 40
0.0
 40
1.0
 40
1.0
 40
1.0
 40
1.0
 10
5.875808243265711
 20
-2.598324308203372
 30
0.0
 10
5.907930021564614
 20
-2.597820304921078
 30
0.0
 10
5.940051406822413
 20
-2.597291555891186
 30
0.0
 10
5.972172370451226
 20
-2.596738061584321
 30
0.0
  0
SPLINE
  5
100
330
70
100
AcDbEntity
  8
Layer 1
 62
    18
420
        0
370
     5
100
AcDbSpline
210
0.0
220
0.0
230
1.0
 70
     8
 71
     3
 72
     8
 73
     4
 74
     0
 42
0.0000000001
 43
0.0000000001
 40
0.0
 40
0.0
 40
0.0
 40
0.0
 40
1.0
 40
1.0
 40
1.0
 40
1.0
 10
3.81675141238942
 20
-2.596738061584321
 30
0.0
 10
3.848872376018258
 20
-2.597291555891186
 30
0.0
 10
3.880993761276019
 20
-2.597820304921078
 30
0.0
 10
3.913115539574934
 20
-2.598324308203372
 30
0.0
  0
SPLINE
  5
101
330
70
100
AcDbEntity
  8
Layer 1
 62
    18
420
        0
370
     5
100
AcDbSpline
210
0.0
220
0.0
230
1.0
 70
     8
 71
     3
 72
     8
 73
     4
 74
     0
 42
0.0000000001
 43
0.0000000001
 40
0.0
 40
0.0
 40
0.0
 40
0.0
 40
1.0
 40
1.0
 40
1.0
 40
1.0
 10
5.57546832928771
 20
-4.239701170911378
 30
0.0
 10
5.662860976180442
 20
-4.238470950754617
 30
0.0
 10
5.750250129111918
 20
-4.237003924090863
 30
0.0
 10
5.837634825598974
 20
-4.235300107077654
 30
0.0
  0
SPLINE
  5
102
330
70
100
AcDbEntity
  8
Layer 1
 62
    18
420
        0
370
     5
100
AcDbSpline
210
0.0
220
0.0
230
1.0
 70
     8
 71
     3
 72
     8
 73
     4
 74
     0
 42
0.0000000001
 43
0.0000000001
 40
0.0
 40
0.0
 40
0.0
 40
0.0
 40
1.0
 40
1.0
 40
1.0
 40
1.0
 10
3.951288957241672
 20
-4.235300107077654
 30
0.0
 10
4.038673653728715
 20
-4.237003924090863
 30
0.0
 10
4.126062806660191
 20
-4.238470950754617
 30
0.0
 10
4.213455453552922
 20
-4.239701170911378
 30
0.0
  0
SPLINE
  5
103
330
70
100
AcDbEntity
  8
Layer 1
 62
    18
420
        0
370
     5
100
AcDbSpline
210
0.0
220
0.0
230
1.0
 70
     8
 71
     3
 72
     8
 73
     4
 74
     0
 42
0.0000000001
 43
0.0000000001
 40
0.0
 40
0.0
 40
0.0
 40
0.0
 40
1.0
 40
1.0
 40
1.0
 40
1.0
 10
17.74353246024675
 20
-14.87778607455352
 30
0.0
 10
17.73023511762156
 20
-14.87786208461564
 30
0.0
 10
17.71693831771093
 20
-14.87801405796853
 30
0.0
 10
17.70364271141779
 20
-14.87824198717304
 30
0.0
  0
SPLINE
  5
104
330
70
100
AcDbEntity
  8
Layer 1
 62
    18
420
        0
370
     5
100
AcDbSpline
210
0.0
220
0.0
230
1.0
 70
     8
 71
     3
 72
     8
 73
     4
 74
     0
 42
0.0000000001
 43
0.0000000001
 40
0.0
 40
0.0
 40
0.0
 40
0.0
 40
1.0
 40
1.0
 40
1.0
 40
1.0
 10
13.36132231105918
 20
-14.47656199304166
 30
0.0
 10
13.36132210522489
 20
-14.5316304266739
 30
0.0
 10
13.40595552527262
 20
-14.57627671270413
 30
0.0
 10
13.46102395667708
 20
-14.57629237855063
 30
0.0
  0
SPLINE
  5
105
330
70
100
AcDbEntity
  8
Layer 1
 62
    18
420
        0
370
     5
100
AcDbSpline
210
0.0
220
0.0
230
1.0
 70
     8
 71
     3
 72
     8
 73
     4
 74
     0
 42
0.0000000001
 43
0.0000000001
 40
0.0
 40
0.0
 40
0.0
 40
0.0
 40
1.0
 40
1.0
 40
1.0
 40
1.0
 10
14.00874809847316
 20
-14.5762923684036
 30
0.0
 10
14.06381668338089
 20
-14.57627754778286
 30
0.0
 10
14.10845025473665
 20
-14.53163057788803
 30
0.0
 10
14.10844854681499
 20
-14.47656199101243
 30
0.0
  0
SPLINE
  5
106
330
70
100
AcDbEntity
  8
Layer 1
 62
    18
420
        0
370
     5
100
AcDbSpline
210
0.0
220
0.0
230
1.0
 70
     8
 71
     3
 72
     8
 73
     4
 74
     0
 42
0.0000000001
 43
0.0000000001
 40
0.0
 40
0.0
 40
0.0
 40
0.0
 40
1.0
 40
1.0
 40
1.0
 40
1.0
 10
17.44323635862648
 20
-14.77963700390119
 30
0.0
 10
17.44384967865037
 20
-14.83427316019002
 30
0.0
 10
17.48831484942907
 20
-14.87824198718527
 30
0.0
 10
17.54295444803195
 20
-14.87824198718527
 30
0.0
  0
SPLINE
  5
107
330
70
100
AcDbEntity
  8
Layer 1
 62
    18
420
        0
370
     5
100
AcDbSpline
210
0.0
220
0.0
230
1.0
 70
     8
 71
     3
 72
     8
 73
     4
 74
     0
 42
0.0000000001
 43
0.0000000001
 40
0.0
 40
0.0
 40
0.0
 40
0.0
 40
1.0
 40
1.0
 40
1.0
 40
1.0
 10
13.36307411717457
 20
-11.8283445463739
 30
0.0
 10
13.36738371366305
 20
-11.68156555082366
 30
0.0
 10
13.36953904466648
 20
-11.53473121365292
 30
0.0
 10
13.36953941398221
 20
-11.38788896443116
 30
0.0
  0
SPLINE
  5
108
330
70
100
AcDbEntity
  8
Layer 1
 62
    18
420
        0
370
     5
100
AcDbSpline
210
0.0
220
0.0
230
1.0
 70
     8
 71
     3
 72
     8
 73
     4
 74
     0
 42
0.0000000001
 43
0.0000000001
 40
0.0
 40
0.0
 40
0.0
 40
0.0
 40
1.0
 40
1.0
 40
1.0
 40
1.0
 10
13.19992914110104
 20
-11.01115244779445
 30
0.0
 10
13.08216855793534
 20
-11.24850649131278
 30
0.0
 10
13.08216855793534
 20
-11.52727143773826
 30
0.0
 10
13.19992914110104
 20
-11.76462548125644
 30
0.0
  0
SPLINE
  5
109
330
70
100
AcDbEntity
  8
Layer 1
 62
    18
420
        0
370
     5
100
AcDbSpline
210
0.0
220
0.0
230
1.0
 70
     8
 71
     3
 72
     8
 73
     4
 74
     0
 42
0.0000000001
 43
0.0000000001
 40
0.0
 40
0.0
 40
0.0
 40
0.0
 40
1.0
 40
1.0
 40
1.0
 40
1.0
 10
14.93437695775942
 20
-12.0688954023641
 30
0.0
 10
14.9332256734458
 20
-11.98711021726891
 30
0.0
 10
14.8665985064439
 20
-11.92141435513195
 30
0.0
 10
14.78480521847584
 20
-11.92141435513195
 30
0.0
  0
SPLINE
  5
10A
330
70
100
AcDbEntity
  8
Layer 1
 62
    18
420
        0
370
     5
100
AcDbSpline
210
0.0
220
0.0
230
1.0
 70
     8
 71
     3
 72
     8
 73
     4
 74
     0
 42
0.0000000001
 43
0.0000000001
 40
0.0
 40
0.0
 40
0.0
 40
0.0
 40
1.0
 40
1.0
 40
1.0
 40
1.0
 10
14.78480521847584
 20
-10.85436357391887
 30
0.0
 10
14.86659850644605
 20
-10.85436357391887
 30
0.0
 10
14.93322567344891
 20
-10.78866771177869
 30
0.0
 10
14.93437695775952
 20
-10.70688252668131
 30
0.0
  0
SPLINE
  5
10B
330
70
100
AcDbEntity
  8
Layer 1
 62
    18
420
        0
370
     5
100
AcDbSpline
210
0.0
220
0.0
230
1.0
 70
     8
 71
     3
 72
     8
 73
     4
 74
     0
 42
0.0000000001
 43
0.0000000001
 40
0.0
 40
0.0
 40
0.0
 40
0.0
 40
1.0
 40
1.0
 40
1.0
 40
1.0
 10
17.54295444803195
 20
-7.897535941865586
 30
0.0
 10
17.48831484942907
 20
-7.897535941865586
 30
0.0
 10
17.44384967865037
 20
-7.941504768860883
 30
0.0
 10
17.44323635862648
 20
-7.996140925149726
 30
0.0
  0
SPLINE
  5
10C
330
70
100
AcDbEntity
  8
Layer 1
 62
    18
420
        0
370
     5
100
AcDbSpline
210
0.0
220
0.0
230
1.0
 70
     8
 71
     3
 72
     8
 73
     4
 74
     0
 42
0.0000000001
 43
0.0000000001
 40
0.0
 40
0.0
 40
0.0
 40
0.0
 40
1.0
 40
1.0
 40
1.0
 40
1.0
 10
16.95456547645378
 20
-12.60328616589549
 30
0.0
 10
16.95388658223869
 20
-12.54869783256471
 30
0.0
 10
16.90944137038155
 20
-12.50480193177668
 30
0.0
 10
16.8548488156402
 20
-12.50480193177668
 30
0.0
  0
SPLINE
  5
10D
330
70
100
AcDbEntity
  8
Layer 1
 62
    18
420
        0
370
     5
100
AcDbSpline
210
0.0
220
0.0
230
1.0
 70
     8
 71
     3
 72
     8
 73
     4
 74
     0
 42
0.0000000001
 43
0.0000000001
 40
0.0
 40
0.0
 40
0.0
 40
0.0
 40
1.0
 40
1.0
 40
1.0
 40
1.0
 10
16.8548488156402
 20
-10.27097599727431
 30
0.0
 10
16.90944137038294
 20
-10.27097599727431
 30
0.0
 10
16.9538865822406
 20
-10.22708009648401
 30
0.0
 10
16.95456547645378
 20
-10.17249176315191
 30
0.0
  0
SPLINE
  5
10E
330
70
100
AcDbEntity
  8
Layer 1
 62
    18
420
        0
370
     5
100
AcDbSpline
210
0.0
220
0.0
230
1.0
 70
     8
 71
     3
 72
     8
 73
     4
 74
     0
 42
0.0000000001
 43
0.0000000001
 40
0.0
 40
0.0
 40
0.0
 40
0.0
 40
1.0
 40
1.0
 40
1.0
 40
1.0
 10
16.57575382035937
 20
-12.36923531634352
 30
0.0
 10
16.57524112558652
 20
-12.33655960090767
 30
0.0
 10
16.54860629842831
 20
-12.31033940622844
 30
0.0
 10
16.51592656104892
 20
-12.31033940622844
 30
0.0
  0
SPLINE
  5
10F
330
70
100
AcDbEntity
  8
Layer 1
 62
    18
420
        0
370
     5
100
AcDbSpline
210
0.0
220
0.0
230
1.0
 70
     8
 71
     3
 72
     8
 73
     4
 74
     0
 42
0.0000000001
 43
0.0000000001
 40
0.0
 40
0.0
 40
0.0
 40
0.0
 40
1.0
 40
1.0
 40
1.0
 40
1.0
 10
16.51592656104892
 20
-10.46543852282249
 30
0.0
 10
16.54860629842831
 20
-10.46543852282249
 30
0.0
 10
16.57524112558652
 20
-10.43921832814332
 30
0.0
 10
16.57575382035937
 20
-10.40654261270737
 30
0.0
  0
SPLINE
  5
110
330
70
100
AcDbEntity
  8
Layer 1
 62
    18
420
        0
370
     5
100
AcDbSpline
210
0.0
220
0.0
230
1.0
 70
     8
 71
     3
 72
     8
 73
     4
 74
     0
 42
0.0000000001
 43
0.0000000001
 40
0.0
 40
0.0
 40
0.0
 40
0.0
 40
1.0
 40
1.0
 40
1.0
 40
1.0
 10
14.10308374639865
 20
-10.97070101535225
 30
0.0
 10
14.10397963802307
 20
-11.00309004113688
 30
0.0
 10
14.13049407944314
 20
-11.02888122505192
 30
0.0
 10
14.16289549319435
 20
-11.02888122505192
 30
0.0
  0
SPLINE
  5
111
330
70
100
AcDbEntity
  8
Layer 1
 62
    18
420
        0
370
     5
100
AcDbSpline
210
0.0
220
0.0
230
1.0
 70
     8
 71
     3
 72
     8
 73
     4
 74
     0
 42
0.0000000001
 43
0.0000000001
 40
0.0
 40
0.0
 40
0.0
 40
0.0
 40
1.0
 40
1.0
 40
1.0
 40
1.0
 10
13.30803251468349
 20
-10.98899147622147
 30
0.0
 10
13.34037273481673
 20
-10.98899147622147
 30
0.0
 10
13.36686033401189
 20
-10.96329421740663
 30
0.0
 10
13.36783969551677
 20
-10.93096882971675
 30
0.0
  0
SPLINE
  5
112
330
70
100
AcDbEntity
  8
Layer 1
 62
    18
420
        0
370
     5
100
AcDbSpline
210
0.0
220
0.0
230
1.0
 70
     8
 71
     3
 72
     8
 73
     4
 74
     0
 42
0.0000000001
 43
0.0000000001
 40
0.0
 40
0.0
 40
0.0
 40
0.0
 40
1.0
 40
1.0
 40
1.0
 40
1.0
 10
14.16868704773234
 20
-11.74689670399905
 30
0.0
 10
14.13564129780191
 20
-11.74689670399905
 30
0.0
 10
14.10885242448676
 20
-11.7736855773142
 30
0.0
 10
14.10885242448676
 20
-11.80673132724465
 30
0.0
  0
SPLINE
  5
113
330
70
100
AcDbEntity
  8
Layer 1
 62
    18
420
        0
370
     5
100
AcDbSpline
210
0.0
220
0.0
230
1.0
 70
     8
 71
     3
 72
     8
 73
     4
 74
     0
 42
0.0000000001
 43
0.0000000001
 40
0.0
 40
0.0
 40
0.0
 40
0.0
 40
1.0
 40
1.0
 40
1.0
 40
1.0
 10
13.36091963391676
 20
-11.8466210760751
 30
0.0
 10
13.36091963391676
 20
-11.81357532614465
 30
0.0
 10
13.33413076060158
 20
-11.78678645282942
 30
0.0
 10
13.30108501067118
 20
-11.78678645282942
 30
0.0
  0
SPLINE
  5
114
330
70
100
AcDbEntity
  8
Layer 1
 62
    18
420
        0
370
     5
100
AcDbSpline
210
0.0
220
0.0
230
1.0
 70
     8
 71
     3
 72
     8
 73
     4
 74
     0
 42
0.0000000001
 43
0.0000000001
 40
0.0
 40
0.0
 40
0.0
 40
0.0
 40
1.0
 40
1.0
 40
1.0
 40
1.0
 10
15.26864687173062
 20
-12.31033940622844
 30
0.0
 10
15.25045721470842
 20
-12.31033940622844
 30
0.0
 10
15.23457120276003
 20
-12.3226446581711
 30
0.0
 10
15.23002378850449
 20
-12.34025671785119
 30
0.0
  0
SPLINE
  5
115
330
70
100
AcDbEntity
  8
Layer 1
 62
    18
420
        0
370
     5
100
AcDbSpline
210
0.0
220
0.0
230
1.0
 70
     8
 71
     3
 72
     8
 73
     4
 74
     0
 42
0.0000000001
 43
0.0000000001
 40
0.0
 40
0.0
 40
0.0
 40
0.0
 40
1.0
 40
1.0
 40
1.0
 40
1.0
 10
15.23002378850449
 20
-10.43552121119966
 30
0.0
 10
15.23457120276003
 20
-10.45313327087973
 30
0.0
 10
15.25045721470842
 20
-10.46543852282249
 30
0.0
 10
15.26864687173062
 20
-10.46543852282249
 30
0.0
  0
SPLINE
  5
116
330
70
100
AcDbEntity
  8
Layer 1
 62
    18
420
        0
370
     5
100
AcDbSpline
210
0.0
220
0.0
230
1.0
 70
     8
 71
     3
 72
     8
 73
     4
 74
     0
 42
0.0000000001
 43
0.0000000001
 40
0.0
 40
0.0
 40
0.0
 40
0.0
 40
1.0
 40
1.0
 40
1.0
 40
1.0
 10
15.23002378852872
 20
-10.43552121120024
 30
0.0
 10
15.22547637427328
 20
-10.41790915151988
 30
0.0
 10
15.20959036232486
 20
-10.40560389957692
 30
0.0
 10
15.19140070530248
 20
-10.40560389957692
 30
0.0
  0
SPLINE
  5
117
330
70
100
AcDbEntity
  8
Layer 1
 62
    18
420
        0
370
     5
100
AcDbSpline
210
0.0
220
0.0
230
1.0
 70
     8
 71
     3
 72
     8
 73
     4
 74
     0
 42
0.0000000001
 43
0.0000000001
 40
0.0
 40
0.0
 40
0.0
 40
0.0
 40
1.0
 40
1.0
 40
1.0
 40
1.0
 10
15.19140070530248
 20
-12.37017402947403
 30
0.0
 10
15.20959036232486
 20
-12.37017402947403
 30
0.0
 10
15.22547637427328
 20
-12.35786877753104
 30
0.0
 10
15.23002378852872
 20
-12.34025671785075
 30
0.0
  0
SPLINE
  5
118
330
70
100
AcDbEntity
  8
Layer 1
 62
    18
420
        0
370
     5
100
AcDbSpline
210
0.0
220
0.0
230
1.0
 70
     8
 71
     3
 72
     8
 73
     4
 74
     0
 42
0.0000000001
 43
0.0000000001
 40
0.0
 40
0.0
 40
0.0
 40
0.0
 40
1.0
 40
1.0
 40
1.0
 40
1.0
 10
14.93877802154457
 20
-12.33106189869469
 30
0.0
 10
14.9392015796729
 20
-12.35278518130043
 30
0.0
 10
14.95693277868291
 20
-12.37017402947403
 30
0.0
 10
14.97866019014057
 20
-12.37017402947403
 30
0.0
  0
SPLINE
  5
119
330
70
100
AcDbEntity
  8
Layer 1
 62
    18
420
        0
370
     5
100
AcDbSpline
210
0.0
220
0.0
230
1.0
 70
     8
 71
     3
 72
     8
 73
     4
 74
     0
 42
0.0000000001
 43
0.0000000001
 40
0.0
 40
0.0
 40
0.0
 40
0.0
 40
1.0
 40
1.0
 40
1.0
 40
1.0
 10
16.57734006703577
 20
-12.46559944351477
 30
0.0
 10
16.57771501442029
 20
-12.48735878440144
 30
0.0
 10
16.59546132390864
 20
-12.50480193177668
 30
0.0
 10
16.61722389501978
 20
-12.50480193177668
 30
0.0
  0
SPLINE
  5
11A
330
70
100
AcDbEntity
  8
Layer 1
 62
    18
420
        0
370
     5
100
AcDbSpline
210
0.0
220
0.0
230
1.0
 70
     8
 71
     3
 72
     8
 73
     4
 74
     0
 42
0.0000000001
 43
0.0000000001
 40
0.0
 40
0.0
 40
0.0
 40
0.0
 40
1.0
 40
1.0
 40
1.0
 40
1.0
 10
16.95642643798967
 20
-12.74469419455845
 30
0.0
 10
16.95672927856726
 20
-12.76650663441129
 30
0.0
 10
16.97449780073015
 20
-12.7840301735894
 30
0.0
 10
16.99631234277765
 20
-12.7840301735894
 30
0.0
  0
SPLINE
  5
11B
330
70
100
AcDbEntity
  8
Layer 1
 62
    18
420
        0
370
     5
100
AcDbSpline
210
0.0
220
0.0
230
1.0
 70
     8
 71
     3
 72
     8
 73
     4
 74
     0
 42
0.0000000001
 43
0.0000000001
 40
0.0
 40
0.0
 40
0.0
 40
0.0
 40
1.0
 40
1.0
 40
1.0
 40
1.0
 10
14.68287408010436
 20
-11.88290770239973
 30
0.0
 10
14.68361927779273
 20
-11.90438695819383
 30
0.0
 10
14.70124766491007
 20
-11.92141435513195
 30
0.0
 10
14.72273984369839
 20
-11.92141435513195
 30
0.0
  0
SPLINE
  5
11C
330
70
100
AcDbEntity
  8
Layer 1
 62
    18
420
        0
370
     5
100
AcDbSpline
210
0.0
220
0.0
230
1.0
 70
     8
 71
     3
 72
     8
 73
     4
 74
     0
 42
0.0000000001
 43
0.0000000001
 40
0.0
 40
0.0
 40
0.0
 40
0.0
 40
1.0
 40
1.0
 40
1.0
 40
1.0
 10
14.97866019014057
 20
-10.40560389957692
 30
0.0
 10
14.95693277868291
 20
-10.40560389957692
 30
0.0
 10
14.939201579673
 20
-10.42299274775066
 30
0.0
 10
14.93877802154457
 20
-10.44471603035617
 30
0.0
  0
SPLINE
  5
11D
330
70
100
AcDbEntity
  8
Layer 1
 62
    18
420
        0
370
     5
100
AcDbSpline
210
0.0
220
0.0
230
1.0
 70
     8
 71
     3
 72
     8
 73
     4
 74
     0
 42
0.0000000001
 43
0.0000000001
 40
0.0
 40
0.0
 40
0.0
 40
0.0
 40
1.0
 40
1.0
 40
1.0
 40
1.0
 10
16.61722389501978
 20
-10.27097599727431
 30
0.0
 10
16.59546132390874
 20
-10.27097599727431
 30
0.0
 10
16.57771501442029
 20
-10.28841914464942
 30
0.0
 10
16.57734006703577
 20
-10.31017848553612
 30
0.0
  0
SPLINE
  5
11E
330
70
100
AcDbEntity
  8
Layer 1
 62
    18
420
        0
370
     5
100
AcDbSpline
210
0.0
220
0.0
230
1.0
 70
     8
 71
     3
 72
     8
 73
     4
 74
     0
 42
0.0000000001
 43
0.0000000001
 40
0.0
 40
0.0
 40
0.0
 40
0.0
 40
1.0
 40
1.0
 40
1.0
 40
1.0
 10
16.99631234277765
 20
-9.991747755461547
 30
0.0
 10
16.97449780073015
 20
-9.991747755461547
 30
0.0
 10
16.95672927856726
 20
-10.00927129463957
 30
0.0
 10
16.95642643798967
 20
-10.03108373449238
 30
0.0
  0
SPLINE
  5
11F
330
70
100
AcDbEntity
  8
Layer 1
 62
    18
420
        0
370
     5
100
AcDbSpline
210
0.0
220
0.0
230
1.0
 70
     8
 71
     3
 72
     8
 73
     4
 74
     0
 42
0.0000000001
 43
0.0000000001
 40
0.0
 40
0.0
 40
0.0
 40
0.0
 40
1.0
 40
1.0
 40
1.0
 40
1.0
 10
14.72273984369839
 20
-10.85436357391887
 30
0.0
 10
14.70124766491017
 20
-10.85436357391887
 30
0.0
 10
14.68361927779283
 20
-10.87139097085699
 30
0.0
 10
14.68287408010436
 20
-10.89287022665121
 30
0.0
  0
SPLINE
  5
120
330
70
100
AcDbEntity
  8
Layer 1
 62
    18
420
        0
370
     5
100
AcDbSpline
210
0.0
220
0.0
230
1.0
 70
     8
 71
     3
 72
     8
 73
     4
 74
     0
 42
0.0000000001
 43
0.0000000001
 40
0.0
 40
0.0
 40
0.0
 40
0.0
 40
1.0
 40
1.0
 40
1.0
 40
1.0
 10
14.10023264440918
 20
-10.87794650445259
 30
0.0
 10
14.09950581045983
 20
-10.85645305653068
 30
0.0
 10
14.08187141807156
 20
-10.8394049181075
 30
0.0
 10
14.06036568415806
 20
-10.8394049181075
 30
0.0
  0
SPLINE
  5
121
330
70
100
AcDbEntity
  8
Layer 1
 62
    18
420
        0
370
     5
100
AcDbSpline
210
0.0
220
0.0
230
1.0
 70
     8
 71
     3
 72
     8
 73
     4
 74
     0
 42
0.0000000001
 43
0.0000000001
 40
0.0
 40
0.0
 40
0.0
 40
0.0
 40
1.0
 40
1.0
 40
1.0
 40
1.0
 10
13.40940637424546
 20
-10.8394049181075
 30
0.0
 10
13.38790064033196
 20
-10.8394049181075
 30
0.0
 10
13.37026624794362
 20
-10.85645305653068
 30
0.0
 10
13.36953941399431
 20
-10.87794650445259
 30
0.0
  0
SPLINE
  5
122
330
70
100
AcDbEntity
  8
Layer 1
 62
    18
420
        0
370
     5
100
AcDbSpline
210
0.0
220
0.0
230
1.0
 70
     8
 71
     3
 72
     8
 73
     4
 74
     0
 42
0.0000000001
 43
0.0000000001
 40
0.0
 40
0.0
 40
0.0
 40
0.0
 40
1.0
 40
1.0
 40
1.0
 40
1.0
 10
13.23566263400228
 20
-10.98899147622147
 30
0.0
 10
13.22050904781395
 20
-10.98899147622147
 30
0.0
 10
13.20666406824117
 20
-10.99757776805563
 30
0.0
 10
13.19992914104715
 20
-11.01115244779617
 30
0.0
  0
SPLINE
  5
123
330
70
100
AcDbEntity
  8
Layer 1
 62
    18
420
        0
370
     5
100
AcDbSpline
210
0.0
220
0.0
230
1.0
 70
     8
 71
     3
 72
     8
 73
     4
 74
     0
 42
0.0000000001
 43
0.0000000001
 40
0.0
 40
0.0
 40
0.0
 40
0.0
 40
1.0
 40
1.0
 40
1.0
 40
1.0
 10
13.19992914104715
 20
-11.76462548125472
 30
0.0
 10
13.20666406824117
 20
-11.77820016099526
 30
0.0
 10
13.22050904781395
 20
-11.78678645282942
 30
0.0
 10
13.23566263400228
 20
-11.78678645282942
 30
0.0
  0
SPLINE
  5
124
330
70
100
AcDbEntity
  8
Layer 1
 62
    18
420
        0
370
     5
100
AcDbSpline
210
0.0
220
0.0
230
1.0
 70
     8
 71
     3
 72
     8
 73
     4
 74
     0
 42
0.0000000001
 43
0.0000000001
 40
0.0
 40
0.0
 40
0.0
 40
0.0
 40
1.0
 40
1.0
 40
1.0
 40
1.0
 10
17.76347733471799
 20
-7.917480816280797
 30
0.0
 10
17.76347733471799
 20
-7.906465566303975
 30
0.0
 10
17.75454771027956
 20
-7.897535941865586
 30
0.0
 10
17.74353246030278
 20
-7.897535941865586
 30
0.0
  0
SPLINE
  5
125
330
70
100
AcDbEntity
  8
Layer 1
 62
    18
420
        0
370
     5
100
AcDbSpline
210
0.0
220
0.0
230
1.0
 70
     8
 71
     3
 72
     8
 73
     4
 74
     0
 42
0.0000000001
 43
0.0000000001
 40
0.0
 40
0.0
 40
0.0
 40
0.0
 40
1.0
 40
1.0
 40
1.0
 40
1.0
 10
17.30601579324323
 20
-12.7840301735894
 30
0.0
 10
17.31703104322001
 20
-12.7840301735894
 30
0.0
 10
17.32596066765834
 20
-12.77510054915097
 30
0.0
 10
17.32596066765834
 20
-12.76408529917426
 30
0.0
  0
SPLINE
  5
126
330
70
100
AcDbEntity
  8
Layer 1
 62
    18
420
        0
370
     5
100
AcDbSpline
210
0.0
220
0.0
230
1.0
 70
     8
 71
     3
 72
     8
 73
     4
 74
     0
 42
0.0000000001
 43
0.0000000001
 40
0.0
 40
0.0
 40
0.0
 40
0.0
 40
1.0
 40
1.0
 40
1.0
 40
1.0
 10
17.32596066765834
 20
-10.01169262987668
 30
0.0
 10
17.32596066765834
 20
-10.00067737989987
 30
0.0
 10
17.31703104322001
 20
-9.991747755461547
 30
0.0
 10
17.30601579324323
 20
-9.991747755461547
 30
0.0
  0
SPLINE
  5
127
330
70
100
AcDbEntity
  8
Layer 1
 62
    18
420
        0
370
     5
100
AcDbSpline
210
0.0
220
0.0
230
1.0
 70
     8
 71
     3
 72
     8
 73
     4
 74
     0
 42
0.0000000001
 43
0.0000000001
 40
0.0
 40
0.0
 40
0.0
 40
0.0
 40
1.0
 40
1.0
 40
1.0
 40
1.0
 10
14.66395326506522
 20
-11.02888122505192
 30
0.0
 10
14.67012238651091
 20
-11.02888122505192
 30
0.0
 10
14.675944291829
 20
-11.02602644577978
 30
0.0
 10
14.6797218009579
 20
-11.02114910181055
 30
0.0
  0
SPLINE
  5
128
330
70
100
AcDbEntity
  8
Layer 1
 62
    18
420
        0
370
     5
100
AcDbSpline
210
0.0
220
0.0
230
1.0
 70
     8
 71
     3
 72
     8
 73
     4
 74
     0
 42
0.0000000001
 43
0.0000000001
 40
0.0
 40
0.0
 40
0.0
 40
0.0
 40
1.0
 40
1.0
 40
1.0
 40
1.0
 10
14.67972180094618
 20
-11.75462882722515
 30
0.0
 10
14.67594429181672
 20
-11.74975148326492
 30
0.0
 10
14.67012238650416
 20
-11.74689670399905
 30
0.0
 10
14.66395326506522
 20
-11.74689670399905
 30
0.0
  0
SPLINE
  5
129
330
70
100
AcDbEntity
  8
Layer 1
 62
    18
420
        0
370
     5
100
AcDbSpline
210
0.0
220
0.0
230
1.0
 70
     8
 71
     3
 72
     8
 73
     4
 74
     0
 42
0.0000000001
 43
0.0000000001
 40
0.0
 40
0.0
 40
0.0
 40
0.0
 40
1.0
 40
1.0
 40
1.0
 40
1.0
 10
17.44323635858508
 20
-7.996140925282108
 30
0.0
 10
17.434165087481
 20
-8.804233546524553
 30
0.0
 10
17.42833573309215
 20
-9.612359308172193
 30
0.0
 10
17.4257484361462
 20
-10.42049870107457
 30
0.0
  0
SPLINE
  5
12A
330
70
100
AcDbEntity
  8
Layer 1
 62
    18
420
        0
370
     5
100
AcDbSpline
210
0.0
220
0.0
230
1.0
 70
     8
 71
     3
 72
     8
 73
     4
 74
     0
 42
0.0000000001
 43
0.0000000001
 40
0.0
 40
0.0
 40
0.0
 40
0.0
 40
1.0
 40
1.0
 40
1.0
 40
1.0
 10
17.4257484361462
 20
-12.35527922797632
 30
0.0
 10
17.42833573309215
 20
-13.16341862087865
 30
0.0
 10
17.434165087481
 20
-13.97154438252631
 30
0.0
 10
17.44323635858508
 20
-14.77963700376889
 30
0.0
  0
SPLINE
  5
12B
330
70
100
AcDbEntity
  8
Layer 1
 62
    18
420
        0
370
     5
100
AcDbSpline
210
0.0
220
0.0
230
1.0
 70
     8
 71
     3
 72
    17
 73
    13
 74
     0
 42
0.0000000001
 43
0.0000000001
 40
0.0
 40
0.0
 40
0.0
 40
0.0
 40
1.0
 40
1.0
 40
1.0
 40
2.0
 40
2.0
 40
2.0
 40
3.0
 40
3.0
 40
3.0
 40
4.0
 40
4.0
 40
4.0
 40
4.0
 10
17.76347733471799
 20
-14.85778125863804
 30
0.0
 10
17.76347733471799
 20
-14.86040637698043
 30
0.0
 10
17.76294565943041
 20
-14.86306094038064
 30
0.0
 10
17.76192315941274
 20
-14.86550173501059
 30
0.0
 10
17.76090120841642
 20
-14.86794121907959
 30
0.0
 10
17.75938895963557
 20
-14.870167163879
 30
0.0
 10
17.75750803189312
 20
-14.87201796701538
 30
0.0
 10
17.75564144466855
 20
-14.87385465930899
 30
0.0
 10
17.75341177879558
 20
-14.87532190842297
 30
0.0
 10
17.75098065117001
 20
-14.87630828482767
 30
0.0
 10
17.74861729167049
 20
-14.87726716581013
 30
0.0
 10
17.74606354544337
 20
-14.87777160926165
 30
0.0
 10
17.74353246030278
 20
-14.87778607448119
 30
0.0
  0
SPLINE
  5
12C
330
70
100
AcDbEntity
  8
Layer 1
 62
    18
420
        0
370
     5
100
AcDbSpline
210
0.0
220
0.0
230
1.0
 70
     8
 71
     3
 72
    29
 73
    25
 74
     0
 42
0.0000000001
 43
0.0000000001
 40
0.0
 40
0.0
 40
0.0
 40
0.0
 40
1.0
 40
1.0
 40
1.0
 40
2.0
 40
2.0
 40
2.0
 40
3.0
 40
3.0
 40
3.0
 40
4.0
 40
4.0
 40
4.0
 40
5.0
 40
5.0
 40
5.0
 40
6.0
 40
6.0
 40
6.0
 40
7.0
 40
7.0
 40
7.0
 40
8.0
 40
8.0
 40
8.0
 40
8.0
 10
14.06681388828401
 20
-11.86289008221266
 30
0.0
 10
14.06939953841258
 20
-11.8628711595131
 30
0.0
 10
14.07198833651995
 20
-11.8626296558197
 30
0.0
 10
14.07453800969372
 20
-11.86217492454787
 30
0.0
 10
14.07707689158522
 20
-11.86172211788875
 30
0.0
 10
14.07957697902846
 20
-11.86105788476791
 30
0.0
 10
14.08199952680426
 20
-11.8601771799223
 30
0.0
 10
14.08437838069734
 20
-11.85931235976388
 30
0.0
 10
14.08668246676133
 20
-11.8582388061736
 30
0.0
 10
14.08887060716935
 20
-11.85696461053956
 30
0.0
 10
14.09100568366476
 20
-11.85572131502744
 30
0.0
 10
14.09303036984112
 20
-11.85428699089069
 30
0.0
 10
14.09489777782871
 20
-11.8526693809173
 30
0.0
 10
14.09671453254347
 20
-11.85109564846819
 30
0.0
 10
14.09838242566358
 20
-11.84934843855136
 30
0.0
 10
14.0998567733759
 20
-11.84744895251917
 30
0.0
 10
14.10129267344766
 20
-11.84559900076962
 30
0.0
 10
14.10254499094107
 20
-11.84360461137993
 30
0.0
 10
14.10356579900758
 20
-11.84149757274341
 30
0.0
 10
14.10456469605095
 20
-11.83943576040691
 30
0.0
 10
14.10534191542388
 20
-11.83726608281861
 30
0.0
 10
14.10587226618791
 20
-11.835034786927
 30
0.0
 10
14.10639326303781
 20
-11.83284284489632
 30
0.0
 10
14.10667602263798
 20
-11.83059143894598
 30
0.0
 10
14.10669794115738
 20
-11.8283445464262
 30
0.0
  0
SPLINE
  5
12D
330
70
100
AcDbEntity
  8
Layer 1
 62
    18
420
        0
370
     5
100
AcDbSpline
210
0.0
220
0.0
230
1.0
 70
     8
 71
     3
 72
    29
 73
    25
 74
     0
 42
0.0000000001
 43
0.0000000001
 40
0.0
 40
0.0
 40
0.0
 40
0.0
 40
1.0
 40
1.0
 40
1.0
 40
2.0
 40
2.0
 40
2.0
 40
3.0
 40
3.0
 40
3.0
 40
4.0
 40
4.0
 40
4.0
 40
5.0
 40
5.0
 40
5.0
 40
6.0
 40
6.0
 40
6.0
 40
7.0
 40
7.0
 40
7.0
 40
8.0
 40
8.0
 40
8.0
 40
8.0
 10
13.40295817011952
 20
-11.86289008221266
 30
0.0
 10
13.40037251999089
 20
-11.8628711595131
 30
0.0
 10
13.39778372190527
 20
-11.86262965581702
 30
0.0
 10
13.39523404876119
 20
-11.86217492455431
 30
0.0
 10
13.39269516695496
 20
-11.86172211791424
 30
0.0
 10
13.39019507960344
 20
-11.86105788483337
 30
0.0
 10
13.3877725319021
 20
-11.86017718003124
 30
0.0
 10
13.38539367806354
 20
-11.85931235990895
 30
0.0
 10
13.38308959203863
 20
-11.85823880635454
 30
0.0
 10
13.38090145166562
 20
-11.85696461076883
 30
0.0
 10
13.37876637517052
 20
-11.85572131528442
 30
0.0
 10
13.37674168899419
 20
-11.85428699118089
 30
0.0
 10
13.37487428100366
 20
-11.85266938125902
 30
0.0
 10
13.37305752625573
 20
-11.85109564883393
 30
0.0
 10
13.3713896331047
 20
-11.84934843895265
 30
0.0
 10
13.36991528535337
 20
-11.84744895296019
 30
0.0
 10
13.36847938521234
 20
-11.84559900120894
 30
0.0
 10
13.36722706765009
 20
-11.84360461181551
 30
0.0
 10
13.36620625954856
 20
-11.84149757314607
 30
0.0
 10
13.3652073624541
 20
-11.83943576074307
 30
0.0
 10
13.36443014306991
 20
-11.83726608305695
 30
0.0
 10
13.36389979225083
 20
-11.83503478704978
 30
0.0
 10
13.36337879536093
 20
-11.83284284496469
 30
0.0
 10
13.36309603566588
 20
-11.83059143894598
 30
0.0
 10
13.36307411714637
 20
-11.8283445464262
 30
0.0
  0
SPLINE
  5
12E
330
70
100
AcDbEntity
  8
Layer 1
 62
    18
420
        0
370
     5
100
AcDbSpline
210
0.0
220
0.0
230
1.0
 70
     8
 71
     3
 72
    77
 73
    73
 74
     0
 42
0.0000000001
 43
0.0000000001
 40
0.0
 40
0.0
 40
0.0
 40
0.0
 40
1.0
 40
1.0
 40
1.0
 40
2.0
 40
2.0
 40
2.0
 40
3.0
 40
3.0
 40
3.0
 40
4.0
 40
4.0
 40
4.0
 40
5.0
 40
5.0
 40
5.0
 40
6.0
 40
6.0
 40
6.0
 40
7.0
 40
7.0
 40
7.0
 40
8.0
 40
8.0
 40
8.0
 40
9.0
 40
9.0
 40
9.0
 40
10.0
 40
10.0
 40
10.0
 40
11.0
 40
11.0
 40
11.0
 40
12.0
 40
12.0
 40
12.0
 40
13.0
 40
13.0
 40
13.0
 40
14.0
 40
14.0
 40
14.0
 40
15.0
 40
15.0
 40
15.0
 40
16.0
 40
16.0
 40
16.0
 40
17.0
 40
17.0
 40
17.0
 40
18.0
 40
18.0
 40
18.0
 40
19.0
 40
19.0
 40
19.0
 40
20.0
 40
20.0
 40
20.0
 40
21.0
 40
21.0
 40
21.0
 40
22.0
 40
22.0
 40
22.0
 40
23.0
 40
23.0
 40
23.0
 40
24.0
 40
24.0
 40
24.0
 40
24.0
 10
14.10885242448676
 20
-11.80673132724465
 30
0.0
 10
14.10885360532307
 20
-11.80668892912867
 30
0.0
 10
14.10885078777988
 20
-11.80664653049709
 30
0.0
 10
14.10884891587152
 20
-11.80660413202587
 30
0.0
 10
14.10884658121626
 20
-11.80655125239749
 30
0.0
 10
14.1088457175178
 20
-11.80649837301856
 30
0.0
 10
14.10884453482655
 20
-11.80644549356144
 30
0.0
 10
14.10884288046019
 20
-11.80637152498126
 30
0.0
 10
14.10884060192605
 20
-11.80629755624821
 30
0.0
 10
14.10883841306572
 20
-11.8062235874978
 30
0.0
 10
14.10883216591203
 20
-11.80601247573418
 30
0.0
 10
14.10882664921488
 20
-11.80580136382895
 30
0.0
 10
14.10882097857701
 20
-11.80559025169608
 30
0.0
 10
14.10881304955996
 20
-11.80529506238882
 30
0.0
 10
14.10880481956911
 20
-11.8049998726366
 30
0.0
 10
14.10879667497079
 20
-11.80470468259556
 30
0.0
 10
14.10878621573523
 20
-11.80432560163505
 30
0.0
 10
14.10877589732477
 20
-11.80394652019804
 30
0.0
 10
14.10876556474947
 20
-11.80356743832501
 30
0.0
 10
14.10875295064827
 20
-11.80310465175358
 30
0.0
 10
14.1087403154359
 20
-11.80264186453251
 30
0.0
 10
14.10872771046274
 20
-11.80217907678742
 30
0.0
 10
14.10871283069281
 20
-11.80163277056832
 30
0.0
 10
14.10869799306136
 20
-11.80108646361901
 30
0.0
 10
14.10868317466475
 20
-11.80054015605434
 30
0.0
 10
14.10866609695247
 20
-11.79991055464612
 30
0.0
 10
14.10864904478749
 20
-11.79928095242068
 30
0.0
 10
14.10863203127181
 20
-11.79865134916521
 30
0.0
 10
14.10859130433105
 20
-11.79714420537816
 30
0.0
 10
14.10855079886139
 20
-11.79563705568835
 30
0.0
 10
14.10851053014079
 20
-11.79412989965863
 30
0.0
 10
14.10846152756019
 20
-11.79229585741048
 30
0.0
 10
14.10841287556228
 20
-11.79046180577395
 30
0.0
 10
14.10836456076112
 20
-11.78862774525547
 30
0.0
 10
14.10830775164403
 20
-11.78647123511311
 30
0.0
 10
14.10825140871267
 20
-11.784314712691
 30
0.0
 10
14.10819550431061
 20
-11.78215817890461
 30
0.0
 10
14.10813136700024
 20
-11.77968405752239
 30
0.0
 10
14.10806780689197
 20
-11.77720992118215
 30
0.0
 10
14.10800485583458
 20
-11.77473576933605
 30
0.0
 10
14.10793399317933
 20
-11.7719506696603
 30
0.0
 10
14.10786390228418
 20
-11.76916555033628
 30
0.0
 10
14.10779458635321
 20
-11.76638041173052
 30
0.0
 10
14.10771770839702
 20
-11.76329142827724
 30
0.0
 10
14.10764178371778
 20
-11.76020242110543
 30
0.0
 10
14.10756679114405
 20
-11.75711339121648
 30
0.0
 10
14.10739540174103
 20
-11.75005366566875
 30
0.0
 10
14.10722888085216
 20
-11.74299382146574
 30
0.0
 10
14.10706728786928
 20
-11.73593386444918
 30
0.0
 10
14.10688016754739
 20
-11.72775862437695
 30
0.0
 10
14.10669965506284
 20
-11.71958323303286
 30
0.0
 10
14.10652572117854
 20
-11.71140770161246
 30
0.0
 10
14.10632974805008
 20
-11.70219624476676
 30
0.0
 10
14.1061421263001
 20
-11.69298461009743
 30
0.0
 10
14.10596287329485
 20
-11.68377281242821
 30
0.0
 10
14.10576523349118
 20
-11.67361611866358
 30
0.0
 10
14.10557776732498
 20
-11.66345922674463
 30
0.0
 10
14.10540046196171
 20
-11.65330215736799
 30
0.0
 10
14.10520837109713
 20
-11.64229808956737
 30
0.0
 10
14.10502820631212
 20
-11.63129381347837
 30
0.0
 10
14.10486001323081
 20
-11.6202893540141
 30
0.0
 10
14.10468048685127
 20
-11.60854338473369
 30
0.0
 10
14.10451459990243
 20
-11.59679720653275
 30
0.0
 10
14.10436227912108
 20
-11.58505085338263
 30
0.0
 10
14.1042018159634
 20
-11.57267659361946
 30
0.0
 10
14.1040564081093
 20
-11.56030213970322
 30
0.0
 10
14.10392611862481
 20
-11.54792752197542
 30
0.0
 10
14.10365074712889
 20
-11.5217733238257
 30
0.0
 10
14.10344290990007
 20
-11.49561839392416
 30
0.0
 10
14.10330259575638
 20
-11.46946309260041
 30
0.0
 10
14.10315672476958
 20
-11.44227196620396
 30
0.0
 10
14.10308383098686
 20
-11.41508043838394
 30
0.0
 10
14.10308374632086
 20
-11.38788896452552
 30
0.0
  0
SPLINE
  5
12F
330
70
100
AcDbEntity
  8
Layer 1
 62
    18
420
        0
370
     5
100
AcDbSpline
210
0.0
220
0.0
230
1.0
 70
     8
 71
     3
 72
    80
 73
    76
 74
     0
 42
0.0000000001
 43
0.0000000001
 40
0.0
 40
0.0
 40
0.0
 40
0.0
 40
1.0
 40
1.0
 40
1.0
 40
2.0
 40
2.0
 40
2.0
 40
3.0
 40
3.0
 40
3.0
 40
4.0
 40
4.0
 40
4.0
 40
5.0
 40
5.0
 40
5.0
 40
6.0
 40
6.0
 40
6.0
 40
7.0
 40
7.0
 40
7.0
 40
8.0
 40
8.0
 40
8.0
 40
9.0
 40
9.0
 40
9.0
 40
10.0
 40
10.0
 40
10.0
 40
11.0
 40
11.0
 40
11.0
 40
12.0
 40
12.0
 40
12.0
 40
13.0
 40
13.0
 40
13.0
 40
14.0
 40
14.0
 40
14.0
 40
15.0
 40
15.0
 40
15.0
 40
16.0
 40
16.0
 40
16.0
 40
17.0
 40
17.0
 40
17.0
 40
18.0
 40
18.0
 40
18.0
 40
19.0
 40
19.0
 40
19.0
 40
20.0
 40
20.0
 40
20.0
 40
21.0
 40
21.0
 40
21.0
 40
22.0
 40
22.0
 40
22.0
 40
23.0
 40
23.0
 40
23.0
 40
24.0
 40
24.0
 40
24.0
 40
25.0
 40
25.0
 40
25.0
 40
25.0
 10
13.36783969547716
 20
-11.38788896452552
 30
0.0
 10
13.36783963065631
 20
-11.41766639815664
 30
0.0
 10
13.36775220683547
 20
-11.44744390308169
 30
0.0
 10
13.36757721910622
 20
-11.47722088001973
 30
0.0
 10
13.36740890649167
 20
-11.505861978823
 30
0.0
 10
13.36715958301028
 20
-11.53450258915255
 30
0.0
 10
13.36682942674421
 20
-11.56314224052195
 30
0.0
 10
13.36667319175944
 20
-11.57669496071629
 30
0.0
 10
13.36649885567216
 20
-11.59024746616794
 30
0.0
 10
13.3663063880835
 20
-11.60379971551174
 30
0.0
 10
13.36612368092879
 20
-11.61666470195665
 30
0.0
 10
13.36592463461627
 20
-11.62952945761046
 30
0.0
 10
13.36570929281293
 20
-11.64239393988618
 30
0.0
 10
13.36550752528046
 20
-11.65444749754275
 30
0.0
 10
13.36529145190939
 20
-11.66650081520045
 30
0.0
 10
13.36506102713812
 20
-11.67855385836803
 30
0.0
 10
13.36484833687776
 20
-11.68967924595439
 30
0.0
 10
13.36462341930092
 20
-11.70080439967667
 30
0.0
 10
13.36438633024479
 20
-11.71192929376068
 30
0.0
 10
13.36417129931313
 20
-11.72201915779778
 30
0.0
 10
13.36394625634969
 20
-11.73210880826094
 30
0.0
 10
13.36371116241768
 20
-11.74219822431693
 30
0.0
 10
13.36350249826437
 20
-11.75115336595872
 30
0.0
 10
13.3632859160149
 20
-11.76010832293577
 30
0.0
 10
13.36306144721528
 20
-11.76906308220575
 30
0.0
 10
13.36286759692343
 20
-11.77679637387629
 30
0.0
 10
13.3626678648618
 20
-11.78452951809731
 30
0.0
 10
13.36246224972905
 20
-11.79226250529879
 30
0.0
 10
13.36237226920715
 20
-11.79564658611055
 30
0.0
 10
13.36228116203003
 20
-11.79903063685169
 30
0.0
 10
13.3621889081817
 20
-11.80241465633611
 30
0.0
 10
13.36210572426209
 20
-11.80546597624998
 30
0.0
 10
13.36202160805732
 20
-11.8085172707511
 30
0.0
 10
13.36193658718694
 20
-11.81156854003822
 30
0.0
 10
13.36186106441836
 20
-11.81427893694968
 30
0.0
 10
13.36178482782315
 20
-11.81698931396615
 30
0.0
 10
13.36170789185904
 20
-11.81969967113738
 30
0.0
 10
13.3616408283918
 20
-11.82206223266955
 30
0.0
 10
13.36157323352699
 20
-11.82442477912289
 30
0.0
 10
13.36150506856117
 20
-11.82678730910793
 30
0.0
 10
13.36144708966695
 20
-11.82879679997331
 30
0.0
 10
13.36138869832489
 20
-11.83080627892438
 30
0.0
 10
13.36132988150663
 20
-11.83281574545769
 30
0.0
 10
13.36128154813531
 20
-11.83446704682387
 30
0.0
 10
13.36123292744375
 20
-11.83611833980434
 30
0.0
 10
13.3611840611239
 20
-11.83776962543563
 30
0.0
 10
13.36116364991906
 20
-11.83845935876047
 30
0.0
 10
13.36114319585967
 20
-11.83914909080332
 30
0.0
 10
13.36112270280932
 20
-11.83983882174074
 30
0.0
 10
13.3611049216847
 20
-11.84043727787932
 30
0.0
 10
13.36108711120596
 20
-11.84103573318599
 30
0.0
 10
13.36106927485
 20
-11.84163418752822
 30
0.0
 10
13.36105416535042
 20
-11.84214114902278
 30
0.0
 10
13.36103903728129
 20
-11.84264810982533
 30
0.0
 10
13.36102385885536
 20
-11.84315506975965
 30
0.0
 10
13.36101142577334
 20
-11.84357033511623
 30
0.0
 10
13.36099895890336
 20
-11.84398559989035
 30
0.0
 10
13.36098653123705
 20
-11.8444008639989
 30
0.0
 10
13.36097685376434
 20
-11.84472423179436
 30
0.0
 10
13.36096720006397
 20
-11.84504759918617
 30
0.0
 10
13.36095736853675
 20
-11.84537096602437
 30
0.0
 10
13.36095033712402
 20
-11.84560223484133
 30
0.0
 10
13.36094321475348
 20
-11.84583350337516
 30
0.0
 10
13.36093644707062
 20
-11.84606477163194
 30
0.0
 10
13.36093407573581
 20
-11.84614580593415
 30
0.0
 10
13.36093174794748
 20
-11.84622684020216
 30
0.0
 10
13.36092910073158
 20
-11.84630787436776
 30
0.0
 10
13.36092720814958
 20
-11.84636580837107
 30
0.0
 10
13.3609251522989
 20
-11.84642374232183
 30
0.0
 10
13.36092384338162
 20
-11.8464816763583
 30
0.0
 10
13.36092305694248
 20
-11.84651648496593
 30
0.0
 10
13.36092254014544
 20
-11.84655129360451
 30
0.0
 10
13.3609206845586
 20
-11.84658610208195
 30
0.0
 10
13.36092006309554
 20
-11.84659775994868
 30
0.0
 10
13.36091929146326
 20
-11.84660941779733
 30
0.0
 10
13.36091963391676
 20
-11.8466210760751
 30
0.0
  0
SPLINE
  5
130
330
70
100
AcDbEntity
  8
Layer 1
 62
    18
420
        0
370
     5
100
AcDbSpline
210
0.0
220
0.0
230
1.0
 70
     8
 71
     3
 72
    23
 73
    19
 74
     0
 42
0.0000000001
 43
0.0000000001
 40
0.0
 40
0.0
 40
0.0
 40
0.0
 40
1.0
 40
1.0
 40
1.0
 40
2.0
 40
2.0
 40
2.0
 40
3.0
 40
3.0
 40
3.0
 40
4.0
 40
4.0
 40
4.0
 40
5.0
 40
5.0
 40
5.0
 40
6.0
 40
6.0
 40
6.0
 40
6.0
 10
13.36307411714637
 20
-11.8283445464262
 30
0.0
 10
13.3628687965315
 20
-11.83533999871454
 30
0.0
 10
13.36270983260523
 20
-11.84233679858046
 30
0.0
 10
13.36257460731551
 20
-11.84933399796098
 30
0.0
 10
13.36241410277499
 20
-11.85763926596208
 30
0.0
 10
13.36228704195425
 20
-11.8659450968113
 30
0.0
 10
13.36217938101587
 20
-11.87425117361163
 30
0.0
 10
13.3620565752757
 20
-11.88372567683682
 30
0.0
 10
13.361959011323
 20
-11.89320050007659
 30
0.0
 10
13.36187693532186
 20
-11.9026754463789
 30
0.0
 10
13.36178613143998
 20
-11.91315794909653
 30
0.0
 10
13.36171428459405
 20
-11.92364060244093
 30
0.0
 10
13.36165416823251
 20
-11.93412331929744
 30
0.0
 10
13.3615207950455
 20
-11.95738010529754
 30
0.0
 10
13.36144516064147
 20
-11.98063720391143
 30
0.0
 10
13.36139589984201
 20
-12.00389433367488
 30
0.0
 10
13.36134301435757
 20
-12.02886275859461
 30
0.0
 10
13.36132052649084
 20
-12.05383121941675
 30
0.0
 10
13.36132052180384
 20
-12.07879968125212
 30
0.0
  0
LINE
  5
131
330
70
100
AcDbEntity
  8
Layer 1
 62
    18
420
        0
370
     5
100
AcDbLine
 10
13.36091963391676
 20
-11.8466210760751
 30
0.0
 11
13.36091963391676
 21
-12.07879968125212
 31
0.0
  0
LINE
  5
132
330
70
100
AcDbEntity
  8
Layer 1
 62
    18
420
        0
370
     5
100
AcDbLine
 10
13.36783969547716
 20
-10.93096882965844
 30
0.0
 11
13.36953941402966
 21
-10.8779465044206
 31
0.0
  0
LINE
  5
133
330
70
100
AcDbEntity
  8
Layer 1
 62
    18
420
        0
370
     5
100
AcDbLine
 10
14.10023264437382
 20
-10.8779465044206
 30
0.0
 11
14.10308374632086
 21
-10.97070101527737
 31
0.0
  0
LINE
  5
134
330
70
100
AcDbEntity
  8
Layer 1
 62
    18
420
        0
370
     5
100
AcDbLine
 10
14.10885242448676
 20
-11.80673132724465
 30
0.0
 11
14.10885242448676
 21
-12.07879968125212
 31
0.0
  0
LINE
  5
135
330
70
100
AcDbEntity
  8
Layer 1
 62
    18
420
        0
370
     5
100
AcDbLine
 10
14.67970749449276
 20
-11.78117070896878
 30
0.0
 11
14.68287408017507
 21
-11.88290770236618
 31
0.0
  0
LINE
  5
136
330
70
100
AcDbEntity
  8
Layer 1
 62
    18
420
        0
370
     5
100
AcDbLine
 10
14.93437695774767
 20
-12.06889540236185
 30
0.0
 11
14.93877802155915
 21
-12.33106189868719
 31
0.0
  0
LINE
  5
137
330
70
100
AcDbEntity
  8
Layer 1
 62
    18
420
        0
370
     5
100
AcDbLine
 10
14.93437695774767
 20
-10.7068825265893
 30
0.0
 11
14.93877802155915
 21
-10.44471603026404
 31
0.0
  0
LINE
  5
138
330
70
100
AcDbEntity
  8
Layer 1
 62
    18
420
        0
370
     5
100
AcDbLine
 10
14.67970749449276
 20
-10.99460721998245
 30
0.0
 11
14.68287408017507
 21
-10.89287022658499
 31
0.0
  0
ENDSEC
  0
SECTION
  2
OBJECTS
  0
DICTIONARY
  5
C
330
0
100
AcDbDictionary
281
     1
  3
ACAD_COLOR
350
63
  3
ACAD_DETAILVIEWSTYLE
350
6A
  3
ACAD_GROUP
350
D
  3
ACAD_LAYOUT
350
62
  3
ACAD_MATERIAL
350
10
  3
ACAD_MLEADERSTYLE
350
66
  3
ACAD_MLINESTYLE
350
5F
  3
ACAD_PLOTSETTINGS
350
61
  3
ACAD_PLOTSTYLENAME
350
E
  3
ACAD_SCALELIST
350
42
  3
ACAD_SECTIONVIEWSTYLE
350
68
  3
ACAD_TABLESTYLE
350
64
  3
ACAD_VISUALSTYLE
350
29
  3
ACDB_RECOMPOSE_DATA
350
141
  3
AcDbVariableDictionary
350
139
  0
DICTIONARY
  5
63
102
{ACAD_REACTORS
330
C
102
}
330
C
100
AcDbDictionary
281
     1
  0
DICTIONARY
  5
6A
102
{ACAD_REACTORS
330
C
102
}
330
C
100
AcDbDictionary
281
     1
  3
Imperial24
350
6B
  0
DICTIONARY
  5
D
102
{ACAD_REACTORS
330
C
102
}
330
C
100
AcDbDictionary
281
     1
  0
DICTIONARY
  5
62
102
{ACAD_REACTORS
330
C
102
}
330
C
100
AcDbDictionary
281
     1
  3
Layout1
350
6F
  3
Layout2
350
77
  3
Model
350
73
  0
DICTIONARY
  5
10
102
{ACAD_REACTORS
330
C
102
}
330
C
100
AcDbDictionary
281
     1
  3
ByBlock
350
19
  3
ByLayer
350
11
  3
Global
350
21
  0
DICTIONARY
  5
66
102
{ACAD_REACTORS
330
C
102
}
330
C
100
AcDbDictionary
281
     1
  3
Standard
350
67
  0
DICTIONARY
  5
5F
102
{ACAD_REACTORS
330
C
102
}
330
C
100
AcDbDictionary
281
     1
  3
Standard
350
60
  0
DICTIONARY
  5
61
102
{ACAD_REACTORS
330
C
102
}
330
C
100
AcDbDictionary
281
     1
  0
ACDBDICTIONARYWDFLT
  5
E
102
{ACAD_REACTORS
330
C
102
}
330
C
100
AcDbDictionary
281
     1
  3
Normal
350
F
100
AcDbDictionaryWithDefault
340
F
  0
DICTIONARY
  5
42
102
{ACAD_REACTORS
330
C
102
}
330
C
100
AcDbDictionary
281
     1
  3
A0
350
43
  3
A1
350
44
  3
A2
350
45
  3
A3
350
46
  3
A4
350
47
  3
A5
350
48
  3
A6
350
49
  3
A7
350
4A
  3
A8
350
4B
  3
A9
350
4C
  3
B0
350
4D
  3
B1
350
4E
  3
B2
350
4F
  3
B3
350
50
  3
B4
350
51
  3
B5
350
52
  3
B6
350
53
  0
DICTIONARY
  5
68
102
{ACAD_REACTORS
330
C
102
}
330
C
100
AcDbDictionary
281
     1
  3
Imperial24
350
69
  0
DICTIONARY
  5
64
102
{ACAD_REACTORS
330
C
102
}
330
C
100
AcDbDictionary
281
     1
  3
Standard
350
65
  0
DICTIONARY
  5
29
102
{ACAD_REACTORS
330
C
102
}
330
C
100
AcDbDictionary
281
     1
  3
2dWireframe
350
2F
  3
Basic
350
2E
  3
Brighten
350
35
  3
ColorChange
350
39
  3
Conceptual
350
32
  3
Dim
350
34
  3
EdgeColorOff
350
41
  3
Facepattern
350
38
  3
Flat
350
2A
  3
FlatWithEdges
350
2B
  3
Gouraud
350
2C
  3
GouraudWithEdges
350
2D
  3
Hidden
350
31
  3
JitterOff
350
3F
  3
Linepattern
350
37
  3
OverhangOff
350
40
  3
Realistic
350
33
  3
Shaded
350
3E
  3
Shaded with edges
350
3D
  3
Shades of Gray
350
3A
  3
Sketchy
350
3B
  3
Thicken
350
36
  3
Wireframe
350
30
  3
X-Ray
350
3C
  0
XRECORD
  5
141
102
{ACAD_REACTORS
330
C
102
}
330
C
100
AcDbXrecord
280
     1
 90
        1
330
65
  0
DICTIONARY
  5
139
102
{ACAD_REACTORS
330
C
102
}
330
C
100
AcDbDictionary
281
     1
  3
CANNOSCALE
350
13E
  3
CMLEADERSTYLE
350
13B
  3
CTABLESTYLE
350
13A
  3
CVIEWDETAILSTYLE
350
13C
  3
CVIEWSECTIONSTYLE
350
13D
  0
ACDBDETAILVIEWSTYLE
  5
6B
102
{ACAD_REACTORS
330
6A
102
}
330
6A
100
AcDbModelDocViewStyle
 70
     0
  3
Imperial24
290
     1
300
Imperial24
 90
        0
100
AcDbDetailViewStyle
 70
     0
 71
     0
 90
        3
 71
     1
340
55
 62
   256
 40
0.24
340
0
 62
   256
 40
0.24
300

 40
0.36
280
     3
 71
     2
340
5D
 90
       25
 62
   256
 71
     3
340
55
 62
   256
 40
0.24
 90
        1
 40
0.75
 90
        1
300
%<\AcVar ViewType \f "%tc1">% %<\AcVar ViewDetailId>%\PSCALE %<\AcVar ViewScale \f "%sn">%
 71
     4
340
5D
 90
       25
 62
   256
340
5D
 90
       25
 62
   256
280
     0
  0
LAYOUT
  5
6F
102
{ACAD_REACTORS
330
62
102
}
330
62
100
AcDbPlotSettings
  1

  2

  4

  6

 40
0.0
 41
0.0
 42
0.0
 43
0.0
 44
0.0
 45
0.0
 46
0.0
 47
0.0
 48
0.0
 49
0.0
140
0.0
141
0.0
142
1.0
143
1.0
 70
   688
 72
     0
 73
     0
 74
     5
  7

 75
    16
147
1.0
 76
     0
 77
     2
 78
   300
148
0.0
149
0.0
100
AcDbLayout
  1
Layout1
 70
     1
 71
     1
 10
0.0
 20
0.0
 11
12.0
 21
9.0
 12
0.0
 22
0.0
 32
0.0
 14
0.0
 24
0.0
 34
0.0
 15
0.0
 25
0.0
 35
0.0
146
0.0
 13
0.0
 23
0.0
 33
0.0
 16
1.0
 26
0.0
 36
0.0
 17
0.0
 27
1.0
 37
0.0
 76
     0
330
6C
  0
LAYOUT
  5
77
102
{ACAD_REACTORS
330
62
102
}
330
62
100
AcDbPlotSettings
  1

  2

  4

  6

 40
0.0
 41
0.0
 42
0.0
 43
0.0
 44
0.0
 45
0.0
 46
0.0
 47
0.0
 48
0.0
 49
0.0
140
0.0
141
0.0
142
1.0
143
1.0
 70
   688
 72
     0
 73
     0
 74
     5
  7

 75
    16
147
1.0
 76
     0
 77
     2
 78
   300
148
0.0
149
0.0
100
AcDbLayout
  1
Layout2
 70
     1
 71
     2
 10
0.0
 20
0.0
 11
12.0
 21
9.0
 12
0.0
 22
0.0
 32
0.0
 14
0.0
 24
0.0
 34
0.0
 15
0.0
 25
0.0
 35
0.0
146
0.0
 13
0.0
 23
0.0
 33
0.0
 16
1.0
 26
0.0
 36
0.0
 17
0.0
 27
1.0
 37
0.0
 76
     0
330
74
  0
LAYOUT
  5
73
102
{ACAD_REACTORS
330
62
102
}
330
62
100
AcDbPlotSettings
  1

  2

  4

  6

 40
0.0
 41
0.0
 42
0.0
 43
0.0
 44
0.0
 45
0.0
 46
0.0
 47
0.0
 48
0.0
 49
0.0
140
0.0
141
0.0
142
1.0
143
1.0
 70
  1712
 72
     0
 73
     0
 74
     0
  7

 75
     0
147
1.0
 76
     0
 77
     2
 78
   300
148
0.0
149
0.0
100
AcDbLayout
  1
Model
 70
     1
 71
     0
 10
0.0
 20
0.0
 11
12.0
 21
9.0
 12
0.0
 22
0.0
 32
0.0
 14
0.0
 24
0.0
 34
0.0
 15
0.0
 25
0.0
 35
0.0
146
0.0
 13
0.0
 23
0.0
 33
0.0
 16
1.0
 26
0.0
 36
0.0
 17
0.0
 27
1.0
 37
0.0
 76
     0
330
70
  0
MATERIAL
  5
19
102
{ACAD_XDICTIONARY
360
1A
102
}
102
{ACAD_REACTORS
330
10
102
}
330
10
100
AcDbMaterial
  1
ByBlock
 72
     0
 43
0.0208333333333333
 43
0.0
 43
0.0
 43
0.0
 43
0.0
 43
0.0208333333333333
 43
0.0
 43
0.0
 43
0.0
 43
0.0
 43
1.0
 43
0.0
 43
0.0
 43
0.0
 43
0.0
 43
1.0
 77
     0
 47
0.0208333333333333
 47
0.0
 47
0.0
 47
0.0
 47
0.0
 47
0.0208333333333333
 47
0.0
 47
0.0
 47
0.0
 47
0.0
 47
1.0
 47
0.0
 47
0.0
 47
0.0
 47
0.0
 47
1.0
171
     0
 49
0.0208333333333333
 49
0.0
 49
0.0
 49
0.0
 49
0.0
 49
0.0208333333333333
 49
0.0
 49
0.0
 49
0.0
 49
0.0
 49
1.0
 49
0.0
 49
0.0
 49
0.0
 49
0.0
 49
1.0
175
     0
142
0.0208333333333333
142
0.0
142
0.0
142
0.0
142
0.0
142
0.0208333333333333
142
0.0
142
0.0
142
0.0
142
0.0
142
1.0
142
0.0
142
0.0
142
0.0
142
0.0
142
1.0
179
     0
144
0.0208333333333333
144
0.0
144
0.0
144
0.0
144
0.0
144
0.0208333333333333
144
0.0
144
0.0
144
0.0
144
0.0
144
1.0
144
0.0
144
0.0
144
0.0
144
0.0
144
1.0
147
0.0208333333333333
147
0.0
147
0.0
147
0.0
147
0.0
147
0.0208333333333333
147
0.0
147
0.0
147
0.0
147
0.0
147
1.0
147
0.0
147
0.0
147
0.0
147
0.0
147
1.0
  0
MATERIAL
  5
11
102
{ACAD_XDICTIONARY
360
12
102
}
102
{ACAD_REACTORS
330
10
102
}
330
10
100
AcDbMaterial
  1
ByLayer
 72
     0
 43
0.0208333333333333
 43
0.0
 43
0.0
 43
0.0
 43
0.0
 43
0.0208333333333333
 43
0.0
 43
0.0
 43
0.0
 43
0.0
 43
1.0
 43
0.0
 43
0.0
 43
0.0
 43
0.0
 43
1.0
 77
     0
 47
0.0208333333333333
 47
0.0
 47
0.0
 47
0.0
 47
0.0
 47
0.0208333333333333
 47
0.0
 47
0.0
 47
0.0
 47
0.0
 47
1.0
 47
0.0
 47
0.0
 47
0.0
 47
0.0
 47
1.0
171
     0
 49
0.0208333333333333
 49
0.0
 49
0.0
 49
0.0
 49
0.0
 49
0.0208333333333333
 49
0.0
 49
0.0
 49
0.0
 49
0.0
 49
1.0
 49
0.0
 49
0.0
 49
0.0
 49
0.0
 49
1.0
175
     0
142
0.0208333333333333
142
0.0
142
0.0
142
0.0
142
0.0
142
0.0208333333333333
142
0.0
142
0.0
142
0.0
142
0.0
142
1.0
142
0.0
142
0.0
142
0.0
142
0.0
142
1.0
179
     0
144
0.0208333333333333
144
0.0
144
0.0
144
0.0
144
0.0
144
0.0208333333333333
144
0.0
144
0.0
144
0.0
144
0.0
144
1.0
144
0.0
144
0.0
144
0.0
144
0.0
144
1.0
147
0.0208333333333333
147
0.0
147
0.0
147
0.0
147
0.0
147
0.0208333333333333
147
0.0
147
0.0
147
0.0
147
0.0
147
1.0
147
0.0
147
0.0
147
0.0
147
0.0
147
1.0
  0
MATERIAL
  5
21
102
{ACAD_XDICTIONARY
360
22
102
}
102
{ACAD_REACTORS
330
10
102
}
330
10
100
AcDbMaterial
  1
Global
 72
     0
 43
0.0208333333333333
 43
0.0
 43
0.0
 43
0.0
 43
0.0
 43
0.0208333333333333
 43
0.0
 43
0.0
 43
0.0
 43
0.0
 43
1.0
 43
0.0
 43
0.0
 43
0.0
 43
0.0
 43
1.0
 77
     0
 47
0.0208333333333333
 47
0.0
 47
0.0
 47
0.0
 47
0.0
 47
0.0208333333333333
 47
0.0
 47
0.0
 47
0.0
 47
0.0
 47
1.0
 47
0.0
 47
0.0
 47
0.0
 47
0.0
 47
1.0
171
     0
 49
0.0208333333333333
 49
0.0
 49
0.0
 49
0.0
 49
0.0
 49
0.0208333333333333
 49
0.0
 49
0.0
 49
0.0
 49
0.0
 49
1.0
 49
0.0
 49
0.0
 49
0.0
 49
0.0
 49
1.0
175
     0
142
0.0208333333333333
142
0.0
142
0.0
142
0.0
142
0.0
142
0.0208333333333333
142
0.0
142
0.0
142
0.0
142
0.0
142
1.0
142
0.0
142
0.0
142
0.0
142
0.0
142
1.0
179
     0
144
0.0208333333333333
144
0.0
144
0.0
144
0.0
144
0.0
144
0.0208333333333333
144
0.0
144
0.0
144
0.0
144
0.0
144
1.0
144
0.0
144
0.0
144
0.0
144
0.0
144
1.0
147
0.0208333333333333
147
0.0
147
0.0
147
0.0
147
0.0
147
0.0208333333333333
147
0.0
147
0.0
147
0.0
147
0.0
147
1.0
147
0.0
147
0.0
147
0.0
147
0.0
147
1.0
  0
MLEADERSTYLE
  5
67
102
{ACAD_REACTORS
330
66
102
}
330
66
100
AcDbMLeaderStyle
179
     2
170
     2
171
     1
172
     0
 90
        2
 40
0.0
 41
0.0
173
     1
 91
-1056964608
340
5B
 92
       -2
290
     1
 42
0.09
291
     1
 43
0.36
  3
Standard
 44
0.18
300

342
55
174
     1
178
     6
175
     1
176
     0
 93
-1056964608
 45
0.18
292
     0
297
     0
 46
0.18
 94
-1056964608
 47
1.0
 49
1.0
140
1.0
293
     1
141
0.0
294
     1
177
     0
142
1.0
295
     1
296
     0
143
0.125
271
     0
272
     9
273
     9
298
     1
  0
MLINESTYLE
  5
60
102
{ACAD_REACTORS
330
5F
102
}
330
5F
100
AcDbMlineStyle
  2
STANDARD
 70
     0
  3

 62
   256
 51
90.0
 52
90.0
 71
     2
 49
0.5
 62
   256
  6
BYLAYER
 49
-0.5
 62
   256
  6
BYLAYER
  0
ACDBPLACEHOLDER
  5
F
102
{ACAD_REACTORS
330
E
102
}
330
E
  0
SCALE
  5
43
102
{ACAD_REACTORS
330
42
102
}
330
42
100
AcDbScale
 70
     0
300
1:1
140
1.0
141
1.0
290
     1
  0
SCALE
  5
44
102
{ACAD_REACTORS
330
42
102
}
330
42
100
AcDbScale
 70
     0
300
1/128" = 1'-0"
140
0.0078125
141
12.0
290
     0
  0
SCALE
  5
45
102
{ACAD_REACTORS
330
42
102
}
330
42
100
AcDbScale
 70
     0
300
1/64" = 1'-0"
140
0.015625
141
12.0
290
     0
  0
SCALE
  5
46
102
{ACAD_REACTORS
330
42
102
}
330
42
100
AcDbScale
 70
     0
300
1/32" = 1'-0"
140
0.03125
141
12.0
290
     0
  0
SCALE
  5
47
102
{ACAD_REACTORS
330
42
102
}
330
42
100
AcDbScale
 70
     0
300
1/16" = 1'-0"
140
0.0625
141
12.0
290
     0
  0
SCALE
  5
48
102
{ACAD_REACTORS
330
42
102
}
330
42
100
AcDbScale
 70
     0
300
3/32" = 1'-0"
140
0.09375
141
12.0
290
     0
  0
SCALE
  5
49
102
{ACAD_REACTORS
330
42
102
}
330
42
100
AcDbScale
 70
     0
300
1/8" = 1'-0"
140
0.125
141
12.0
290
     0
  0
SCALE
  5
4A
102
{ACAD_REACTORS
330
42
102
}
330
42
100
AcDbScale
 70
     0
300
3/16" = 1'-0"
140
0.1875
141
12.0
290
     0
  0
SCALE
  5
4B
102
{ACAD_REACTORS
330
42
102
}
330
42
100
AcDbScale
 70
     0
300
1/4" = 1'-0"
140
0.25
141
12.0
290
     0
  0
SCALE
  5
4C
102
{ACAD_REACTORS
330
42
102
}
330
42
100
AcDbScale
 70
     0
300
3/8" = 1'-0"
140
0.375
141
12.0
290
     0
  0
SCALE
  5
4D
102
{ACAD_REACTORS
330
42
102
}
330
42
100
AcDbScale
 70
     0
300
1/2" = 1'-0"
140
0.5
141
12.0
290
     0
  0
SCALE
  5
4E
102
{ACAD_REACTORS
330
42
102
}
330
42
100
AcDbScale
 70
     0
300
3/4" = 1'-0"
140
0.75
141
12.0
290
     0
  0
SCALE
  5
4F
102
{ACAD_REACTORS
330
42
102
}
330
42
100
AcDbScale
 70
     0
300
1" = 1'-0"
140
1.0
141
12.0
290
     0
  0
SCALE
  5
50
102
{ACAD_REACTORS
330
42
102
}
330
42
100
AcDbScale
 70
     0
300
1-1/2" = 1'-0"
140
1.5
141
12.0
290
     0
  0
SCALE
  5
51
102
{ACAD_REACTORS
330
42
102
}
330
42
100
AcDbScale
 70
     0
300
3" = 1'-0"
140
3.0
141
12.0
290
     0
  0
SCALE
  5
52
102
{ACAD_REACTORS
330
42
102
}
330
42
100
AcDbScale
 70
     0
300
6" = 1'-0"
140
6.0
141
12.0
290
     0
  0
SCALE
  5
53
102
{ACAD_REACTORS
330
42
102
}
330
42
100
AcDbScale
 70
     0
300
1'-0" = 1'-0"
140
12.0
141
12.0
290
     0
  0
ACDBSECTIONVIEWSTYLE
  5
69
102
{ACAD_REACTORS
330
68
102
}
330
68
100
AcDbModelDocViewStyle
 70
     0
  3
Imperial24
290
     1
300
Imperial24
 90
        0
100
AcDbSectionViewStyle
 70
     0
 71
     0
 90
       78
 71
     1
340
55
 62
   256
 40
0.24
340
0
340
0
 62
   256
 40
0.24
300
I, O, Q, S, X, Z
 40
0.48
 90
        3
 40
0.18
 90
        1
 71
     2
340
5D
 90
       25
 62
   256
340
5D
 90
       50
 62
   256
 40
0.24
 40
0.0
 40
0.24
 71
     3
340
55
 62
   256
 40
0.24
 90
        1
 40
0.75
 90
        1
300
%<\AcVar ViewType \f "%tc1">% %<\AcVar ViewSectionStartId>%-%<\AcVar ViewSectionEndId>%\PSCALE %<\AcVar ViewScale \f "%sn">%
 71
     4
 62
   256
 62
   257
300
ANSI31
 40
1.0
 90
        0
290
     0
290
     0
 90
        6
 40
0.0
 40
1.570796326794896
 40
0.2617993877991494
 40
1.308996938995747
 40
-0.2617993877991494
 40
1.832595714594046
  0
TABLESTYLE
  5
65
102
{ACAD_XDICTIONARY
360
13F
102
}
102
{ACAD_REACTORS
330
64
102
}
330
64
100
AcDbTableStyle
280
     0
  3
Standard
 70
     0
 71
     0
 40
0.06
 41
0.06
280
     0
281
     0
  7
Standard
140
0.18
170
     2
 62
     0
 63
     7
283
     0
 90
      512
 91
        0
  1

274
    -2
284
     1
 64
     0
275
    -2
285
     1
 65
     0
276
    -2
286
     1
 66
     0
277
    -2
287
     1
 67
     0
278
    -2
288
     1
 68
     0
279
    -2
289
     1
 69
     0
  7
Standard
140
0.25
170
     5
 62
     0
 63
     7
283
     0
 90
      512
 91
        0
  1

274
    -2
284
     1
 64
     0
275
    -2
285
     1
 65
     0
276
    -2
286
     1
 66
     0
277
    -2
287
     1
 67
     0
278
    -2
288
     1
 68
     0
279
    -2
289
     1
 69
     0
  7
Standard
140
0.18
170
     5
 62
     0
 63
     7
283
     0
 90
      512
 91
        0
  1

274
    -2
284
     1
 64
     0
275
    -2
285
     1
 65
     0
276
    -2
286
     1
 66
     0
277
    -2
287
     1
 67
     0
278
    -2
288
     1
 68
     0
279
    -2
289
     1
 69
     0
  0
VISUALSTYLE
  5
2F
102
{ACAD_REACTORS
330
29
102
}
330
29
100
AcDbVisualStyle
  2
2dWireframe
 70
     4
177
     3
291
     0
 70
    58
 90
        0
176
     1
 90
        2
176
     1
 90
        0
176
     1
 90
        0
176
     1
 40
0.6
176
     1
 40
30.0
176
     1
 62
     7
420
 16777215
176
     1
 90
        1
176
     1
 90
        4
176
     1
 62
     7
176
     1
 62
   257
176
     1
 90
        1
176
     1
 90
        1
176
     1
 40
1.0
176
     1
 90
        0
176
     1
 62
   257
176
     1
 40
1.0
176
     1
 90
        1
176
     1
 90
        6
176
     1
 90
        2
176
     1
 62
     7
176
     1
 90
        5
176
     1
 90
        0
176
     1
 90
        0
176
     1
290
     0
176
     1
 90
        1
176
     1
 40
0.0
176
     1
 90
        0
176
     1
290
     1
176
     1
290
     1
176
     1
290
     0
176
     1
290
     0
176
     1
290
     0
176
     1
290
     0
176
     1
290
     0
176
     1
290
     0
176
     1
290
     0
176
     1
 90
       50
176
     1
 40
0.0
176
     1
 40
1.0
176
     1
 90
        0
176
     1
 62
    18
420
        0
176
     1
 90
       50
176
     1
 90
        3
176
     1
 62
     5
420
      255
176
     1
290
     0
176
     1
 90
       50
176
     1
 90
       50
176
     1
 90
       50
176
     1
290
     0
176
     1
 90
       50
176
     1
 62
   256
176
     0
 40
1.0
176
     0
 90
        2
176
     1
  1
strokes_ogs.tif
176
     1
290
     0
176
     1
 40
1.0
176
     1
 40
1.0
176
     1
  0
VISUALSTYLE
  5
2E
102
{ACAD_REACTORS
330
29
102
}
330
29
100
AcDbVisualStyle
  2
Basic
 70
     7
177
     3
291
     1
 70
    58
 90
        1
176
     1
 90
        0
176
     1
 90
        1
176
     1
 90
        0
176
     1
 40
0.6
176
     1
 40
30.0
176
     1
 62
     7
420
 16777215
176
     1
 90
        0
176
     1
 90
        4
176
     1
 62
     7
176
     1
 62
   257
176
     1
 90
        1
176
     1
 90
        1
176
     1
 40
1.0
176
     1
 90
        8
176
     1
 62
     7
176
     1
 40
1.0
176
     1
 90
        1
176
     1
 90
        6
176
     1
 90
        2
176
     1
 62
     7
176
     1
 90
        5
176
     1
 90
        0
176
     1
 90
        0
176
     1
290
     0
176
     1
 90
        1
176
     1
 40
0.0
176
     1
 90
        0
176
     1
290
     0
176
     1
290
     1
176
     1
290
     1
176
     1
290
     0
176
     1
290
     0
176
     1
290
     0
176
     1
290
     0
176
     1
290
     0
176
     1
290
     0
176
     1
 90
       50
176
     1
 40
0.0
176
     1
 40
1.0
176
     1
 90
        0
176
     1
 62
    18
420
        0
176
     1
 90
       50
176
     1
 90
        3
176
     1
 62
     5
420
      255
176
     1
290
     0
176
     1
 90
       50
176
     1
 90
       50
176
     1
 90
       50
176
     1
290
     0
176
     1
 90
       50
176
     1
 62
   256
176
     0
 40
1.0
176
     0
 90
        2
176
     1
  1
strokes_ogs.tif
176
     1
290
     0
176
     1
 40
1.0
176
     1
 40
1.0
176
     1
  0
VISUALSTYLE
  5
35
102
{ACAD_REACTORS
330
29
102
}
330
29
100
AcDbVisualStyle
  2
Brighten
 70
    12
177
     3
291
     1
 70
    58
 90
        2
176
     1
 90
        2
176
     1
 90
        0
176
     1
 90
        0
176
     1
 40
0.6
176
     1
 40
30.0
176
     1
 62
     7
420
 16777215
176
     1
 90
        1
176
     1
 90
        4
176
     1
 62
     7
176
     1
 62
   257
176
     1
 90
        1
176
     1
 90
        1
176
     1
 40
1.0
176
     1
 90
        8
176
     1
 62
     7
176
     1
 40
1.0
176
     1
 90
        1
176
     1
 90
        6
176
     1
 90
        2
176
     1
 62
     7
176
     1
 90
        5
176
     1
 90
        0
176
     1
 90
        0
176
     1
290
     0
176
     1
 90
        1
176
     1
 40
50.0
176
     1
 90
        0
176
     1
290
     0
176
     1
290
     1
176
     1
290
     1
176
     1
290
     0
176
     1
290
     0
176
     1
290
     0
176
     1
290
     0
176
     1
290
     0
176
     1
290
     0
176
     1
 90
       50
176
     1
 40
0.0
176
     1
 40
1.0
176
     1
 90
        0
176
     1
 62
    18
420
        0
176
     1
 90
       50
176
     1
 90
        3
176
     1
 62
     5
420
      255
176
     1
290
     0
176
     1
 90
       50
176
     1
 90
       50
176
     1
 90
       50
176
     1
290
     0
176
     1
 90
       50
176
     1
 62
   256
176
     0
 40
1.0
176
     0
 90
        2
176
     1
  1
strokes_ogs.tif
176
     1
290
     0
176
     1
 40
1.0
176
     1
 40
1.0
176
     1
  0
VISUALSTYLE
  5
39
102
{ACAD_REACTORS
330
29
102
}
330
29
100
AcDbVisualStyle
  2
ColorChange
 70
    16
177
     3
291
     1
 70
    58
 90
        2
176
     1
 90
        2
176
     1
 90
        3
176
     1
 90
        0
176
     1
 40
0.6
176
     1
 40
30.0
176
     1
 62
     8
420
  8421504
176
     1
 90
        1
176
     1
 90
        4
176
     1
 62
     7
176
     1
 62
   257
176
     1
 90
        1
176
     1
 90
        1
176
     1
 40
1.0
176
     1
 90
        8
176
     1
 62
     8
420
  8421504
176
     1
 40
1.0
176
     1
 90
        1
176
     1
 90
        6
176
     1
 90
        2
176
     1
 62
     7
176
     1
 90
        5
176
     1
 90
        0
176
     1
 90
        0
176
     1
290
     0
176
     1
 90
        1
176
     1
 40
0.0
176
     1
 90
        0
176
     1
290
     0
176
     1
290
     1
176
     1
290
     1
176
     1
290
     0
176
     1
290
     0
176
     1
290
     0
176
     1
290
     0
176
     1
290
     0
176
     1
290
     0
176
     1
 90
       50
176
     1
 40
0.0
176
     1
 40
1.0
176
     1
 90
        0
176
     1
 62
    18
420
        0
176
     1
 90
       50
176
     1
 90
        3
176
     1
 62
     5
420
      255
176
     1
290
     0
176
     1
 90
       50
176
     1
 90
       50
176
     1
 90
       50
176
     1
290
     0
176
     1
 90
       50
176
     1
 62
   256
176
     0
 40
1.0
176
     0
 90
        2
176
     1
  1
strokes_ogs.tif
176
     1
290
     0
176
     1
 40
1.0
176
     1
 40
1.0
176
     1
  0
VISUALSTYLE
  5
32
102
{ACAD_REACTORS
330
29
102
}
330
29
100
AcDbVisualStyle
  2
Conceptual
 70
     9
177
     3
291
     0
 70
    58
 90
        3
176
     1
 90
        2
176
     1
 90
        0
176
     1
 90
        0
176
     1
 40
0.6
176
     1
 40
30.0
176
     1
 62
     7
420
 16777215
176
     1
 90
        2
176
     1
 90
        2
176
     1
 62
     7
176
     1
 62
   257
176
     1
 90
        1
176
     1
 90
        1
176
     1
 40
179.0
176
     1
 90
        8
176
     1
 62
     7
176
     1
 40
1.0
176
     1
 90
        1
176
     1
 90
        6
176
     1
 90
        2
176
     1
 62
     7
176
     1
 90
        3
176
     1
 90
        0
176
     1
 90
        0
176
     1
290
     0
176
     1
 90
        1
176
     1
 40
0.0
176
     1
 90
        0
176
     1
290
     0
176
     1
290
     1
176
     1
290
     1
176
     1
290
     0
176
     1
290
     0
176
     1
290
     0
176
     1
290
     0
176
     1
290
     0
176
     1
290
     0
176
     1
 90
       50
176
     1
 40
0.0
176
     1
 40
1.0
176
     1
 90
        0
176
     1
 62
    18
420
        0
176
     1
 90
       50
176
     1
 90
        3
176
     1
 62
     5
420
      255
176
     1
290
     0
176
     1
 90
       50
176
     1
 90
       50
176
     1
 90
       50
176
     1
290
     0
176
     1
 90
       50
176
     1
 62
   256
176
     0
 40
1.0
176
     0
 90
        2
176
     1
  1
strokes_ogs.tif
176
     1
290
     0
176
     1
 40
1.0
176
     1
 40
1.0
176
     1
  0
VISUALSTYLE
  5
34
102
{ACAD_REACTORS
330
29
102
}
330
29
100
AcDbVisualStyle
  2
Dim
 70
    11
177
     3
291
     1
 70
    58
 90
        2
176
     1
 90
        2
176
     1
 90
        0
176
     1
 90
        0
176
     1
 40
0.6
176
     1
 40
30.0
176
     1
 62
     7
420
 16777215
176
     1
 90
        1
176
     1
 90
        4
176
     1
 62
     7
176
     1
 62
   257
176
     1
 90
        1
176
     1
 90
        1
176
     1
 40
1.0
176
     1
 90
        8
176
     1
 62
     7
176
     1
 40
1.0
176
     1
 90
        1
176
     1
 90
        6
176
     1
 90
        2
176
     1
 62
     7
176
     1
 90
        5
176
     1
 90
        0
176
     1
 90
        0
176
     1
290
     0
176
     1
 90
        1
176
     1
 40
-50.0
176
     1
 90
        0
176
     1
290
     0
176
     1
290
     1
176
     1
290
     1
176
     1
290
     0
176
     1
290
     0
176
     1
290
     0
176
     1
290
     0
176
     1
290
     0
176
     1
290
     0
176
     1
 90
       50
176
     1
 40
0.0
176
     1
 40
1.0
176
     1
 90
        0
176
     1
 62
    18
420
        0
176
     1
 90
       50
176
     1
 90
        3
176
     1
 62
     5
420
      255
176
     1
290
     0
176
     1
 90
       50
176
     1
 90
       50
176
     1
 90
       50
176
     1
290
     0
176
     1
 90
       50
176
     1
 62
   256
176
     0
 40
1.0
176
     0
 90
        2
176
     1
  1
strokes_ogs.tif
176
     1
290
     0
176
     1
 40
1.0
176
     1
 40
1.0
176
     1
  0
VISUALSTYLE
  5
41
102
{ACAD_REACTORS
330
29
102
}
330
29
100
AcDbVisualStyle
  2
EdgeColorOff
 70
    22
177
     3
291
     1
 70
    58
 90
        2
176
     0
 90
        2
176
     0
 90
        0
176
     0
 90
        0
176
     0
 40
0.6
176
     0
 40
30.0
176
     0
 62
     7
420
 16777215
176
     0
 90
        1
176
     0
 90
        4
176
     0
 62
     7
176
     0
 62
   257
176
     0
 90
        1
176
     0
 90
        1
176
     0
 40
1.0
176
     0
 90
        8
176
     2
 62
     7
176
     0
 40
1.0
176
     0
 90
        1
176
     0
 90
        6
176
     0
 90
        2
176
     0
 62
     7
176
     0
 90
        5
176
     0
 90
        0
176
     0
 90
        0
176
     0
290
     0
176
     0
 90
        1
176
     0
 40
0.0
176
     0
 90
        0
176
     0
290
     0
176
     0
290
     1
176
     0
290
     1
176
     0
290
     0
176
     0
290
     0
176
     0
290
     0
176
     0
290
     0
176
     0
290
     0
176
     0
290
     0
176
     0
 90
       50
176
     0
 40
0.0
176
     0
 40
1.0
176
     0
 90
        0
176
     0
 62
    18
420
        0
176
     0
 90
       50
176
     0
 90
        3
176
     0
 62
     5
420
      255
176
     0
290
     0
176
     0
 90
       50
176
     0
 90
       50
176
     0
 90
       50
176
     0
290
     0
176
     0
 90
       50
176
     0
 62
   256
176
     0
 40
1.0
176
     0
 90
        2
176
     0
  1
strokes_ogs.tif
176
     0
290
     0
176
     0
 40
1.0
176
     0
 40
1.0
176
     0
  0
VISUALSTYLE
  5
38
102
{ACAD_REACTORS
330
29
102
}
330
29
100
AcDbVisualStyle
  2
Facepattern
 70
    15
177
     3
291
     1
 70
    58
 90
        2
176
     1
 90
        2
176
     1
 90
        0
176
     1
 90
        0
176
     1
 40
0.6
176
     1
 40
30.0
176
     1
 62
     7
420
 16777215
176
     1
 90
        1
176
     1
 90
        4
176
     1
 62
     7
176
     1
 62
   257
176
     1
 90
        1
176
     1
 90
        1
176
     1
 40
1.0
176
     1
 90
        8
176
     1
 62
     7
176
     1
 40
1.0
176
     1
 90
        1
176
     1
 90
        6
176
     1
 90
        2
176
     1
 62
     7
176
     1
 90
        5
176
     1
 90
        0
176
     1
 90
        0
176
     1
290
     0
176
     1
 90
        1
176
     1
 40
0.0
176
     1
 90
        0
176
     1
290
     0
176
     1
290
     1
176
     1
290
     1
176
     1
290
     0
176
     1
290
     0
176
     1
290
     0
176
     1
290
     0
176
     1
290
     0
176
     1
290
     0
176
     1
 90
       50
176
     1
 40
0.0
176
     1
 40
1.0
176
     1
 90
        0
176
     1
 62
    18
420
        0
176
     1
 90
       50
176
     1
 90
        3
176
     1
 62
     5
420
      255
176
     1
290
     0
176
     1
 90
       50
176
     1
 90
       50
176
     1
 90
       50
176
     1
290
     0
176
     1
 90
       50
176
     1
 62
   256
176
     0
 40
1.0
176
     0
 90
        2
176
     1
  1
strokes_ogs.tif
176
     1
290
     0
176
     1
 40
1.0
176
     1
 40
1.0
176
     1
  0
VISUALSTYLE
  5
2A
102
{ACAD_REACTORS
330
29
102
}
330
29
100
AcDbVisualStyle
  2
Flat
 70
     0
177
     3
291
     1
 70
    58
 90
        2
176
     1
 90
        1
176
     1
 90
        1
176
     1
 90
        2
176
     1
 40
0.6
176
     1
 40
30.0
176
     1
 62
     7
420
 16777215
176
     1
 90
        0
176
     1
 90
        0
176
     1
 62
     7
176
     1
 62
   257
176
     1
 90
        1
176
     1
 90
        1
176
     1
 40
1.0
176
     1
 90
        8
176
     1
 62
     7
176
     1
 40
1.0
176
     1
 90
        1
176
     1
 90
        6
176
     1
 90
        2
176
     1
 62
     7
176
     1
 90
        5
176
     1
 90
        0
176
     1
 90
        0
176
     1
290
     0
176
     1
 90
       13
176
     1
 40
0.0
176
     1
 90
        0
176
     1
290
     0
176
     1
290
     1
176
     1
290
     1
176
     1
290
     0
176
     1
290
     0
176
     1
290
     0
176
     1
290
     0
176
     1
290
     0
176
     1
290
     0
176
     1
 90
       50
176
     1
 40
0.0
176
     1
 40
1.0
176
     1
 90
        0
176
     1
 62
    18
420
        0
176
     1
 90
       50
176
     1
 90
        3
176
     1
 62
     5
420
      255
176
     1
290
     0
176
     1
 90
       50
176
     1
 90
       50
176
     1
 90
       50
176
     1
290
     0
176
     1
 90
       50
176
     1
 62
   256
176
     0
 40
1.0
176
     0
 90
        2
176
     1
  1
strokes_ogs.tif
176
     1
290
     0
176
     1
 40
1.0
176
     1
 40
1.0
176
     1
  0
VISUALSTYLE
  5
2B
102
{ACAD_REACTORS
330
29
102
}
330
29
100
AcDbVisualStyle
  2
FlatWithEdges
 70
     1
177
     3
291
     1
 70
    58
 90
        2
176
     1
 90
        1
176
     1
 90
        1
176
     1
 90
        2
176
     1
 40
0.6
176
     1
 40
30.0
176
     1
 62
     7
420
 16777215
176
     1
 90
        1
176
     1
 90
        0
176
     1
 62
     7
176
     1
 62
   257
176
     1
 90
        1
176
     1
 90
        1
176
     1
 40
1.0
176
     1
 90
        0
176
     1
 62
   257
176
     1
 40
1.0
176
     1
 90
        1
176
     1
 90
        6
176
     1
 90
        2
176
     1
 62
     7
176
     1
 90
        5
176
     1
 90
        0
176
     1
 90
        0
176
     1
290
     0
176
     1
 90
       13
176
     1
 40
0.0
176
     1
 90
        0
176
     1
290
     0
176
     1
290
     1
176
     1
290
     1
176
     1
290
     0
176
     1
290
     0
176
     1
290
     0
176
     1
290
     0
176
     1
290
     0
176
     1
290
     0
176
     1
 90
       50
176
     1
 40
0.0
176
     1
 40
1.0
176
     1
 90
        0
176
     1
 62
    18
420
        0
176
     1
 90
       50
176
     1
 90
        3
176
     1
 62
     5
420
      255
176
     1
290
     0
176
     1
 90
       50
176
     1
 90
       50
176
     1
 90
       50
176
     1
290
     0
176
     1
 90
       50
176
     1
 62
   256
176
     0
 40
1.0
176
     0
 90
        2
176
     1
  1
strokes_ogs.tif
176
     1
290
     0
176
     1
 40
1.0
176
     1
 40
1.0
176
     1
  0
VISUALSTYLE
  5
2C
102
{ACAD_REACTORS
330
29
102
}
330
29
100
AcDbVisualStyle
  2
Gouraud
 70
     2
177
     3
291
     1
 70
    58
 90
        2
176
     1
 90
        2
176
     1
 90
        1
176
     1
 90
        2
176
     1
 40
0.6
176
     1
 40
30.0
176
     1
 62
     7
420
 16777215
176
     1
 90
        0
176
     1
 90
        0
176
     1
 62
     7
176
     1
 62
   257
176
     1
 90
        1
176
     1
 90
        1
176
     1
 40
1.0
176
     1
 90
        0
176
     1
 62
     7
176
     1
 40
1.0
176
     1
 90
        1
176
     1
 90
        6
176
     1
 90
        2
176
     1
 62
     7
176
     1
 90
        5
176
     1
 90
        0
176
     1
 90
        0
176
     1
290
     0
176
     1
 90
       13
176
     1
 40
0.0
176
     1
 90
        0
176
     1
290
     0
176
     1
290
     1
176
     1
290
     1
176
     1
290
     0
176
     1
290
     0
176
     1
290
     0
176
     1
290
     0
176
     1
290
     0
176
     1
290
     0
176
     1
 90
       50
176
     1
 40
0.0
176
     1
 40
1.0
176
     1
 90
        0
176
     1
 62
    18
420
        0
176
     1
 90
       50
176
     1
 90
        3
176
     1
 62
     5
420
      255
176
     1
290
     0
176
     1
 90
       50
176
     1
 90
       50
176
     1
 90
       50
176
     1
290
     0
176
     1
 90
       50
176
     1
 62
   256
176
     0
 40
1.0
176
     0
 90
        2
176
     1
  1
strokes_ogs.tif
176
     1
290
     0
176
     1
 40
1.0
176
     1
 40
1.0
176
     1
  0
VISUALSTYLE
  5
2D
102
{ACAD_REACTORS
330
29
102
}
330
29
100
AcDbVisualStyle
  2
GouraudWithEdges
 70
     3
177
     3
291
     1
 70
    58
 90
        2
176
     1
 90
        2
176
     1
 90
        1
176
     1
 90
        2
176
     1
 40
0.6
176
     1
 40
30.0
176
     1
 62
     7
420
 16777215
176
     1
 90
        1
176
     1
 90
        0
176
     1
 62
     7
176
     1
 62
   257
176
     1
 90
        1
176
     1
 90
        1
176
     1
 40
1.0
176
     1
 90
        0
176
     1
 62
   257
176
     1
 40
1.0
176
     1
 90
        1
176
     1
 90
        6
176
     1
 90
        2
176
     1
 62
     7
176
     1
 90
        5
176
     1
 90
        0
176
     1
 90
        0
176
     1
290
     0
176
     1
 90
       13
176
     1
 40
0.0
176
     1
 90
        0
176
     1
290
     0
176
     1
290
     1
176
     1
290
     1
176
     1
290
     0
176
     1
290
     0
176
     1
290
     0
176
     1
290
     0
176
     1
290
     0
176
     1
290
     0
176
     1
 90
       50
176
     1
 40
0.0
176
     1
 40
1.0
176
     1
 90
        0
176
     1
 62
    18
420
        0
176
     1
 90
       50
176
     1
 90
        3
176
     1
 62
     5
420
      255
176
     1
290
     0
176
     1
 90
       50
176
     1
 90
       50
176
     1
 90
       50
176
     1
290
     0
176
     1
 90
       50
176
     1
 62
   256
176
     0
 40
1.0
176
     0
 90
        2
176
     1
  1
strokes_ogs.tif
176
     1
290
     0
176
     1
 40
1.0
176
     1
 40
1.0
176
     1
  0
VISUALSTYLE
  5
31
102
{ACAD_REACTORS
330
29
102
}
330
29
100
AcDbVisualStyle
  2
Hidden
 70
     6
177
     3
291
     0
 70
    58
 90
        1
176
     1
 90
        2
176
     1
 90
        2
176
     1
 90
        0
176
     1
 40
0.6
176
     1
 40
30.0
176
     1
 62
     7
420
 16777215
176
     1
 90
        2
176
     1
 90
        2
176
     1
 62
     7
176
     1
 62
   257
176
     1
 90
        2
176
     1
 90
        1
176
     1
 40
40.0
176
     1
 90
        0
176
     1
 62
   257
176
     1
 40
1.0
176
     1
 90
        1
176
     1
 90
        6
176
     1
 90
        2
176
     1
 62
     7
176
     1
 90
        3
176
     1
 90
        0
176
     1
 90
        0
176
     1
290
     0
176
     1
 90
        1
176
     1
 40
0.0
176
     1
 90
        0
176
     1
290
     0
176
     1
290
     1
176
     1
290
     1
176
     1
290
     0
176
     1
290
     0
176
     1
290
     0
176
     1
290
     0
176
     1
290
     0
176
     1
290
     0
176
     1
 90
       50
176
     1
 40
0.0
176
     1
 40
1.0
176
     1
 90
        0
176
     1
 62
    18
420
        0
176
     1
 90
       50
176
     1
 90
        3
176
     1
 62
     5
420
      255
176
     1
290
     0
176
     1
 90
       50
176
     1
 90
       50
176
     1
 90
       50
176
     1
290
     0
176
     1
 90
       50
176
     1
 62
   256
176
     0
 40
1.0
176
     0
 90
        2
176
     1
  1
strokes_ogs.tif
176
     1
290
     0
176
     1
 40
1.0
176
     1
 40
1.0
176
     1
  0
VISUALSTYLE
  5
3F
102
{ACAD_REACTORS
330
29
102
}
330
29
100
AcDbVisualStyle
  2
JitterOff
 70
    20
177
     3
291
     1
 70
    58
 90
        2
176
     0
 90
        2
176
     0
 90
        0
176
     0
 90
        0
176
     0
 40
0.6
176
     0
 40
30.0
176
     0
 62
     7
420
 16777215
176
     0
 90
        1
176
     0
 90
        4
176
     0
 62
     7
176
     0
 62
   257
176
     0
 90
        1
176
     0
 90
        1
176
     0
 40
1.0
176
     0
 90
       10
176
     2
 62
     7
176
     0
 40
1.0
176
     0
 90
        1
176
     0
 90
        6
176
     0
 90
        2
176
     0
 62
     7
176
     0
 90
        5
176
     0
 90
        0
176
     0
 90
        0
176
     0
290
     0
176
     0
 90
        1
176
     0
 40
0.0
176
     0
 90
        0
176
     0
290
     0
176
     0
290
     1
176
     0
290
     1
176
     0
290
     0
176
     0
290
     0
176
     0
290
     0
176
     0
290
     0
176
     0
290
     0
176
     0
290
     0
176
     0
 90
       50
176
     0
 40
0.0
176
     0
 40
1.0
176
     0
 90
        0
176
     0
 62
    18
420
        0
176
     0
 90
       50
176
     0
 90
        3
176
     0
 62
     5
420
      255
176
     0
290
     0
176
     0
 90
       50
176
     0
 90
       50
176
     0
 90
       50
176
     0
290
     0
176
     0
 90
       50
176
     0
 62
   256
176
     0
 40
1.0
176
     0
 90
        2
176
     0
  1
strokes_ogs.tif
176
     0
290
     0
176
     0
 40
1.0
176
     0
 40
1.0
176
     0
  0
VISUALSTYLE
  5
37
102
{ACAD_REACTORS
330
29
102
}
330
29
100
AcDbVisualStyle
  2
Linepattern
 70
    14
177
     3
291
     1
 70
    58
 90
        2
176
     1
 90
        2
176
     1
 90
        0
176
     1
 90
        0
176
     1
 40
0.6
176
     1
 40
30.0
176
     1
 62
     7
420
 16777215
176
     1
 90
        1
176
     1
 90
        4
176
     1
 62
     7
176
     1
 62
   257
176
     1
 90
        7
176
     1
 90
        7
176
     1
 40
1.0
176
     1
 90
        8
176
     1
 62
     7
176
     1
 40
1.0
176
     1
 90
        1
176
     1
 90
        6
176
     1
 90
        2
176
     1
 62
     7
176
     1
 90
        5
176
     1
 90
        0
176
     1
 90
        0
176
     1
290
     0
176
     1
 90
        1
176
     1
 40
0.0
176
     1
 90
        0
176
     1
290
     0
176
     1
290
     1
176
     1
290
     1
176
     1
290
     0
176
     1
290
     0
176
     1
290
     0
176
     1
290
     0
176
     1
290
     0
176
     1
290
     0
176
     1
 90
       50
176
     1
 40
0.0
176
     1
 40
1.0
176
     1
 90
        0
176
     1
 62
    18
420
        0
176
     1
 90
       50
176
     1
 90
        3
176
     1
 62
     5
420
      255
176
     1
290
     0
176
     1
 90
       50
176
     1
 90
       50
176
     1
 90
       50
176
     1
290
     0
176
     1
 90
       50
176
     1
 62
   256
176
     0
 40
1.0
176
     0
 90
        2
176
     1
  1
strokes_ogs.tif
176
     1
290
     0
176
     1
 40
1.0
176
     1
 40
1.0
176
     1
  0
VISUALSTYLE
  5
40
102
{ACAD_REACTORS
330
29
102
}
330
29
100
AcDbVisualStyle
  2
OverhangOff
 70
    21
177
     3
291
     1
 70
    58
 90
        2
176
     0
 90
        2
176
     0
 90
        0
176
     0
 90
        0
176
     0
 40
0.6
176
     0
 40
30.0
176
     0
 62
     7
420
 16777215
176
     0
 90
        1
176
     0
 90
        4
176
     0
 62
     7
176
     0
 62
   257
176
     0
 90
        1
176
     0
 90
        1
176
     0
 40
1.0
176
     0
 90
        9
176
     2
 62
     7
176
     0
 40
1.0
176
     0
 90
        1
176
     0
 90
        6
176
     0
 90
        2
176
     0
 62
     7
176
     0
 90
        5
176
     0
 90
        0
176
     0
 90
        0
176
     0
290
     0
176
     0
 90
        1
176
     0
 40
0.0
176
     0
 90
        0
176
     0
290
     0
176
     0
290
     1
176
     0
290
     1
176
     0
290
     0
176
     0
290
     0
176
     0
290
     0
176
     0
290
     0
176
     0
290
     0
176
     0
290
     0
176
     0
 90
       50
176
     0
 40
0.0
176
     0
 40
1.0
176
     0
 90
        0
176
     0
 62
    18
420
        0
176
     0
 90
       50
176
     0
 90
        3
176
     0
 62
     5
420
      255
176
     0
290
     0
176
     0
 90
       50
176
     0
 90
       50
176
     0
 90
       50
176
     0
290
     0
176
     0
 90
       50
176
     0
 62
   256
176
     0
 40
1.0
176
     0
 90
        2
176
     0
  1
strokes_ogs.tif
176
     0
290
     0
176
     0
 40
1.0
176
     0
 40
1.0
176
     0
  0
VISUALSTYLE
  5
33
102
{ACAD_REACTORS
330
29
102
}
330
29
100
AcDbVisualStyle
  2
Realistic
 70
     8
177
     3
291
     0
 70
    58
 90
        2
176
     1
 90
        3
176
     1
 90
        0
176
     1
 90
        2
176
     1
 40
0.6
176
     1
 40
30.0
176
     1
 62
     7
420
 16777215
176
     1
 90
        0
176
     1
 90
        0
176
     1
 62
     7
176
     1
 62
   257
176
     1
 90
        1
176
     1
 90
        1
176
     1
 40
1.0
176
     1
 90
        8
176
     1
 62
   257
176
     1
 40
1.0
176
     1
 90
        1
176
     1
 90
        6
176
     1
 90
        2
176
     1
 62
     7
176
     1
 90
        3
176
     1
 90
        0
176
     1
 90
        0
176
     1
290
     0
176
     1
 90
       13
176
     1
 40
0.0
176
     1
 90
        0
176
     1
290
     0
176
     1
290
     1
176
     1
290
     1
176
     1
290
     0
176
     1
290
     0
176
     1
290
     0
176
     1
290
     0
176
     1
290
     0
176
     1
290
     0
176
     1
 90
       50
176
     1
 40
0.0
176
     1
 40
1.0
176
     1
 90
        0
176
     1
 62
    18
420
        0
176
     1
 90
       50
176
     1
 90
        3
176
     1
 62
     5
420
      255
176
     1
290
     0
176
     1
 90
       50
176
     1
 90
       50
176
     1
 90
       50
176
     1
290
     0
176
     1
 90
       50
176
     1
 62
   256
176
     0
 40
1.0
176
     0
 90
        2
176
     1
  1
strokes_ogs.tif
176
     1
290
     0
176
     1
 40
1.0
176
     1
 40
1.0
176
     1
  0
VISUALSTYLE
  5
3E
102
{ACAD_REACTORS
330
29
102
}
330
29
100
AcDbVisualStyle
  2
Shaded
 70
    27
177
     3
291
     0
 70
    58
 90
        2
176
     1
 90
        2
176
     1
 90
        1
176
     1
 90
        2
176
     1
 40
0.6
176
     1
 40
30.0
176
     1
 62
     7
420
 16777215
176
     1
 90
        0
176
     1
 90
        4
176
     1
 62
     7
176
     1
 62
   257
176
     1
 90
        1
176
     1
 90
        1
176
     1
 40
1.0
176
     1
 90
        8
176
     1
 62
   257
176
     1
 40
1.0
176
     1
 90
        1
176
     1
 90
        6
176
     1
 90
        2
176
     1
 62
     8
420
  7895160
176
     1
 90
        3
176
     1
 90
        0
176
     1
 90
        0
176
     1
290
     0
176
     1
 90
        5
176
     1
 40
0.0
176
     1
 90
        0
176
     1
290
     0
176
     1
290
     1
176
     1
290
     1
176
     1
290
     0
176
     1
290
     0
176
     1
290
     0
176
     1
290
     0
176
     1
290
     0
176
     1
290
     0
176
     1
 90
       50
176
     1
 40
0.0
176
     1
 40
1.0
176
     1
 90
        0
176
     1
 62
    18
420
        0
176
     1
 90
       50
176
     1
 90
        3
176
     1
 62
     5
420
      255
176
     1
290
     0
176
     1
 90
       50
176
     1
 90
       50
176
     1
 90
       50
176
     1
290
     0
176
     1
 90
       50
176
     1
 62
   256
176
     0
 40
1.0
176
     0
 90
        2
176
     1
  1
strokes_ogs.tif
176
     1
290
     0
176
     1
 40
1.0
176
     1
 40
1.0
176
     1
  0
VISUALSTYLE
  5
3D
102
{ACAD_REACTORS
330
29
102
}
330
29
100
AcDbVisualStyle
  2
Shaded with edges
 70
    26
177
     3
291
     0
 70
    58
 90
        2
176
     1
 90
        2
176
     1
 90
        1
176
     1
 90
        2
176
     1
 40
0.6
176
     1
 40
30.0
176
     1
 62
     7
420
 16777215
176
     1
 90
        1
176
     1
 90
        2
176
     1
 62
     7
176
     1
 62
   257
176
     1
 90
        2
176
     1
 90
        1
176
     1
 40
1.0
176
     1
 90
        8
176
     1
 62
   257
176
     1
 40
1.0
176
     1
 90
        1
176
     1
 90
        6
176
     1
 90
        2
176
     1
 62
     7
176
     1
 90
        3
176
     1
 90
        0
176
     1
 90
        0
176
     1
290
     0
176
     1
 90
        5
176
     1
 40
0.0
176
     1
 90
        0
176
     1
290
     0
176
     1
290
     1
176
     1
290
     1
176
     1
290
     0
176
     1
290
     0
176
     1
290
     0
176
     1
290
     0
176
     1
290
     0
176
     1
290
     0
176
     1
 90
       50
176
     1
 40
0.0
176
     1
 40
1.0
176
     1
 90
        0
176
     1
 62
    18
420
        0
176
     1
 90
       50
176
     1
 90
        3
176
     1
 62
     5
420
      255
176
     1
290
     0
176
     1
 90
       50
176
     1
 90
       50
176
     1
 90
       50
176
     1
290
     0
176
     1
 90
       50
176
     1
 62
   256
176
     0
 40
1.0
176
     0
 90
        2
176
     1
  1
strokes_ogs.tif
176
     1
290
     0
176
     1
 40
1.0
176
     1
 40
1.0
176
     1
  0
VISUALSTYLE
  5
3A
102
{ACAD_REACTORS
330
29
102
}
330
29
100
AcDbVisualStyle
  2
Shades of Gray
 70
    23
177
     3
291
     0
 70
    58
 90
        2
176
     1
 90
        2
176
     1
 90
        3
176
     1
 90
        0
176
     1
 40
0.6
176
     1
 40
30.0
176
     1
 62
     7
420
 16777215
176
     1
 90
        2
176
     1
 90
        2
176
     1
 62
     7
176
     1
 62
     7
176
     1
 90
        1
176
     1
 90
        1
176
     1
 40
40.0
176
     1
 90
        8
176
     1
 62
     7
176
     1
 40
1.0
176
     1
 90
        1
176
     1
 90
        6
176
     1
 90
        2
176
     1
 62
     7
176
     1
 90
        3
176
     1
 90
        0
176
     1
 90
        0
176
     1
290
     0
176
     1
 90
        1
176
     1
 40
0.0
176
     1
 90
        0
176
     1
290
     0
176
     1
290
     1
176
     1
290
     1
176
     1
290
     0
176
     1
290
     0
176
     1
290
     0
176
     1
290
     0
176
     1
290
     0
176
     1
290
     0
176
     1
 90
       50
176
     1
 40
0.0
176
     1
 40
1.0
176
     1
 90
        0
176
     1
 62
    18
420
        0
176
     1
 90
       50
176
     1
 90
        3
176
     1
 62
     5
420
      255
176
     1
290
     0
176
     1
 90
       50
176
     1
 90
       50
176
     1
 90
       50
176
     1
290
     0
176
     1
 90
       50
176
     1
 62
   256
176
     0
 40
1.0
176
     0
 90
        2
176
     1
  1
strokes_ogs.tif
176
     1
290
     0
176
     1
 40
1.0
176
     1
 40
1.0
176
     1
  0
VISUALSTYLE
  5
3B
102
{ACAD_REACTORS
330
29
102
}
330
29
100
AcDbVisualStyle
  2
Sketchy
 70
    24
177
     3
291
     0
 70
    58
 90
        1
176
     1
 90
        2
176
     1
 90
        2
176
     1
 90
        0
176
     1
 40
0.6
176
     1
 40
30.0
176
     1
 62
     7
420
 16777215
176
     1
 90
        2
176
     1
 90
        2
176
     1
 62
     7
176
     1
 62
     7
176
     1
 90
        1
176
     1
 90
        1
176
     1
 40
40.0
176
     1
 90
       11
176
     1
 62
     7
176
     1
 40
1.0
176
     1
 90
        1
176
     1
 90
        6
176
     1
 90
        2
176
     1
 62
     7
176
     1
 90
        6
176
     1
 90
        0
176
     1
 90
        0
176
     1
290
     0
176
     1
 90
        1
176
     1
 40
0.0
176
     1
 90
        0
176
     1
290
     0
176
     1
290
     1
176
     1
290
     1
176
     1
290
     0
176
     1
290
     0
176
     1
290
     0
176
     1
290
     0
176
     1
290
     0
176
     1
290
     0
176
     1
 90
       50
176
     1
 40
0.0
176
     1
 40
1.0
176
     1
 90
        0
176
     1
 62
    18
420
        0
176
     1
 90
       50
176
     1
 90
        3
176
     1
 62
     5
420
      255
176
     1
290
     0
176
     1
 90
       50
176
     1
 90
       50
176
     1
 90
       50
176
     1
290
     0
176
     1
 90
       50
176
     1
 62
   256
176
     0
 40
1.0
176
     0
 90
        2
176
     1
  1
strokes_ogs.tif
176
     1
290
     0
176
     1
 40
1.0
176
     1
 40
1.0
176
     1
  0
VISUALSTYLE
  5
36
102
{ACAD_REACTORS
330
29
102
}
330
29
100
AcDbVisualStyle
  2
Thicken
 70
    13
177
     3
291
     1
 70
    58
 90
        2
176
     1
 90
        2
176
     1
 90
        0
176
     1
 90
        0
176
     1
 40
0.6
176
     1
 40
30.0
176
     1
 62
     7
420
 16777215
176
     1
 90
        1
176
     1
 90
        4
176
     1
 62
     7
176
     1
 62
   257
176
     1
 90
        1
176
     1
 90
        1
176
     1
 40
1.0
176
     1
 90
       12
176
     1
 62
     7
176
     1
 40
1.0
176
     1
 90
        1
176
     1
 90
        6
176
     1
 90
        2
176
     1
 62
     7
176
     1
 90
        5
176
     1
 90
        0
176
     1
 90
        0
176
     1
290
     0
176
     1
 90
        1
176
     1
 40
0.0
176
     1
 90
        0
176
     1
290
     0
176
     1
290
     1
176
     1
290
     1
176
     1
290
     0
176
     1
290
     0
176
     1
290
     0
176
     1
290
     0
176
     1
290
     0
176
     1
290
     0
176
     1
 90
       50
176
     1
 40
0.0
176
     1
 40
1.0
176
     1
 90
        0
176
     1
 62
    18
420
        0
176
     1
 90
       50
176
     1
 90
        3
176
     1
 62
     5
420
      255
176
     1
290
     0
176
     1
 90
       50
176
     1
 90
       50
176
     1
 90
       50
176
     1
290
     0
176
     1
 90
       50
176
     1
 62
   256
176
     0
 40
1.0
176
     0
 90
        2
176
     1
  1
strokes_ogs.tif
176
     1
290
     0
176
     1
 40
1.0
176
     1
 40
1.0
176
     1
  0
VISUALSTYLE
  5
30
102
{ACAD_REACTORS
330
29
102
}
330
29
100
AcDbVisualStyle
  2
Wireframe
 70
     5
177
     3
291
     0
 70
    58
 90
        0
176
     1
 90
        2
176
     1
 90
        0
176
     1
 90
        0
176
     1
 40
0.6
176
     1
 40
30.0
176
     1
 62
     7
420
 16777215
176
     1
 90
        1
176
     1
 90
        4
176
     1
 62
     7
176
     1
 62
   257
176
     1
 90
        1
176
     1
 90
        1
176
     1
 40
1.0
176
     1
 90
        0
176
     1
 62
   257
176
     1
 40
1.0
176
     1
 90
        1
176
     1
 90
        6
176
     1
 90
        2
176
     1
 62
     7
176
     1
 90
        3
176
     1
 90
        0
176
     1
 90
        0
176
     1
290
     0
176
     1
 90
        1
176
     1
 40
0.0
176
     1
 90
        0
176
     1
290
     0
176
     1
290
     1
176
     1
290
     1
176
     1
290
     0
176
     1
290
     0
176
     1
290
     0
176
     1
290
     0
176
     1
290
     0
176
     1
290
     0
176
     1
 90
       50
176
     1
 40
0.0
176
     1
 40
1.0
176
     1
 90
        0
176
     1
 62
    18
420
        0
176
     1
 90
       50
176
     1
 90
        3
176
     1
 62
     5
420
      255
176
     1
290
     0
176
     1
 90
       50
176
     1
 90
       50
176
     1
 90
       50
176
     1
290
     0
176
     1
 90
       50
176
     1
 62
   256
176
     0
 40
1.0
176
     0
 90
        2
176
     1
  1
strokes_ogs.tif
176
     1
290
     0
176
     1
 40
1.0
176
     1
 40
1.0
176
     1
  0
VISUALSTYLE
  5
3C
102
{ACAD_REACTORS
330
29
102
}
330
29
100
AcDbVisualStyle
  2
X-Ray
 70
    25
177
     3
291
     0
 70
    58
 90
        2
176
     1
 90
        2
176
     1
 90
        1
176
     1
 90
        1
176
     1
 40
0.5
176
     1
 40
30.0
176
     1
 62
     7
420
 16777215
176
     1
 90
        1
176
     1
 90
        0
176
     1
 62
     7
176
     1
 62
   257
176
     1
 90
        1
176
     1
 90
        1
176
     1
 40
1.0
176
     1
 90
        8
176
     1
 62
     7
176
     1
 40
1.0
176
     1
 90
        1
176
     1
 90
        6
176
     1
 90
        2
176
     1
 62
     7
176
     1
 90
        3
176
     1
 90
        0
176
     1
 90
        0
176
     1
290
     0
176
     1
 90
       13
176
     1
 40
0.0
176
     1
 90
        0
176
     1
290
     0
176
     1
290
     1
176
     1
290
     1
176
     1
290
     0
176
     1
290
     0
176
     1
290
     0
176
     1
290
     0
176
     1
290
     0
176
     1
290
     0
176
     1
 90
       50
176
     1
 40
0.0
176
     1
 40
1.0
176
     1
 90
        0
176
     1
 62
    18
420
        0
176
     1
 90
       50
176
     1
 90
        3
176
     1
 62
     5
420
      255
176
     1
290
     0
176
     1
 90
       50
176
     1
 90
       50
176
     1
 90
       50
176
     1
290
     0
176
     1
 90
       50
176
     1
 62
   256
176
     0
 40
1.0
176
     0
 90
        2
176
     1
  1
strokes_ogs.tif
176
     1
290
     0
176
     1
 40
1.0
176
     1
 40
1.0
176
     1
  0
DICTIONARYVAR
  5
13E
102
{ACAD_REACTORS
330
139
102
}
330
139
100
DictionaryVariables
280
     0
  1
1:1
  0
DICTIONARYVAR
  5
13B
102
{ACAD_REACTORS
330
139
102
}
330
139
100
DictionaryVariables
280
     0
  1
STANDARD
  0
DICTIONARYVAR
  5
13A
102
{ACAD_REACTORS
330
139
102
}
330
139
100
DictionaryVariables
280
     0
  1
STANDARD
  0
DICTIONARYVAR
  5
13C
102
{ACAD_REACTORS
330
139
102
}
330
139
100
DictionaryVariables
280
     0
  1
Imperial24
  0
DICTIONARYVAR
  5
13D
102
{ACAD_REACTORS
330
139
102
}
330
139
100
DictionaryVariables
280
     0
  1
Imperial24
  0
DICTIONARY
  5
1A
330
19
100
AcDbDictionary
280
     1
281
     1
  3
BUMPTILE
360
1C
  3
DIFFUSETILE
360
1B
  3
OPACITYTILE
360
1F
  3
REFLECTIONTILE
360
1E
  3
REFRACTIONTILE
360
20
  3
SPECULARTILE
360
1D
  0
DICTIONARY
  5
12
330
11
100
AcDbDictionary
280
     1
281
     1
  3
BUMPTILE
360
14
  3
DIFFUSETILE
360
13
  3
OPACITYTILE
360
17
  3
REFLECTIONTILE
360
16
  3
REFRACTIONTILE
360
18
  3
SPECULARTILE
360
15
  0
DICTIONARY
  5
22
330
21
100
AcDbDictionary
280
     1
281
     1
  3
BUMPTILE
360
24
  3
DIFFUSETILE
360
23
  3
OPACITYTILE
360
27
  3
REFLECTIONTILE
360
26
  3
REFRACTIONTILE
360
28
  3
SPECULARTILE
360
25
  0
DICTIONARY
  5
13F
330
65
100
AcDbDictionary
280
     1
281
     1
  3
ACAD_ROUNDTRIP_2008_TABLESTYLE_CELLSTYLEMAP
360
140
  0
XRECORD
  5
1C
102
{ACAD_REACTORS
330
1A
102
}
330
1A
100
AcDbXrecord
280
     1
270
     1
271
     1
  0
XRECORD
  5
1B
102
{ACAD_REACTORS
330
1A
102
}
330
1A
100
AcDbXrecord
280
     1
270
     1
271
     1
  0
XRECORD
  5
1F
102
{ACAD_REACTORS
330
1A
102
}
330
1A
100
AcDbXrecord
280
     1
270
     1
271
     1
  0
XRECORD
  5
1E
102
{ACAD_REACTORS
330
1A
102
}
330
1A
100
AcDbXrecord
280
     1
270
     1
271
     1
  0
XRECORD
  5
20
102
{ACAD_REACTORS
330
1A
102
}
330
1A
100
AcDbXrecord
280
     1
270
     1
271
     1
  0
XRECORD
  5
1D
102
{ACAD_REACTORS
330
1A
102
}
330
1A
100
AcDbXrecord
280
     1
270
     1
271
     1
  0
XRECORD
  5
14
102
{ACAD_REACTORS
330
12
102
}
330
12
100
AcDbXrecord
280
     1
270
     1
271
     1
  0
XRECORD
  5
13
102
{ACAD_REACTORS
330
12
102
}
330
12
100
AcDbXrecord
280
     1
270
     1
271
     1
  0
XRECORD
  5
17
102
{ACAD_REACTORS
330
12
102
}
330
12
100
AcDbXrecord
280
     1
270
     1
271
     1
  0
XRECORD
  5
16
102
{ACAD_REACTORS
330
12
102
}
330
12
100
AcDbXrecord
280
     1
270
     1
271
     1
  0
XRECORD
  5
18
102
{ACAD_REACTORS
330
12
102
}
330
12
100
AcDbXrecord
280
     1
270
     1
271
     1
  0
XRECORD
  5
15
102
{ACAD_REACTORS
330
12
102
}
330
12
100
AcDbXrecord
280
     1
270
     1
271
     1
  0
XRECORD
  5
24
102
{ACAD_REACTORS
330
22
102
}
330
22
100
AcDbXrecord
280
     1
270
     1
271
     1
  0
XRECORD
  5
23
102
{ACAD_REACTORS
330
22
102
}
330
22
100
AcDbXrecord
280
     1
270
     1
271
     1
  0
XRECORD
  5
27
102
{ACAD_REACTORS
330
22
102
}
330
22
100
AcDbXrecord
280
     1
270
     1
271
     1
  0
XRECORD
  5
26
102
{ACAD_REACTORS
330
22
102
}
330
22
100
AcDbXrecord
280
     1
270
     1
271
     1
  0
XRECORD
  5
28
102
{ACAD_REACTORS
330
22
102
}
330
22
100
AcDbXrecord
280
     1
270
     1
271
     1
  0
XRECORD
  5
25
102
{ACAD_REACTORS
330
22
102
}
330
22
100
AcDbXrecord
280
     1
270
     1
271
     1
  0
CELLSTYLEMAP
  5
140
102
{ACAD_REACTORS
330
13F
102
}
330
13F
100
AcDbCellStyleMap
 90
        3
300
CELLSTYLE
  1
TABLEFORMAT_BEGIN
 90
        5
170
     1
 91
        0
 92
    32768
 62
   257
 93
        1
300
CONTENTFORMAT
  1
CONTENTFORMAT_BEGIN
 90
        0
 91
        0
 92
      512
 93
        0
300

 40
0.0
140
1.0
 94
        5
 62
     0
340
55
144
0.25
309
CONTENTFORMAT_END
171
     0
 94
        0
309
TABLEFORMAT_END
  1
CELLSTYLE_BEGIN
 90
        1
 91
        1
300
_TITLE
309
CELLSTYLE_END
300
CELLSTYLE
  1
TABLEFORMAT_BEGIN
 90
        5
170
     1
 91
        0
 92
        0
 62
   257
 93
        1
300
CONTENTFORMAT
  1
CONTENTFORMAT_BEGIN
 90
        0
 91
        0
 92
      512
 93
        0
300

 40
0.0
140
1.0
 94
        5
 62
     0
340
55
144
0.18
309
CONTENTFORMAT_END
171
     0
 94
        0
309
TABLEFORMAT_END
  1
CELLSTYLE_BEGIN
 90
        2
 91
        1
300
_HEADER
309
CELLSTYLE_END
300
CELLSTYLE
  1
TABLEFORMAT_BEGIN
 90
        5
170
     1
 91
        0
 92
        0
 62
   257
 93
        1
300
CONTENTFORMAT
  1
CONTENTFORMAT_BEGIN
 90
        0
 91
        0
 92
      512
 93
        0
300

 40
0.0
140
1.0
 94
        2
 62
     0
340
55
144
0.18
309
CONTENTFORMAT_END
171
     0
 94
        0
309
TABLEFORMAT_END
  1
CELLSTYLE_BEGIN
 90
        3
 91
        2
300
_DATA
309
CELLSTYLE_END
  0
ENDSEC
  0
EOF
