  0
SECTION
  2
HEADER
  9
$ACADVER
  1
AC1032
  9
$ACADMAINTVER
 90
      329
  9
$DWGCODEPAGE
  3
ANSI_936
  9
$REQUIREDVERSIONS
160
                 0
  9
$INSBASE
 10
0.0
 20
0.0
 30
0.0
  9
$EXTMIN
 10
1.000000000000000E+20
 20
1.000000000000000E+20
 30
1.000000000000000E+20
  9
$EXTMAX
 10
-1.000000000000000E+20
 20
-1.000000000000000E+20
 30
-1.000000000000000E+20
  9
$LIMMIN
 10
0.0
 20
0.0
  9
$LIMMAX
 10
12.0
 20
9.0
  9
$ORTHOMODE
 70
     0
  9
$REGENMODE
 70
     1
  9
$FILLMODE
 70
     1
  9
$QTEXTMODE
 70
     0
  9
$MIRRTEXT
 70
     0
  9
$LTSCALE
 40
1.0
  9
$ATTMODE
 70
     1
  9
$TEXTSIZE
 40
0.2
  9
$TRACEWID
 40
0.05
  9
$TEXTSTYLE
  7
Standard
  9
$CLAYER
  8
0
  9
$CELTYPE
  6
ByLayer
  9
$CECOLOR
 62
   256
  9
$CELTSCALE
 40
1.0
  9
$DISPSILH
 70
     0
  9
$DIMSCALE
 40
1.0
  9
$DIMASZ
 40
0.18
  9
$DIMEXO
 40
0.0625
  9
$DIMDLI
 40
0.38
  9
$DIMRND
 40
0.0
  9
$DIMDLE
 40
0.0
  9
$DIMEXE
 40
0.18
  9
$DIMTP
 40
0.0
  9
$DIMTM
 40
0.0
  9
$DIMTXT
 40
0.18
  9
$DIMCEN
 40
0.09
  9
$DIMTSZ
 40
0.0
  9
$DIMTOL
 70
     0
  9
$DIMLIM
 70
     0
  9
$DIMTIH
 70
     1
  9
$DIMTOH
 70
     1
  9
$DIMSE1
 70
     0
  9
$DIMSE2
 70
     0
  9
$DIMTAD
 70
     0
  9
$DIMZIN
 70
     0
  9
$DIMBLK
  1

  9
$DIMASO
 70
     1
  9
$DIMSHO
 70
     1
  9
$DIMPOST
  1

  9
$DIMAPOST
  1

  9
$DIMALT
 70
     0
  9
$DIMALTD
 70
     2
  9
$DIMALTF
 40
25.4
  9
$DIMLFAC
 40
1.0
  9
$DIMTOFL
 70
     0
  9
$DIMTVP
 40
0.0
  9
$DIMTIX
 70
     0
  9
$DIMSOXD
 70
     0
  9
$DIMSAH
 70
     0
  9
$DIMBLK1
  1

  9
$DIMBLK2
  1

  9
$DIMSTYLE
  2
Standard
  9
$DIMCLRD
 70
     0
  9
$DIMCLRE
 70
     0
  9
$DIMCLRT
 70
     0
  9
$DIMTFAC
 40
1.0
  9
$DIMGAP
 40
0.09
  9
$DIMJUST
 70
     0
  9
$DIMSD1
 70
     0
  9
$DIMSD2
 70
     0
  9
$DIMTOLJ
 70
     1
  9
$DIMTZIN
 70
     0
  9
$DIMALTZ
 70
     0
  9
$DIMALTTZ
 70
     0
  9
$DIMUPT
 70
     0
  9
$DIMDEC
 70
     4
  9
$DIMTDEC
 70
     4
  9
$DIMALTU
 70
     2
  9
$DIMALTTD
 70
     2
  9
$DIMTXSTY
  7
Standard
  9
$DIMAUNIT
 70
     0
  9
$DIMADEC
 70
     0
  9
$DIMALTRND
 40
0.0
  9
$DIMAZIN
 70
     0
  9
$DIMDSEP
 70
    46
  9
$DIMATFIT
 70
     3
  9
$DIMFRAC
 70
     0
  9
$DIMLDRBLK
  1

  9
$DIMLUNIT
 70
     2
  9
$DIMLWD
 70
    -2
  9
$DIMLWE
 70
    -2
  9
$DIMTMOVE
 70
     0
  9
$DIMFXL
 40
1.0
  9
$DIMFXLON
 70
     0
  9
$DIMJOGANG
 40
0.7853981633974483
  9
$DIMTFILL
 70
     0
  9
$DIMTFILLCLR
 70
     0
  9
$DIMARCSYM
 70
     0
  9
$DIMLTYPE
  6

  9
$DIMLTEX1
  6

  9
$DIMLTEX2
  6

  9
$DIMTXTDIRECTION
 70
     0
  9
$LUNITS
 70
     2
  9
$LUPREC
 70
     4
  9
$SKETCHINC
 40
0.1
  9
$FILLETRAD
 40
0.0
  9
$AUNITS
 70
     0
  9
$AUPREC
 70
     0
  9
$MENU
  1
.
  9
$ELEVATION
 40
0.0
  9
$PELEVATION
 40
0.0
  9
$THICKNESS
 40
0.0
  9
$LIMCHECK
 70
     0
  9
$CHAMFERA
 40
0.0
  9
$CHAMFERB
 40
0.0
  9
$CHAMFERC
 40
0.0
  9
$CHAMFERD
 40
0.0
  9
$SKPOLY
 70
     0
  9
$TDCREATE
 40
2460900.567557871
  9
$TDUCREATE
 40
2460900.234224537
  9
$TDUPDATE
 40
2460900.567557871
  9
$TDUUPDATE
 40
2460900.234224537
  9
$TDINDWG
 40
0.0000000000
  9
$TDUSRTIMER
 40
0.0000000000
  9
$USRTIMER
 70
     1
  9
$ANGBASE
 50
0.0
  9
$ANGDIR
 70
     0
  9
$PDMODE
 70
     0
  9
$PDSIZE
 40
0.0
  9
$PLINEWID
 40
0.0
  9
$SPLFRAME
 70
     0
  9
$SPLINETYPE
 70
     6
  9
$SPLINESEGS
 70
     8
  9
$HANDSEED
  5
136
  9
$SURFTAB1
 70
     6
  9
$SURFTAB2
 70
     6
  9
$SURFTYPE
 70
     6
  9
$SURFU
 70
     6
  9
$SURFV
 70
     6
  9
$UCSBASE
  2

  9
$UCSNAME
  2

  9
$UCSORG
 10
0.0
 20
0.0
 30
0.0
  9
$UCSXDIR
 10
1.0
 20
0.0
 30
0.0
  9
$UCSYDIR
 10
0.0
 20
1.0
 30
0.0
  9
$UCSORTHOREF
  2

  9
$UCSORTHOVIEW
 70
     0
  9
$UCSORGTOP
 10
0.0
 20
0.0
 30
0.0
  9
$UCSORGBOTTOM
 10
0.0
 20
0.0
 30
0.0
  9
$UCSORGLEFT
 10
0.0
 20
0.0
 30
0.0
  9
$UCSORGRIGHT
 10
0.0
 20
0.0
 30
0.0
  9
$UCSORGFRONT
 10
0.0
 20
0.0
 30
0.0
  9
$UCSORGBACK
 10
0.0
 20
0.0
 30
0.0
  9
$PUCSBASE
  2

  9
$PUCSNAME
  2

  9
$PUCSORG
 10
0.0
 20
0.0
 30
0.0
  9
$PUCSXDIR
 10
1.0
 20
0.0
 30
0.0
  9
$PUCSYDIR
 10
0.0
 20
1.0
 30
0.0
  9
$PUCSORTHOREF
  2

  9
$PUCSORTHOVIEW
 70
     0
  9
$PUCSORGTOP
 10
0.0
 20
0.0
 30
0.0
  9
$PUCSORGBOTTOM
 10
0.0
 20
0.0
 30
0.0
  9
$PUCSORGLEFT
 10
0.0
 20
0.0
 30
0.0
  9
$PUCSORGRIGHT
 10
0.0
 20
0.0
 30
0.0
  9
$PUCSORGFRONT
 10
0.0
 20
0.0
 30
0.0
  9
$PUCSORGBACK
 10
0.0
 20
0.0
 30
0.0
  9
$USERI1
 70
     0
  9
$USERI2
 70
     0
  9
$USERI3
 70
     0
  9
$USERI4
 70
     0
  9
$USERI5
 70
     0
  9
$USERR1
 40
0.0
  9
$USERR2
 40
0.0
  9
$USERR3
 40
0.0
  9
$USERR4
 40
0.0
  9
$USERR5
 40
0.0
  9
$WORLDVIEW
 70
     1
  9
$SHADEDGE
 70
     3
  9
$SHADEDIF
 70
    70
  9
$TILEMODE
 70
     1
  9
$MAXACTVP
 70
    64
  9
$PINSBASE
 10
0.0
 20
0.0
 30
0.0
  9
$PLIMCHECK
 70
     0
  9
$PEXTMIN
 10
1.000000000000000E+20
 20
1.000000000000000E+20
 30
1.000000000000000E+20
  9
$PEXTMAX
 10
-1.000000000000000E+20
 20
-1.000000000000000E+20
 30
-1.000000000000000E+20
  9
$PLIMMIN
 10
0.0
 20
0.0
  9
$PLIMMAX
 10
12.0
 20
9.0
  9
$UNITMODE
 70
     0
  9
$VISRETAIN
 70
     1
  9
$PLINEGEN
 70
     0
  9
$PSLTSCALE
 70
     1
  9
$TREEDEPTH
 70
  3020
  9
$CMLSTYLE
  2
Standard
  9
$CMLJUST
 70
     0
  9
$CMLSCALE
 40
1.0
  9
$PROXYGRAPHICS
 70
     1
  9
$MEASUREMENT
 70
     0
  9
$CELWEIGHT
370
    -1
  9
$ENDCAPS
280
     0
  9
$JOINSTYLE
280
     0
  9
$LWDISPLAY
290
     1
  9
$INSUNITS
 70
     1
  9
$HYPERLINKBASE
  1

  9
$STYLESHEET
  1

  9
$XEDIT
290
     1
  9
$CEPSNTYPE
380
     0
  9
$PSTYLEMODE
290
     1
  9
$FINGERPRINTGUID
  2
{08D600B7-E4E9-1B42-9738-77F87DB82600}
  9
$VERSIONGUID
  2
{86663C3C-2D78-964E-BD31-E3553402928F}
  9
$EXTNAMES
290
     1
  9
$PSVPSCALE
 40
0.0
  9
$OLESTARTUP
290
     0
  9
$SORTENTS
280
   127
  9
$INDEXCTL
280
     0
  9
$HIDETEXT
280
     1
  9
$XCLIPFRAME
280
     2
  9
$HALOGAP
280
     0
  9
$OBSCOLOR
 70
   257
  9
$OBSLTYPE
280
     0
  9
$INTERSECTIONDISPLAY
280
     0
  9
$INTERSECTIONCOLOR
 70
   257
  9
$DIMASSOC
280
     2
  9
$PROJECTNAME
  1

  9
$CAMERADISPLAY
290
     0
  9
$LENSLENGTH
 40
50.0
  9
$CAMERAHEIGHT
 40
0.0
  9
$STEPSPERSEC
 40
2.0
  9
$STEPSIZE
 40
6.0
  9
$3DDWFPREC
 40
2.0
  9
$PSOLWIDTH
 40
0.25
  9
$PSOLHEIGHT
 40
4.0
  9
$LOFTANG1
 40
1.570796326794896
  9
$LOFTANG2
 40
1.570796326794896
  9
$LOFTMAG1
 40
0.0
  9
$LOFTMAG2
 40
0.0
  9
$LOFTPARAM
 70
     7
  9
$LOFTNORMALS
280
     1
  9
$LATITUDE
 40
37.795
  9
$LONGITUDE
 40
-122.394
  9
$NORTHDIRECTION
 40
0.0
  9
$TIMEZONE
 70
 -8000
  9
$LIGHTGLYPHDISPLAY
280
     1
  9
$TILEMODELIGHTSYNCH
280
     1
  9
$CMATERIAL
347
11
  9
$SOLIDHIST
280
     0
  9
$SHOWHIST
280
     1
  9
$DWFFRAME
280
     2
  9
$DGNFRAME
280
     0
  9
$REALWORLDSCALE
290
     1
  9
$INTERFERECOLOR
 62
     1
  9
$INTERFEREOBJVS
345
33
  9
$INTERFEREVPVS
346
30
  9
$CSHADOW
280
     0
  9
$SHADOWPLANELOCATION
 40
0.0
  0
ENDSEC
  0
SECTION
  2
CLASSES
  0
CLASS
  1
ACDBDICTIONARYWDFLT
  2
AcDbDictionaryWithDefault
  3
ObjectDBX Classes
 90
        0
 91
        1
280
     0
281
     0
  0
CLASS
  1
MATERIAL
  2
AcDbMaterial
  3
ObjectDBX Classes
 90
     1153
 91
        3
280
     0
281
     0
  0
CLASS
  1
VISUALSTYLE
  2
AcDbVisualStyle
  3
ObjectDBX Classes
 90
     4095
 91
       24
280
     0
281
     0
  0
CLASS
  1
SCALE
  2
AcDbScale
  3
ObjectDBX Classes
 90
     1153
 91
       17
280
     0
281
     0
  0
CLASS
  1
TABLESTYLE
  2
AcDbTableStyle
  3
ObjectDBX Classes
 90
     4095
 91
        1
280
     0
281
     0
  0
CLASS
  1
MLEADERSTYLE
  2
AcDbMLeaderStyle
  3
ACDB_MLEADERSTYLE_CLASS
 90
     4095
 91
        1
280
     0
281
     0
  0
CLASS
  1
ACDBSECTIONVIEWSTYLE
  2
AcDbSectionViewStyle
  3
ObjectDBX Classes
 90
     1025
 91
        1
280
     0
281
     0
  0
CLASS
  1
ACDBDETAILVIEWSTYLE
  2
AcDbDetailViewStyle
  3
ObjectDBX Classes
 90
     1025
 91
        1
280
     0
281
     0
  0
CLASS
  1
DICTIONARYVAR
  2
AcDbDictionaryVar
  3
ObjectDBX Classes
 90
        0
 91
        5
280
     0
281
     0
  0
CLASS
  1
CELLSTYLEMAP
  2
AcDbCellStyleMap
  3
ObjectDBX Classes
 90
     1152
 91
        1
280
     0
281
     0
  0
ENDSEC
  0
SECTION
  2
TABLES
  0
TABLE
  2
VPORT
  5
8
330
0
100
AcDbSymbolTable
 70
     1
  0
VPORT
  5
57
330
8
100
AcDbSymbolTableRecord
100
AcDbViewportTableRecord
  2
*Active
 70
     0
 10
0.0
 20
0.0
 11
1.0
 21
1.0
 12
0.0
 22
0.0
 13
0.0
 23
0.0
 14
1.0
 24
1.0
 15
0.0
 25
0.0
 16
0.0
 26
0.0
 36
1.0
 17
5.5
 27
-5.5
 37
0.0
 40
11.22
 41
1.0
 42
50.0
 43
0.0
 44
0.0
 50
0.0
 51
0.0
 71
     0
 72
   100
 73
     1
 74
     1
 75
     0
 76
     0
 77
     0
 78
     0
281
     0
 65
     1
110
0.0
120
0.0
130
0.0
111
1.0
121
0.0
131
0.0
112
0.0
122
1.0
132
0.0
 79
     0
146
0.0
 60
     3
 61
     5
292
     1
282
     1
141
0.0
142
0.0
 63
   250
421
  3355443
  0
ENDTAB
  0
TABLE
  2
LTYPE
  5
5
330
0
100
AcDbSymbolTable
 70
     1
  0
LTYPE
  5
5B
330
5
100
AcDbSymbolTableRecord
100
AcDbLinetypeTableRecord
  2
ByBlock
 70
     0
  3

 72
    65
 73
     0
 40
0.0
  0
LTYPE
  5
5C
330
5
100
AcDbSymbolTableRecord
100
AcDbLinetypeTableRecord
  2
ByLayer
 70
     0
  3

 72
    65
 73
     0
 40
0.0
  0
LTYPE
  5
5D
330
5
100
AcDbSymbolTableRecord
100
AcDbLinetypeTableRecord
  2
Continuous
 70
     0
  3
Solid line
 72
    65
 73
     0
 40
0.0
  0
ENDTAB
  0
TABLE
  2
LAYER
  5
2
330
0
100
AcDbSymbolTable
 70
     2
  0
LAYER
  5
54
330
2
100
AcDbSymbolTableRecord
100
AcDbLayerTableRecord
  2
0
 70
     0
 62
     7
  6
Continuous
370
    -3
390
F
347
21
348
0
  0
LAYER
  5
78
330
2
100
AcDbSymbolTableRecord
100
AcDbLayerTableRecord
  2
Layer 1
 70
     0
 62
     7
  6
Continuous
370
     0
390
F
347
21
348
0
  0
ENDTAB
  0
TABLE
  2
STYLE
  5
3
330
0
100
AcDbSymbolTable
 70
     2
  0
STYLE
  5
55
330
3
100
AcDbSymbolTableRecord
100
AcDbTextStyleTableRecord
  2
Standard
 70
     0
 40
0.0
 41
1.0
 50
0.0
 71
     0
 42
0.2
  3
txt
  4

  0
STYLE
  5
5A
330
3
100
AcDbSymbolTableRecord
100
AcDbTextStyleTableRecord
  2
Annotative
 70
     0
 40
0.0
 41
1.0
 50
0.0
 71
     0
 42
0.2
  3
txt
  4

1001
AcadAnnotative
1000
AnnotativeData
1002
{
1070
     1
1070
     1
1002
}
  0
ENDTAB
  0
TABLE
  2
VIEW
  5
6
330
0
100
AcDbSymbolTable
 70
     0
  0
ENDTAB
  0
TABLE
  2
UCS
  5
7
330
0
100
AcDbSymbolTable
 70
     0
  0
ENDTAB
  0
TABLE
  2
APPID
  5
9
330
0
100
AcDbSymbolTable
 70
     2
  0
APPID
  5
56
330
9
100
AcDbSymbolTableRecord
100
AcDbRegAppTableRecord
  2
ACAD
 70
     0
  0
APPID
  5
5E
330
9
100
AcDbSymbolTableRecord
100
AcDbRegAppTableRecord
  2
AcadAnnotative
 70
     0
  0
ENDTAB
  0
TABLE
  2
DIMSTYLE
  5
A
330
0
100
AcDbSymbolTable
 70
     2
100
AcDbDimStyleTable
 71
     0
  0
DIMSTYLE
105
58
330
A
100
AcDbSymbolTableRecord
100
AcDbDimStyleTableRecord
  2
Standard
 70
     0
340
55
  0
DIMSTYLE
105
59
330
A
100
AcDbSymbolTableRecord
100
AcDbDimStyleTableRecord
  2
Annotative
 70
     0
340
55
1001
AcadAnnotative
1000
AnnotativeData
1002
{
1070
     1
1070
     1
1002
}
  0
ENDTAB
  0
TABLE
  2
BLOCK_RECORD
  5
1
330
0
100
AcDbSymbolTable
 70
     1
  0
BLOCK_RECORD
  5
70
330
1
100
AcDbSymbolTableRecord
100
AcDbBlockTableRecord
  2
*Model_Space
340
73
 70
     0
280
     1
281
     0
  0
BLOCK_RECORD
  5
6C
330
1
100
AcDbSymbolTableRecord
100
AcDbBlockTableRecord
  2
*Paper_Space
340
6F
 70
     0
280
     1
281
     0
  0
BLOCK_RECORD
  5
74
330
1
100
AcDbSymbolTableRecord
100
AcDbBlockTableRecord
  2
*Paper_Space0
340
77
 70
     0
280
     1
281
     0
  0
ENDTAB
  0
ENDSEC
  0
SECTION
  2
BLOCKS
  0
BLOCK
  5
71
330
70
100
AcDbEntity
  8
0
100
AcDbBlockBegin
  2
*Model_Space
 70
     0
 10
0.0
 20
0.0
 30
0.0
  3
*Model_Space
  1

  0
ENDBLK
  5
72
330
70
100
AcDbEntity
  8
0
100
AcDbBlockEnd
  0
BLOCK
  5
6D
330
6C
100
AcDbEntity
 67
     1
  8
0
100
AcDbBlockBegin
  2
*Paper_Space
 70
     0
 10
0.0
 20
0.0
 30
0.0
  3
*Paper_Space
  1

  0
ENDBLK
  5
6E
330
6C
100
AcDbEntity
 67
     1
  8
0
100
AcDbBlockEnd
  0
BLOCK
  5
75
330
74
100
AcDbEntity
 67
     1
  8
0
100
AcDbBlockBegin
  2
*Paper_Space0
 70
     0
 10
0.0
 20
0.0
 30
0.0
  3
*Paper_Space0
  1

  0
ENDBLK
  5
76
330
74
100
AcDbEntity
 67
     1
  8
0
100
AcDbBlockEnd
  0
ENDSEC
  0
SECTION
  2
ENTITIES
  0
LINE
  5
79
330
70
100
AcDbEntity
  8
Layer 1
 62
    18
420
        0
370
     5
100
AcDbLine
 10
2.331172195324926
 20
-9.889472719568679
 30
0.0
 11
2.331172195324926
 21
-7.844243632607053
 31
0.0
  0
LINE
  5
7A
330
70
100
AcDbEntity
  8
Layer 1
 62
    18
420
        0
370
     5
100
AcDbLine
 10
2.370785975848699
 20
-9.82938948466373
 30
0.0
 11
2.370785987456125
 21
-7.844243632607053
 31
0.0
  0
LINE
  5
7B
330
70
100
AcDbEntity
  8
Layer 1
 62
    18
420
        0
370
     5
100
AcDbLine
 10
2.591749858897413
 20
-7.844243632607053
 30
0.0
 11
2.591749851892953
 21
-9.829389518485312
 31
0.0
  0
LINE
  5
7C
330
70
100
AcDbEntity
  8
Layer 1
 62
    18
420
        0
370
     5
100
AcDbLine
 10
2.631363651028588
 20
-7.844243632607053
 30
0.0
 11
2.631363651028588
 21
-9.889472719768768
 31
0.0
  0
LINE
  5
7D
330
70
100
AcDbEntity
  8
Layer 1
 62
    18
420
        0
370
     5
100
AcDbLine
 10
5.974979897910063
 20
-6.104795099856851
 30
0.0
 11
5.974979897910063
 21
-8.456294836202106
 31
0.0
  0
LINE
  5
7E
330
70
100
AcDbEntity
  8
Layer 1
 62
    18
420
        0
370
     5
100
AcDbLine
 10
9.061133795700117
 20
-9.932236160078319
 30
0.0
 11
9.491408163909074
 21
-9.932236160078319
 31
0.0
  0
LINE
  5
7F
330
70
100
AcDbEntity
  8
Layer 1
 62
    18
420
        0
370
     5
100
AcDbLine
 10
6.266450657940114
 20
-6.173578564582688
 30
0.0
 11
6.267481628170925
 21
-6.241065572656098
 31
0.0
  0
LINE
  5
80
330
70
100
AcDbEntity
  8
Layer 1
 62
    18
420
        0
370
     5
100
AcDbLine
 10
6.266450657940114
 20
-8.387511371476319
 30
0.0
 11
6.266450657940114
 21
-6.173578564582688
 31
0.0
  0
LINE
  5
81
330
70
100
AcDbEntity
  8
Layer 1
 62
    18
420
        0
370
     5
100
AcDbLine
 10
6.267481628170925
 20
-8.320024363402858
 30
0.0
 11
6.267481628170925
 21
-6.241065572656098
 31
0.0
  0
LINE
  5
82
330
70
100
AcDbEntity
  8
Layer 1
 62
    18
420
        0
370
     5
100
AcDbLine
 10
6.266450657940114
 20
-8.387511371476319
 30
0.0
 11
6.267481628170925
 21
-8.320024363402858
 31
0.0
  0
LINE
  5
83
330
70
100
AcDbEntity
  8
Layer 1
 62
    18
420
        0
370
     5
100
AcDbLine
 10
6.596944690180357
 20
-8.162637816522293
 30
0.0
 11
6.596944690180357
 21
-6.398452119636734
 31
0.0
  0
LINE
  5
84
330
70
100
AcDbEntity
  8
Layer 1
 62
    18
420
        0
370
     5
100
AcDbLine
 10
6.597379641182795
 20
-8.139602550121001
 30
0.0
 11
6.597379641182795
 21
-6.421487385938007
 31
0.0
  0
LINE
  5
85
330
70
100
AcDbEntity
  8
Layer 1
 62
    18
420
        0
370
     5
100
AcDbLine
 10
6.596944690180357
 20
-8.162637816522293
 30
0.0
 11
6.597379641182795
 21
-8.139602550121001
 31
0.0
  0
LINE
  5
86
330
70
100
AcDbEntity
  8
Layer 1
 62
    18
420
        0
370
     5
100
AcDbLine
 10
6.596944690180357
 20
-6.398452119636734
 30
0.0
 11
6.597379641182795
 21
-6.421487385938007
 31
0.0
  0
LINE
  5
87
330
70
100
AcDbEntity
  8
Layer 1
 62
    18
420
        0
370
     5
100
AcDbLine
 10
5.984986279766821
 20
-8.466301218058889
 30
0.0
 11
6.186409538922664
 21
-8.466301218058889
 31
0.0
  0
LINE
  5
88
330
70
100
AcDbEntity
  8
Layer 1
 62
    18
420
        0
370
     5
100
AcDbLine
 10
6.347523921837515
 20
-8.24115762628114
 30
0.0
 11
6.516908281767225
 21
-8.24115762628114
 31
0.0
  0
LINE
  5
89
330
70
100
AcDbEntity
  8
Layer 1
 62
    18
420
        0
370
     5
100
AcDbLine
 10
8.093982866678894
 20
-8.121081043999714
 30
0.0
 11
8.253352523644833
 21
-8.121081043999714
 31
0.0
  0
LINE
  5
8A
330
70
100
AcDbEntity
  8
Layer 1
 62
    18
420
        0
370
     5
100
AcDbLine
 10
6.677416804677477
 20
-8.061042752858964
 30
0.0
 11
8.002272862095297
 21
-8.061042752858964
 31
0.0
  0
LINE
  5
8B
330
70
100
AcDbEntity
  8
Layer 1
 62
    18
420
        0
370
     5
100
AcDbLine
 10
8.057298864905508
 20
-6.464024208515588
 30
0.0
 11
8.057298864905508
 21
-8.09706572754337
 31
0.0
  0
LINE
  5
8C
330
70
100
AcDbEntity
  8
Layer 1
 62
    18
420
        0
370
     5
100
AcDbLine
 10
8.427629220102364
 20
-7.740838533441748
 30
0.0
 11
8.474206377819452
 21
-7.740838533441748
 31
0.0
  0
LINE
  5
8D
330
70
100
AcDbEntity
  8
Layer 1
 62
    18
420
        0
370
     5
100
AcDbLine
 10
9.549112321088992
 20
-7.67425330490404
 30
0.0
 11
9.003429638320135
 21
-7.67425330490404
 31
0.0
  0
LINE
  5
8E
330
70
100
AcDbEntity
  8
Layer 1
 62
    18
420
        0
370
     5
100
AcDbLine
 10
8.297564308977875
 20
-6.692335569629019
 30
0.0
 11
8.293367738895085
 21
-6.479125909858389
 31
0.0
  0
LINE
  5
8F
330
70
100
AcDbEntity
  8
Layer 1
 62
    18
420
        0
370
     5
100
AcDbLine
 10
8.293367738895085
 20
-8.081964026200592
 30
0.0
 11
8.293367738895085
 21
-6.479125909858389
 31
0.0
  0
LINE
  5
90
330
70
100
AcDbEntity
  8
Layer 1
 62
    18
420
        0
370
     5
100
AcDbLine
 10
8.297564308977875
 20
-7.868754366429988
 30
0.0
 11
8.297564308977875
 21
-6.692335569629019
 31
0.0
  0
LINE
  5
91
330
70
100
AcDbEntity
  8
Layer 1
 62
    18
420
        0
370
     5
100
AcDbLine
 10
8.297564308977875
 20
-7.868754366429988
 30
0.0
 11
8.293367738895085
 21
-8.081964026200592
 31
0.0
  0
LINE
  5
92
330
70
100
AcDbEntity
  8
Layer 1
 62
    18
420
        0
370
     5
100
AcDbLine
 10
8.531975612004064
 20
-7.609254612024995
 30
0.0
 11
8.901031660075002
 21
-7.609254612024995
 31
0.0
  0
LINE
  5
93
330
70
100
AcDbEntity
  8
Layer 1
 62
    18
420
        0
370
     5
100
AcDbLine
 10
9.631497535620509
 20
-7.575733232804749
 30
0.0
 11
9.659753200080279
 21
-7.575733232804749
 31
0.0
  0
LINE
  5
94
330
70
100
AcDbEntity
  8
Layer 1
 62
    18
420
        0
370
     5
100
AcDbLine
 10
8.514200144890537
 20
-6.858682741204802
 30
0.0
 11
8.514200144890537
 21
-7.702407194854155
 31
0.0
  0
LINE
  5
95
330
70
100
AcDbEntity
  8
Layer 1
 62
    18
420
        0
370
     5
100
AcDbLine
 10
8.51653473504229
 20
-7.639079088539548
 30
0.0
 11
8.516534735142334
 21
-6.922010847519408
 31
0.0
  0
LINE
  5
96
330
70
100
AcDbEntity
  8
Layer 1
 62
    18
420
        0
370
     5
100
AcDbLine
 10
8.969484762302675
 20
-7.280544968029491
 30
0.0
 11
8.968029718906992
 21
-7.280544968029491
 31
0.0
  0
LINE
  5
97
330
70
100
AcDbEntity
  8
Layer 1
 62
    18
420
        0
370
     5
100
AcDbLine
 10
9.583057197106452
 20
-7.280544968029491
 30
0.0
 11
9.586278299556825
 21
-7.280544968029491
 31
0.0
  0
LINE
  5
98
330
70
100
AcDbEntity
  8
Layer 1
 62
    18
420
        0
370
     5
100
AcDbLine
 10
9.626284471439449
 20
-6.985356703254208
 30
0.0
 11
9.659753200080279
 21
-6.985356703254208
 31
0.0
  0
LINE
  5
99
330
70
100
AcDbEntity
  8
Layer 1
 62
    18
420
        0
370
     5
100
AcDbLine
 10
8.908030333479523
 20
-6.951835324034012
 30
0.0
 11
8.531975612004064
 21
-6.951835324034012
 31
0.0
  0
LINE
  5
9A
330
70
100
AcDbEntity
  8
Layer 1
 62
    18
420
        0
370
     5
100
AcDbLine
 10
8.968029718906992
 20
-6.893958084866122
 30
0.0
 11
8.968029718906992
 21
-7.280544968029491
 31
0.0
  0
LINE
  5
9B
330
70
100
AcDbEntity
  8
Layer 1
 62
    18
420
        0
370
     5
100
AcDbLine
 10
8.969484762302675
 20
-6.85547814077899
 30
0.0
 11
8.969484762302675
 21
-7.280544968029491
 31
0.0
  0
LINE
  5
9C
330
70
100
AcDbEntity
  8
Layer 1
 62
    18
420
        0
370
     5
100
AcDbLine
 10
8.427629220102364
 20
-6.820251402617208
 30
0.0
 11
8.474206377819452
 21
-6.820251402617208
 31
0.0
  0
LINE
  5
9D
330
70
100
AcDbEntity
  8
Layer 1
 62
    18
420
        0
370
     5
100
AcDbLine
 10
9.591472005591741
 20
-9.832172335506633
 30
0.0
 11
9.590903739263568
 21
-9.82938948466373
 31
0.0
  0
LINE
  5
9E
330
70
100
AcDbEntity
  8
Layer 1
 62
    18
420
        0
370
     5
100
AcDbLine
 10
9.591472008193376
 20
-9.832181923921906
 30
0.0
 11
9.591424794081198
 21
-9.831941234715486
 31
0.0
  0
LINE
  5
9F
330
70
100
AcDbEntity
  8
Layer 1
 62
    18
420
        0
370
     5
100
AcDbLine
 10
6.677416804677477
 20
-6.500047183200043
 30
0.0
 11
8.002272862095297
 21
-6.500047183200043
 31
0.0
  0
LINE
  5
A0
330
70
100
AcDbEntity
  8
Layer 1
 62
    18
420
        0
370
     5
100
AcDbLine
 10
8.093982866678894
 20
-6.440008892059292
 30
0.0
 11
8.253352523644833
 21
-6.440008892059292
 31
0.0
  0
LINE
  5
A1
330
70
100
AcDbEntity
  8
Layer 1
 62
    18
420
        0
370
     5
100
AcDbLine
 10
9.583057197106452
 20
-7.280544968029491
 30
0.0
 11
9.583057197106452
 21
-6.85547814077899
 31
0.0
  0
LINE
  5
A2
330
70
100
AcDbEntity
  8
Layer 1
 62
    18
420
        0
370
     5
100
AcDbLine
 10
9.586278299556825
 20
-7.280544968029491
 30
0.0
 11
9.586278299556825
 21
-6.946575785712688
 31
0.0
  0
LINE
  5
A3
330
70
100
AcDbEntity
  8
Layer 1
 62
    18
420
        0
370
     5
100
AcDbLine
 10
6.347523921837515
 20
-6.319932309777843
 30
0.0
 11
6.516908281767225
 21
-6.319932309777843
 31
0.0
  0
LINE
  5
A4
330
70
100
AcDbEntity
  8
Layer 1
 62
    18
420
        0
370
     5
100
AcDbLine
 10
9.69589556010611
 20
-7.008184188437123
 30
0.0
 11
9.69589556010611
 21
-7.552905747621884
 31
0.0
  0
LINE
  5
A5
330
70
100
AcDbEntity
  8
Layer 1
 62
    18
420
        0
370
     5
100
AcDbLine
 10
5.984986279766821
 20
-6.094788718000093
 30
0.0
 11
6.186409538922664
 21
-6.094788718000093
 31
0.0
  0
LINE
  5
A6
330
70
100
AcDbEntity
  8
Layer 1
 62
    18
420
        0
370
     5
100
AcDbLine
 10
2.753628702669086
 20
-4.788679502117702
 30
0.0
 11
2.208907143584395
 21
-4.788679502117702
 31
0.0
  0
LINE
  5
A7
330
70
100
AcDbEntity
  8
Layer 1
 62
    18
420
        0
370
     5
100
AcDbLine
 10
2.147298740759917
 20
-4.679062241568417
 30
0.0
 11
2.81523710549354
 21
-4.679062241568417
 31
0.0
  0
LINE
  5
A8
330
70
100
AcDbEntity
  8
Layer 1
 62
    18
420
        0
370
     5
100
AcDbLine
 10
1.295511673147391
 20
-1.077770221778412
 30
0.0
 11
1.295511673147391
 21
-1.279193480934256
 31
0.0
  0
LINE
  5
A9
330
70
100
AcDbEntity
  8
Layer 1
 62
    18
420
        0
370
     5
100
AcDbLine
 10
2.906334750427238
 20
-4.062268704314242
 30
0.0
 11
2.0562010959263
 21
-4.062268704314242
 31
0.0
  0
LINE
  5
AA
330
70
100
AcDbEntity
  8
Layer 1
 62
    18
420
        0
370
     5
100
AcDbLine
 10
1.520655264925115
 20
-1.44030786384912
 30
0.0
 11
1.520655264925115
 21
-1.609692223778804
 31
0.0
  0
LINE
  5
AB
330
70
100
AcDbEntity
  8
Layer 1
 62
    18
420
        0
370
     5
100
AcDbLine
 10
1.640731847206577
 20
-3.186766808690498
 30
0.0
 11
1.640731847206577
 21
-3.346136465656387
 31
0.0
  0
LINE
  5
AC
330
70
100
AcDbEntity
  8
Layer 1
 62
    18
420
        0
370
     5
100
AcDbLine
 10
1.700770138347289
 20
-1.770200746589011
 30
0.0
 11
1.700770138347289
 21
-3.095056804106914
 31
0.0
  0
LINE
  5
AD
330
70
100
AcDbEntity
  8
Layer 1
 62
    18
420
        0
370
     5
100
AcDbLine
 10
2.122733802666668
 20
-3.609318677053869
 30
0.0
 11
2.839802043686846
 21
-3.609318677053869
 31
0.0
  0
LINE
  5
AE
330
70
100
AcDbEntity
  8
Layer 1
 62
    18
420
        0
370
     5
100
AcDbLine
 10
2.020974357764505
 20
-3.520413162113906
 30
0.0
 11
2.020974357764505
 21
-3.566990319831019
 31
0.0
  0
LINE
  5
AF
330
70
100
AcDbEntity
  8
Layer 1
 62
    18
420
        0
370
     5
100
AcDbLine
 10
1.893058524776279
 20
-3.39034825098948
 30
0.0
 11
3.069477321577273
 21
-3.39034825098948
 31
0.0
  0
LINE
  5
B0
330
70
100
AcDbEntity
  8
Layer 1
 62
    18
420
        0
370
     5
100
AcDbLine
 10
3.297788682690666
 20
-3.150082806917099
 30
0.0
 11
1.664747163662847
 21
-3.150082806917099
 31
0.0
  0
LINE
  5
B1
330
70
100
AcDbEntity
  8
Layer 1
 62
    18
420
        0
370
     5
100
AcDbLine
 10
2.941561488589008
 20
-3.520413162113906
 30
0.0
 11
2.941561488589008
 21
-3.566990319831019
 31
0.0
  0
LINE
  5
B2
330
70
100
AcDbEntity
  8
Layer 1
 62
    18
420
        0
370
     5
100
AcDbLine
 10
3.261765708006224
 20
-1.770200746589011
 30
0.0
 11
3.261765708006224
 21
-3.095056804106914
 31
0.0
  0
LINE
  5
B3
330
70
100
AcDbEntity
  8
Layer 1
 62
    18
420
        0
370
     5
100
AcDbLine
 10
3.321803999146949
 20
-3.186766808690498
 30
0.0
 11
3.321803999146949
 21
-3.346136465656387
 31
0.0
  0
LINE
  5
B4
330
70
100
AcDbEntity
  8
Layer 1
 62
    18
420
        0
370
     5
100
AcDbLine
 10
3.441880581428424
 20
-1.44030786384912
 30
0.0
 11
3.441880581428424
 21
-1.609692223778804
 31
0.0
  0
LINE
  5
B5
330
70
100
AcDbEntity
  8
Layer 1
 62
    18
420
        0
370
     5
100
AcDbLine
 10
3.667024173206161
 20
-1.077770221778412
 30
0.0
 11
3.667024173206161
 21
-1.279193480934256
 31
0.0
  0
LINE
  5
B6
330
70
100
AcDbEntity
  8
Layer 1
 62
    18
420
        0
370
     5
100
AcDbLine
 10
1.622210341085241
 20
-1.690163583194399
 30
0.0
 11
3.340325505268272
 21
-1.690163583194399
 31
0.0
  0
LINE
  5
B7
330
70
100
AcDbEntity
  8
Layer 1
 62
    18
420
        0
370
     5
100
AcDbLine
 10
3.363360771569507
 20
-1.68972863219191
 30
0.0
 11
1.599175074683974
 21
-1.68972863219191
 31
0.0
  0
LINE
  5
B8
330
70
100
AcDbEntity
  8
Layer 1
 62
    18
420
        0
370
     5
100
AcDbLine
 10
1.441788527803396
 20
-1.360265570182504
 30
0.0
 11
3.520747318550156
 21
-1.360265570182504
 31
0.0
  0
LINE
  5
B9
330
70
100
AcDbEntity
  8
Layer 1
 62
    18
420
        0
370
     5
100
AcDbLine
 10
3.588234326523509
 20
-1.359234599951693
 30
0.0
 11
1.37430151972996
 21
-1.359234599951693
 31
0.0
  0
LINE
  5
BA
330
70
100
AcDbEntity
  8
Layer 1
 62
    18
420
        0
370
     5
100
AcDbLine
 10
3.657017791349352
 20
-1.067763839921642
 30
0.0
 11
1.305518055004161
 21
-1.067763839921642
 31
0.0
  0
SPLINE
  5
BB
330
70
100
AcDbEntity
  8
Layer 1
 62
    18
420
        0
370
     5
100
AcDbSpline
210
0.0
220
0.0
230
1.0
 70
     8
 71
     3
 72
     8
 73
     4
 74
     0
 42
0.0000000001
 43
0.0000000001
 40
0.0
 40
0.0
 40
0.0
 40
0.0
 40
1.0
 40
1.0
 40
1.0
 40
1.0
 10
2.331172195324926
 20
-9.889472719665365
 30
0.0
 10
2.331172189083556
 20
-9.91080470798354
 30
0.0
 10
2.347902153862277
 20
-9.928388191562691
 30
0.0
 10
2.369207761557213
 20
-9.929448760446904
 30
0.0
  0
SPLINE
  5
BC
330
70
100
AcDbEntity
  8
Layer 1
 62
    18
420
        0
370
     5
100
AcDbSpline
210
0.0
220
0.0
230
1.0
 70
     8
 71
     3
 72
     8
 73
     4
 74
     0
 42
0.0000000001
 43
0.0000000001
 40
0.0
 40
0.0
 40
0.0
 40
0.0
 40
1.0
 40
1.0
 40
1.0
 40
1.0
 10
2.331172195324926
 20
-7.844243632607053
 30
0.0
 10
2.331172195324926
 20
-7.775051671623335
 30
0.0
 10
2.29543107304207
 20
-7.710768270293126
 30
0.0
 10
2.236658760090815
 20
-7.674253304934508
 30
0.0
  0
SPLINE
  5
BD
330
70
100
AcDbEntity
  8
Layer 1
 62
    18
420
        0
370
     5
100
AcDbSpline
210
0.0
220
0.0
230
1.0
 70
     8
 71
     3
 72
     8
 73
     4
 74
     0
 42
0.0000000001
 43
0.0000000001
 40
0.0
 40
0.0
 40
0.0
 40
0.0
 40
1.0
 40
1.0
 40
1.0
 40
1.0
 10
2.593328084576127
 20
-9.929448760457892
 30
0.0
 10
2.6146336922938
 20
-9.928388191690196
 30
0.0
 10
2.631363657175774
 20
-9.910804708177238
 30
0.0
 10
2.631363651028588
 20
-9.889472719842109
 30
0.0
  0
SPLINE
  5
BE
330
70
100
AcDbEntity
  8
Layer 1
 62
    18
420
        0
370
     5
100
AcDbSpline
210
0.0
220
0.0
230
1.0
 70
     8
 71
     3
 72
     8
 73
     4
 74
     0
 42
0.0000000001
 43
0.0000000001
 40
0.0
 40
0.0
 40
0.0
 40
0.0
 40
1.0
 40
1.0
 40
1.0
 40
1.0
 10
2.369207733094678
 20
-9.929448758978651
 30
0.0
 10
2.443868294108761
 20
-9.933165293302003
 30
0.0
 10
2.518667523515722
 20
-9.933165293778554
 30
0.0
 10
2.593328084577124
 20
-9.929448760406405
 30
0.0
  0
SPLINE
  5
BF
330
70
100
AcDbEntity
  8
Layer 1
 62
    18
420
        0
370
     5
100
AcDbSpline
210
0.0
220
0.0
230
1.0
 70
     8
 71
     3
 72
    17
 73
    13
 74
     0
 42
0.0000000001
 43
0.0000000001
 40
0.0
 40
0.0
 40
0.0
 40
0.0
 40
1.0
 40
1.0
 40
1.0
 40
2.0
 40
2.0
 40
2.0
 40
3.0
 40
3.0
 40
3.0
 40
4.0
 40
4.0
 40
4.0
 40
4.0
 10
2.63147036967953
 20
-8.456749503621974
 30
0.0
 10
3.281070197369065
 20
-8.373794983031226
 30
0.0
 10
3.740426979360007
 20
-7.779942349216298
 30
0.0
 10
3.657472458769246
 20
-7.130342521526775
 30
0.0
 10
3.574517938178498
 20
-6.48074269383715
 30
0.0
 10
2.980665304363532
 20
-6.021385911846209
 30
0.0
 10
2.331065476673996
 20
-6.104340432436982
 30
0.0
 10
1.681465648984448
 20
-6.187294953027781
 30
0.0
 10
1.222108866993519
 20
-6.781147586842709
 30
0.0
 10
1.30506338758428
 20
-7.430747414532283
 30
0.0
 10
1.373480138317896
 20
-7.96650494975918
 30
0.0
 10
1.795307941466426
 20
-8.388332752900344
 30
0.0
 10
2.331065476694523
 20
-8.456749503624601
 30
0.0
  0
SPLINE
  5
C0
330
70
100
AcDbEntity
  8
Layer 1
 62
    18
420
        0
370
     5
100
AcDbSpline
210
0.0
220
0.0
230
1.0
 70
     8
 71
     3
 72
    17
 73
    13
 74
     0
 42
0.0000000001
 43
0.0000000001
 40
0.0
 40
0.0
 40
0.0
 40
0.0
 40
1.0
 40
1.0
 40
1.0
 40
2.0
 40
2.0
 40
2.0
 40
3.0
 40
3.0
 40
3.0
 40
4.0
 40
4.0
 40
4.0
 40
4.0
 10
2.631534427503904
 20
-8.229331907690113
 30
0.0
 10
3.155534985117103
 20
-8.146342008939857
 30
0.0
 10
3.513044761587682
 20
-7.65427902131556
 30
0.0
 10
3.430054862837411
 20
-7.130278463702349
 30
0.0
 10
3.347064964087141
 20
-6.606277906089113
 30
0.0
 10
2.85500197646282
 20
-6.24876812961856
 30
0.0
 10
2.331001418849622
 20
-6.331758028368843
 30
0.0
 10
1.807000861236423
 20
-6.4147479271191
 30
0.0
 10
1.44949108476587
 20
-6.906810914743395
 30
0.0
 10
1.532480983516127
 20
-7.430811472356607
 30
0.0
 10
1.597585183936719
 20
-7.841881227074837
 30
0.0
 10
1.919996368994563
 20
-8.16426880601039
 30
0.0
 10
2.331070889548401
 20
-8.229342907678679
 30
0.0
  0
SPLINE
  5
C1
330
70
100
AcDbEntity
  8
Layer 1
 62
    18
420
        0
370
     5
100
AcDbSpline
210
0.0
220
0.0
230
1.0
 70
     8
 71
     3
 72
    17
 73
    13
 74
     0
 42
0.0000000001
 43
0.0000000001
 40
0.0
 40
0.0
 40
0.0
 40
0.0
 40
1.0
 40
1.0
 40
1.0
 40
2.0
 40
2.0
 40
2.0
 40
3.0
 40
3.0
 40
3.0
 40
4.0
 40
4.0
 40
4.0
 40
4.0
 10
2.631640442577943
 20
-8.107520784130757
 30
0.0
 10
3.088366574289516
 20
-8.024472334871839
 30
0.0
 10
3.391292188536908
 20
-7.586898580339922
 30
0.0
 10
3.308243739278004
 20
-7.130172448628349
 30
0.0
 10
3.225195290019137
 20
-6.673446316916725
 30
0.0
 10
2.787621535487207
 20
-6.370520702669333
 30
0.0
 10
2.330895403775608
 20
-6.453569151928199
 30
0.0
 10
1.874169272063997
 20
-6.536617601187142
 30
0.0
 10
1.571243657816618
 20
-6.974191355719034
 30
0.0
 10
1.654292107075522
 20
-7.430917487430658
 30
0.0
 10
1.716920847321072
 20
-7.775345138056106
 30
0.0
 10
1.986467753094138
 20
-8.044892043848879
 30
0.0
 10
2.330895403714988
 20
-8.107520784119717
 30
0.0
  0
SPLINE
  5
C2
330
70
100
AcDbEntity
  8
Layer 1
 62
    18
420
        0
370
     5
100
AcDbSpline
210
0.0
220
0.0
230
1.0
 70
     8
 71
     3
 72
    17
 73
    13
 74
     0
 42
0.0000000001
 43
0.0000000001
 40
0.0
 40
0.0
 40
0.0
 40
0.0
 40
1.0
 40
1.0
 40
1.0
 40
2.0
 40
2.0
 40
2.0
 40
3.0
 40
3.0
 40
3.0
 40
4.0
 40
4.0
 40
4.0
 40
4.0
 10
2.725877086271654
 20
-7.674253304953126
 30
0.0
 10
2.943316196635843
 20
-7.539159394506921
 30
0.0
 10
3.010070170546605
 20
-7.253374915298763
 30
0.0
 10
2.874976260100424
 20
-7.035935804934549
 30
0.0
 10
2.739882349654243
 20
-6.818496694570411
 30
0.0
 10
2.454097870446035
 20
-6.751742720659674
 30
0.0
 10
2.236658760081872
 20
-6.88683663110588
 30
0.0
 10
2.019219649717683
 20
-7.021930541552036
 30
0.0
 10
1.952465675806921
 20
-7.307715020760193
 30
0.0
 10
2.087559586253102
 20
-7.525154131124407
 30
0.0
 10
2.125144520163922
 20
-7.585648601716532
 30
0.0
 10
2.176164289489734
 20
-7.636668371042333
 30
0.0
 10
2.236658760081872
 20
-7.674253304953126
 30
0.0
  0
SPLINE
  5
C3
330
70
100
AcDbEntity
  8
Layer 1
 62
    18
420
        0
370
     5
100
AcDbSpline
210
0.0
220
0.0
230
1.0
 70
     8
 71
     3
 72
    11
 73
     7
 74
     0
 42
0.0000000001
 43
0.0000000001
 40
0.0
 40
0.0
 40
0.0
 40
0.0
 40
1.0
 40
1.0
 40
1.0
 40
2.0
 40
2.0
 40
2.0
 40
2.0
 10
2.906334750427238
 20
-7.280544968029491
 30
0.0
 10
2.906334750427238
 20
-7.045787041680088
 30
0.0
 10
2.716025849526165
 20
-6.85547814077899
 30
0.0
 10
2.48126792317675
 20
-6.85547814077899
 30
0.0
 10
2.246509996827373
 20
-6.85547814077899
 30
0.0
 10
2.0562010959263
 20
-7.045787041680088
 30
0.0
 10
2.0562010959263
 20
-7.280544968029491
 30
0.0
  0
CIRCLE
  5
C4
330
70
100
AcDbEntity
  8
Layer 1
 62
    18
420
        0
370
     5
100
AcDbCircle
 10
2.481267923176757
 20
-7.280544968029484
 30
0.0
 40
0.2951882647752642
  0
SPLINE
  5
C5
330
70
100
AcDbEntity
  8
Layer 1
 62
    18
420
        0
370
     5
100
AcDbSpline
210
0.0
220
0.0
230
1.0
 70
     8
 71
     3
 72
     8
 73
     4
 74
     0
 42
0.0000000001
 43
0.0000000001
 40
0.0
 40
0.0
 40
0.0
 40
0.0
 40
1.0
 40
1.0
 40
1.0
 40
1.0
 10
2.725877086262698
 20
-7.674253304934508
 30
0.0
 10
2.667104773311456
 20
-7.710768270293126
 30
0.0
 10
2.631363651028588
 20
-7.775051671623335
 30
0.0
 10
2.631363651028588
 20
-7.844243632607053
 30
0.0
  0
SPLINE
  5
C6
330
70
100
AcDbEntity
  8
Layer 1
 62
    18
420
        0
370
     5
100
AcDbSpline
210
0.0
220
0.0
230
1.0
 70
     8
 71
     3
 72
     8
 73
     4
 74
     0
 42
0.0000000001
 43
0.0000000001
 40
0.0
 40
0.0
 40
0.0
 40
0.0
 40
1.0
 40
1.0
 40
1.0
 40
1.0
 10
9.583057197052792
 20
-7.280544968042754
 30
0.0
 10
9.583058877417265
 20
-7.400473999981335
 30
0.0
 10
9.585083138611253
 20
-7.520394475361095
 30
0.0
 10
9.589129117140902
 20
-7.640255239426247
 30
0.0
  0
SPLINE
  5
C7
330
70
100
AcDbEntity
  8
Layer 1
 62
    18
420
        0
370
     5
100
AcDbSpline
210
0.0
220
0.0
230
1.0
 70
     8
 71
     3
 72
     8
 73
     4
 74
     0
 42
0.0000000001
 43
0.0000000001
 40
0.0
 40
0.0
 40
0.0
 40
0.0
 40
1.0
 40
1.0
 40
1.0
 40
1.0
 10
8.963412842234749
 20
-7.640255239427359
 30
0.0
 10
8.967460035975843
 20
-7.520394506133698
 30
0.0
 10
8.969484297515867
 20
-7.400474010254633
 30
0.0
 10
8.969484762322634
 20
-7.280544968056219
 30
0.0
  0
SPLINE
  5
C8
330
70
100
AcDbEntity
  8
Layer 1
 62
    18
420
        0
370
     5
100
AcDbSpline
210
0.0
220
0.0
230
1.0
 70
     8
 71
     3
 72
     8
 73
     4
 74
     0
 42
0.0000000001
 43
0.0000000001
 40
0.0
 40
0.0
 40
0.0
 40
0.0
 40
1.0
 40
1.0
 40
1.0
 40
1.0
 10
9.695895560084256
 20
-7.552905747560695
 30
0.0
 10
9.777891133006479
 20
-7.380588835816119
 30
0.0
 10
9.777891133006479
 20
-7.180501100242862
 30
0.0
 10
9.695895560084256
 20
-7.008184188498262
 30
0.0
  0
SPLINE
  5
C9
330
70
100
AcDbEntity
  8
Layer 1
 62
    18
420
        0
370
     5
100
AcDbSpline
210
0.0
220
0.0
230
1.0
 70
     8
 71
     3
 72
     8
 73
     4
 74
     0
 42
0.0000000001
 43
0.0000000001
 40
0.0
 40
0.0
 40
0.0
 40
0.0
 40
1.0
 40
1.0
 40
1.0
 40
1.0
 10
8.427629220102364
 20
-7.740838533441748
 30
0.0
 10
8.356631286524361
 20
-7.740838533441748
 30
0.0
 10
8.29874710670386
 20
-7.797766286027581
 30
0.0
 10
8.297564308993868
 20
-7.868754366449062
 30
0.0
  0
SPLINE
  5
CA
330
70
100
AcDbEntity
  8
Layer 1
 62
    18
420
        0
370
     5
100
AcDbSpline
210
0.0
220
0.0
230
1.0
 70
     8
 71
     3
 72
     8
 73
     4
 74
     0
 42
0.0000000001
 43
0.0000000001
 40
0.0
 40
0.0
 40
0.0
 40
0.0
 40
1.0
 40
1.0
 40
1.0
 40
1.0
 10
8.297564308993766
 20
-6.692335569605397
 30
0.0
 10
8.298747106701309
 20
-6.763323650028698
 30
0.0
 10
8.356631286522567
 20
-6.820251402617208
 30
0.0
 10
8.427629220102364
 20
-6.820251402617208
 30
0.0
  0
SPLINE
  5
CB
330
70
100
AcDbEntity
  8
Layer 1
 62
    18
420
        0
370
     5
100
AcDbSpline
210
0.0
220
0.0
230
1.0
 70
     8
 71
     3
 72
     8
 73
     4
 74
     0
 42
0.0000000001
 43
0.0000000001
 40
0.0
 40
0.0
 40
0.0
 40
0.0
 40
1.0
 40
1.0
 40
1.0
 40
1.0
 10
9.491408163909074
 20
-9.93223612405533
 30
0.0
 10
9.546671884803293
 20
-9.93223612405533
 30
0.0
 10
9.591471982276642
 20
-9.887436026582159
 30
0.0
 10
9.591471982276845
 20
-9.832172305687965
 30
0.0
  0
SPLINE
  5
CC
330
70
100
AcDbEntity
  8
Layer 1
 62
    18
420
        0
370
     5
100
AcDbSpline
210
0.0
220
0.0
230
1.0
 70
     8
 71
     3
 72
    11
 73
     7
 74
     0
 42
0.0000000001
 43
0.0000000001
 40
0.0
 40
0.0
 40
0.0
 40
0.0
 40
1.0
 40
1.0
 40
1.0
 40
2.0
 40
2.0
 40
2.0
 40
2.0
 10
8.961069977332373
 20
-9.832172305373937
 30
0.0
 10
8.961069977324969
 20
-9.887436026268257
 30
0.0
 10
9.00587007479233
 20
-9.932236123747744
 30
0.0
 10
9.061133795686702
 20
-9.932236123755172
 30
0.0
 10
9.061133795693345
 20
-9.932236123755172
 30
0.0
 10
9.061133795693345
 20
-9.932236123755172
 30
0.0
 10
9.061133795699964
 20
-9.932236123755172
 30
0.0
  0
SPLINE
  5
CD
330
70
100
AcDbEntity
  8
Layer 1
 62
    18
420
        0
370
     5
100
AcDbSpline
210
0.0
220
0.0
230
1.0
 70
     8
 71
     3
 72
     8
 73
     4
 74
     0
 42
0.0000000001
 43
0.0000000001
 40
0.0
 40
0.0
 40
0.0
 40
0.0
 40
1.0
 40
1.0
 40
1.0
 40
1.0
 10
6.347523921837515
 20
-8.24115762628114
 30
0.0
 10
6.303774761326874
 20
-8.24115762628114
 30
0.0
 10
6.268128876455597
 20
-8.276279990997965
 30
0.0
 10
6.267481628175119
 20
-8.320024363379463
 30
0.0
  0
SPLINE
  5
CE
330
70
100
AcDbEntity
  8
Layer 1
 62
    18
420
        0
370
     5
100
AcDbSpline
210
0.0
220
0.0
230
1.0
 70
     8
 71
     3
 72
     8
 73
     4
 74
     0
 42
0.0000000001
 43
0.0000000001
 40
0.0
 40
0.0
 40
0.0
 40
0.0
 40
1.0
 40
1.0
 40
1.0
 40
1.0
 10
6.677416804677477
 20
-8.061042752858964
 30
0.0
 10
6.633787116667765
 20
-8.061042752858964
 30
0.0
 10
6.598192411322188
 20
-8.09598043323745
 30
0.0
 10
6.597379641221676
 20
-8.139602550111703
 30
0.0
  0
SPLINE
  5
CF
330
70
100
AcDbEntity
  8
Layer 1
 62
    18
420
        0
370
     5
100
AcDbSpline
210
0.0
220
0.0
230
1.0
 70
     8
 71
     3
 72
     8
 73
     4
 74
     0
 42
0.0000000001
 43
0.0000000001
 40
0.0
 40
0.0
 40
0.0
 40
0.0
 40
1.0
 40
1.0
 40
1.0
 40
1.0
 10
6.186409538922664
 20
-8.466301218058889
 30
0.0
 10
6.230128762677495
 20
-8.466301218058889
 30
0.0
 10
6.265761859484276
 20
-8.431225168824413
 30
0.0
 10
6.266450657962145
 20
-8.387511371432916
 30
0.0
  0
SPLINE
  5
D0
330
70
100
AcDbEntity
  8
Layer 1
 62
    18
420
        0
370
     5
100
AcDbSpline
210
0.0
220
0.0
230
1.0
 70
     8
 71
     3
 72
     8
 73
     4
 74
     0
 42
0.0000000001
 43
0.0000000001
 40
0.0
 40
0.0
 40
0.0
 40
0.0
 40
1.0
 40
1.0
 40
1.0
 40
1.0
 10
6.516908281767225
 20
-8.24115762628114
 30
0.0
 10
6.56052241147222
 20
-8.24115762628114
 30
0.0
 10
6.596110423599029
 20
-8.206243966372287
 30
0.0
 10
6.596944690181771
 20
-8.162637816471285
 30
0.0
  0
SPLINE
  5
D1
330
70
100
AcDbEntity
  8
Layer 1
 62
    18
420
        0
370
     5
100
AcDbSpline
210
0.0
220
0.0
230
1.0
 70
     8
 71
     3
 72
     8
 73
     4
 74
     0
 42
0.0000000001
 43
0.0000000001
 40
0.0
 40
0.0
 40
0.0
 40
0.0
 40
1.0
 40
1.0
 40
1.0
 40
1.0
 10
6.596944690181771
 20
-6.398452119587696
 30
0.0
 10
6.596110423599029
 20
-6.35484596968667
 30
0.0
 10
6.56052241147222
 20
-6.319932309777843
 30
0.0
 10
6.516908281767225
 20
-6.319932309777843
 30
0.0
  0
SPLINE
  5
D2
330
70
100
AcDbEntity
  8
Layer 1
 62
    18
420
        0
370
     5
100
AcDbSpline
210
0.0
220
0.0
230
1.0
 70
     8
 71
     3
 72
     8
 73
     4
 74
     0
 42
0.0000000001
 43
0.0000000001
 40
0.0
 40
0.0
 40
0.0
 40
0.0
 40
1.0
 40
1.0
 40
1.0
 40
1.0
 10
6.266450657962145
 20
-6.173578564625889
 30
0.0
 10
6.265761859484149
 20
-6.129864767234519
 30
0.0
 10
6.230128762677445
 20
-6.094788718000093
 30
0.0
 10
6.186409538922664
 20
-6.094788718000093
 30
0.0
  0
SPLINE
  5
D3
330
70
100
AcDbEntity
  8
Layer 1
 62
    18
420
        0
370
     5
100
AcDbSpline
210
0.0
220
0.0
230
1.0
 70
     8
 71
     3
 72
     8
 73
     4
 74
     0
 42
0.0000000001
 43
0.0000000001
 40
0.0
 40
0.0
 40
0.0
 40
0.0
 40
1.0
 40
1.0
 40
1.0
 40
1.0
 10
6.597379641221676
 20
-6.421487385947253
 30
0.0
 10
6.598192411322188
 20
-6.465109502821506
 30
0.0
 10
6.633787116667765
 20
-6.500047183200043
 30
0.0
 10
6.677416804677477
 20
-6.500047183200043
 30
0.0
  0
SPLINE
  5
D4
330
70
100
AcDbEntity
  8
Layer 1
 62
    18
420
        0
370
     5
100
AcDbSpline
210
0.0
220
0.0
230
1.0
 70
     8
 71
     3
 72
     8
 73
     4
 74
     0
 42
0.0000000001
 43
0.0000000001
 40
0.0
 40
0.0
 40
0.0
 40
0.0
 40
1.0
 40
1.0
 40
1.0
 40
1.0
 10
6.267481628175119
 20
-6.241065572679341
 30
0.0
 10
6.26812887645547
 20
-6.284809945060992
 30
0.0
 10
6.303774761326823
 20
-6.319932309777843
 30
0.0
 10
6.347523921837515
 20
-6.319932309777843
 30
0.0
  0
SPLINE
  5
D5
330
70
100
AcDbEntity
  8
Layer 1
 62
    18
420
        0
370
     5
100
AcDbSpline
210
0.0
220
0.0
230
1.0
 70
     8
 71
     3
 72
     8
 73
     4
 74
     0
 42
0.0000000001
 43
0.0000000001
 40
0.0
 40
0.0
 40
0.0
 40
0.0
 40
1.0
 40
1.0
 40
1.0
 40
1.0
 10
8.057298864844975
 20
-8.09706572754337
 30
0.0
 10
8.047749842628036
 20
-8.075186168982428
 30
0.0
 10
8.026145417637634
 20
-8.061042752858964
 30
0.0
 10
8.002272862095297
 20
-8.061042752858964
 30
0.0
  0
SPLINE
  5
D6
330
70
100
AcDbEntity
  8
Layer 1
 62
    18
420
        0
370
     5
100
AcDbSpline
210
0.0
220
0.0
230
1.0
 70
     8
 71
     3
 72
     8
 73
     4
 74
     0
 42
0.0000000001
 43
0.0000000001
 40
0.0
 40
0.0
 40
0.0
 40
0.0
 40
1.0
 40
1.0
 40
1.0
 40
1.0
 10
8.002272862095297
 20
-6.500047183200043
 30
0.0
 10
8.026145417637634
 20
-6.500047183200043
 30
0.0
 10
8.047749842628036
 20
-6.485903767076528
 30
0.0
 10
8.057298864844975
 20
-6.464024208515588
 30
0.0
  0
SPLINE
  5
D7
330
70
100
AcDbEntity
  8
Layer 1
 62
    18
420
        0
370
     5
100
AcDbSpline
210
0.0
220
0.0
230
1.0
 70
     8
 71
     3
 72
     8
 73
     4
 74
     0
 42
0.0000000001
 43
0.0000000001
 40
0.0
 40
0.0
 40
0.0
 40
0.0
 40
1.0
 40
1.0
 40
1.0
 40
1.0
 10
8.908030333479523
 20
-6.951835324034012
 30
0.0
 10
8.940347553175696
 20
-6.951835324034012
 30
0.0
 10
8.966866474803307
 20
-6.92625436253618
 30
0.0
 10
8.9680297189556
 20
-6.893958084856926
 30
0.0
  0
SPLINE
  5
D8
330
70
100
AcDbEntity
  8
Layer 1
 62
    18
420
        0
370
     5
100
AcDbSpline
210
0.0
220
0.0
230
1.0
 70
     8
 71
     3
 72
     8
 73
     4
 74
     0
 42
0.0000000001
 43
0.0000000001
 40
0.0
 40
0.0
 40
0.0
 40
0.0
 40
1.0
 40
1.0
 40
1.0
 40
1.0
 10
8.961069951215701
 20
-7.66929290316572
 30
0.0
 10
8.961069951215701
 20
-7.636134670562821
 30
0.0
 10
8.934189892677901
 20
-7.609254612024995
 30
0.0
 10
8.901031660075002
 20
-7.609254612024995
 30
0.0
  0
SPLINE
  5
D9
330
70
100
AcDbEntity
  8
Layer 1
 62
    18
420
        0
370
     5
100
AcDbSpline
210
0.0
220
0.0
230
1.0
 70
     8
 71
     3
 72
     8
 73
     4
 74
     0
 42
0.0000000001
 43
0.0000000001
 40
0.0
 40
0.0
 40
0.0
 40
0.0
 40
1.0
 40
1.0
 40
1.0
 40
1.0
 10
8.474206377819452
 20
-7.740838533441748
 30
0.0
 10
8.495691670166227
 20
-7.740838533441748
 30
0.0
 10
8.513344400711577
 20
-7.723875438608374
 30
0.0
 10
8.514200144930125
 20
-7.702407194873532
 30
0.0
  0
SPLINE
  5
DA
330
70
100
AcDbEntity
  8
Layer 1
 62
    18
420
        0
370
     5
100
AcDbSpline
210
0.0
220
0.0
230
1.0
 70
     8
 71
     3
 72
     8
 73
     4
 74
     0
 42
0.0000000001
 43
0.0000000001
 40
0.0
 40
0.0
 40
0.0
 40
0.0
 40
1.0
 40
1.0
 40
1.0
 40
1.0
 10
8.253352523644833
 20
-8.121081043999714
 30
0.0
 10
8.275104014828835
 20
-8.121081043999714
 30
0.0
 10
8.292874018056812
 20
-8.103709913364076
 30
0.0
 10
8.293367738951904
 20
-8.081964026203397
 30
0.0
  0
SPLINE
  5
DB
330
70
100
AcDbEntity
  8
Layer 1
 62
    18
420
        0
370
     5
100
AcDbSpline
210
0.0
220
0.0
230
1.0
 70
     8
 71
     3
 72
     8
 73
     4
 74
     0
 42
0.0000000001
 43
0.0000000001
 40
0.0
 40
0.0
 40
0.0
 40
0.0
 40
1.0
 40
1.0
 40
1.0
 40
1.0
 10
8.093982866678894
 20
-6.440008892059292
 30
0.0
 10
8.078067829650535
 20
-6.440008892059292
 30
0.0
 10
8.0636648796568
 20
-6.449437836141846
 30
0.0
 10
8.057298864845632
 20
-6.464024208516017
 30
0.0
  0
SPLINE
  5
DC
330
70
100
AcDbEntity
  8
Layer 1
 62
    18
420
        0
370
     5
100
AcDbSpline
210
0.0
220
0.0
230
1.0
 70
     8
 71
     3
 72
     8
 73
     4
 74
     0
 42
0.0000000001
 43
0.0000000001
 40
0.0
 40
0.0
 40
0.0
 40
0.0
 40
1.0
 40
1.0
 40
1.0
 40
1.0
 10
8.057298864845632
 20
-8.09706572754294
 30
0.0
 10
8.0636648796568
 20
-8.111652099917161
 30
0.0
 10
8.078067829650535
 20
-8.121081043999714
 30
0.0
 10
8.093982866678894
 20
-8.121081043999714
 30
0.0
  0
SPLINE
  5
DD
330
70
100
AcDbEntity
  8
Layer 1
 62
    18
420
        0
370
     5
100
AcDbSpline
210
0.0
220
0.0
230
1.0
 70
     8
 71
     3
 72
     8
 73
     4
 74
     0
 42
0.0000000001
 43
0.0000000001
 40
0.0
 40
0.0
 40
0.0
 40
0.0
 40
1.0
 40
1.0
 40
1.0
 40
1.0
 10
8.293367738951904
 20
-6.479125909855509
 30
0.0
 10
8.292874018056812
 20
-6.457380022694829
 30
0.0
 10
8.275104014828785
 20
-6.440008892059292
 30
0.0
 10
8.253352523644833
 20
-6.440008892059292
 30
0.0
  0
SPLINE
  5
DE
330
70
100
AcDbEntity
  8
Layer 1
 62
    18
420
        0
370
     5
100
AcDbSpline
210
0.0
220
0.0
230
1.0
 70
     8
 71
     3
 72
     8
 73
     4
 74
     0
 42
0.0000000001
 43
0.0000000001
 40
0.0
 40
0.0
 40
0.0
 40
0.0
 40
1.0
 40
1.0
 40
1.0
 40
1.0
 10
8.514200144930125
 20
-6.858682741185248
 30
0.0
 10
8.513344400711478
 20
-6.837214497450506
 30
0.0
 10
8.495691670166175
 20
-6.820251402617208
 30
0.0
 10
8.474206377819452
 20
-6.820251402617208
 30
0.0
  0
SPLINE
  5
DF
330
70
100
AcDbEntity
  8
Layer 1
 62
    18
420
        0
370
     5
100
AcDbSpline
210
0.0
220
0.0
230
1.0
 70
     8
 71
     3
 72
     8
 73
     4
 74
     0
 42
0.0000000001
 43
0.0000000001
 40
0.0
 40
0.0
 40
0.0
 40
0.0
 40
1.0
 40
1.0
 40
1.0
 40
1.0
 10
9.586278299513473
 20
-6.946575785665572
 30
0.0
 10
9.586950610402658
 20
-6.968186240756621
 30
0.0
 10
9.604663560931914
 20
-6.985356703254208
 30
0.0
 10
9.626284471439449
 20
-6.985356703254208
 30
0.0
  0
SPLINE
  5
E0
330
70
100
AcDbEntity
  8
Layer 1
 62
    18
420
        0
370
     5
100
AcDbSpline
210
0.0
220
0.0
230
1.0
 70
     8
 71
     3
 72
     8
 73
     4
 74
     0
 42
0.0000000001
 43
0.0000000001
 40
0.0
 40
0.0
 40
0.0
 40
0.0
 40
1.0
 40
1.0
 40
1.0
 40
1.0
 10
9.009478930129311
 20
-6.817036718660396
 30
0.0
 10
8.987989728635687
 20
-6.817036718660396
 30
0.0
 10
8.970335248538907
 20
-6.834005775884886
 30
0.0
 10
8.969484762352141
 20
-6.855478140777474
 30
0.0
  0
SPLINE
  5
E1
330
70
100
AcDbEntity
  8
Layer 1
 62
    18
420
        0
370
     5
100
AcDbSpline
210
0.0
220
0.0
230
1.0
 70
     8
 71
     3
 72
     8
 73
     4
 74
     0
 42
0.0000000001
 43
0.0000000001
 40
0.0
 40
0.0
 40
0.0
 40
0.0
 40
1.0
 40
1.0
 40
1.0
 40
1.0
 10
9.583057197157005
 20
-6.855478140777474
 30
0.0
 10
9.582206710970213
 20
-6.834005775884886
 30
0.0
 10
9.564552230873459
 20
-6.817036718660396
 30
0.0
 10
9.54306302937986
 20
-6.817036718660396
 30
0.0
  0
SPLINE
  5
E2
330
70
100
AcDbEntity
  8
Layer 1
 62
    18
420
        0
370
     5
100
AcDbSpline
210
0.0
220
0.0
230
1.0
 70
     8
 71
     3
 72
     8
 73
     4
 74
     0
 42
0.0000000001
 43
0.0000000001
 40
0.0
 40
0.0
 40
0.0
 40
0.0
 40
1.0
 40
1.0
 40
1.0
 40
1.0
 10
9.659753200080279
 20
-7.575733232804749
 30
0.0
 10
9.675195489429269
 20
-7.575733232804749
 30
0.0
 10
9.689260366025967
 20
-7.566849868179992
 30
0.0
 10
9.695895560136198
 20
-7.552905747574564
 30
0.0
  0
SPLINE
  5
E3
330
70
100
AcDbEntity
  8
Layer 1
 62
    18
420
        0
370
     5
100
AcDbSpline
210
0.0
220
0.0
230
1.0
 70
     8
 71
     3
 72
     8
 73
     4
 74
     0
 42
0.0000000001
 43
0.0000000001
 40
0.0
 40
0.0
 40
0.0
 40
0.0
 40
1.0
 40
1.0
 40
1.0
 40
1.0
 10
9.69589556014734
 20
-7.008184188507761
 30
0.0
 10
9.689260366042162
 20
-6.994240067889626
 30
0.0
 10
9.675195489438616
 20
-6.985356703254208
 30
0.0
 10
9.659753200080279
 20
-6.985356703254208
 30
0.0
  0
SPLINE
  5
E4
330
70
100
AcDbEntity
  8
Layer 1
 62
    18
420
        0
370
     5
100
AcDbSpline
210
0.0
220
0.0
230
1.0
 70
     8
 71
     3
 72
     8
 73
     4
 74
     0
 42
0.0000000001
 43
0.0000000001
 40
0.0
 40
0.0
 40
0.0
 40
0.0
 40
1.0
 40
1.0
 40
1.0
 40
1.0
 10
9.631497535620509
 20
-7.575733232804749
 30
0.0
 10
9.609392047218559
 20
-7.575733232804749
 30
0.0
 10
9.591472008193376
 20
-7.593653271829932
 30
0.0
 10
9.591472008193376
 20
-7.615758760231882
 30
0.0
  0
SPLINE
  5
E5
330
70
100
AcDbEntity
  8
Layer 1
 62
    18
420
        0
370
     5
100
AcDbSpline
210
0.0
220
0.0
230
1.0
 70
     8
 71
     3
 72
     8
 73
     4
 74
     0
 42
0.0000000001
 43
0.0000000001
 40
0.0
 40
0.0
 40
0.0
 40
0.0
 40
1.0
 40
1.0
 40
1.0
 40
1.0
 10
8.53197561280462
 20
-7.609254612024995
 30
0.0
 10
8.525872071424828
 20
-7.609254612024995
 30
0.0
 10
8.520102169134435
 20
-7.612039919041712
 30
0.0
 10
8.516305629734713
 20
-7.616818988612319
 30
0.0
  0
SPLINE
  5
E6
330
70
100
AcDbEntity
  8
Layer 1
 62
    18
420
        0
370
     5
100
AcDbSpline
210
0.0
220
0.0
230
1.0
 70
     8
 71
     3
 72
     8
 73
     4
 74
     0
 42
0.0000000001
 43
0.0000000001
 40
0.0
 40
0.0
 40
0.0
 40
0.0
 40
1.0
 40
1.0
 40
1.0
 40
1.0
 10
8.516305629734713
 20
-6.944270947446637
 30
0.0
 10
8.520102169134435
 20
-6.949050017017295
 30
0.0
 10
8.525872071424828
 20
-6.951835324034012
 30
0.0
 10
8.53197561280462
 20
-6.951835324034012
 30
0.0
  0
SPLINE
  5
E7
330
70
100
AcDbEntity
  8
Layer 1
 62
    18
420
        0
370
     5
100
AcDbSpline
210
0.0
220
0.0
230
1.0
 70
     8
 71
     3
 72
     8
 73
     4
 74
     0
 42
0.0000000001
 43
0.0000000001
 40
0.0
 40
0.0
 40
0.0
 40
0.0
 40
1.0
 40
1.0
 40
1.0
 40
1.0
 10
5.984986279766821
 20
-6.094788718000093
 30
0.0
 10
5.979459907666346
 20
-6.094788718000093
 30
0.0
 10
5.974979897910063
 20
-6.099268727756376
 30
0.0
 10
5.974979897910063
 20
-6.104795099856851
 30
0.0
  0
SPLINE
  5
E8
330
70
100
AcDbEntity
  8
Layer 1
 62
    18
420
        0
370
     5
100
AcDbSpline
210
0.0
220
0.0
230
1.0
 70
     8
 71
     3
 72
     8
 73
     4
 74
     0
 42
0.0000000001
 43
0.0000000001
 40
0.0
 40
0.0
 40
0.0
 40
0.0
 40
1.0
 40
1.0
 40
1.0
 40
1.0
 10
5.974979897910063
 20
-8.456294836202106
 30
0.0
 10
5.974979897910063
 20
-8.46182120830258
 30
0.0
 10
5.979459907666346
 20
-8.466301218058889
 30
0.0
 10
5.984986279766821
 20
-8.466301218058889
 30
0.0
  0
SPLINE
  5
E9
330
70
100
AcDbEntity
  8
Layer 1
 62
    18
420
        0
370
     5
100
AcDbSpline
210
0.0
220
0.0
230
1.0
 70
     8
 71
     3
 72
     8
 73
     4
 74
     0
 42
0.0000000001
 43
0.0000000001
 40
0.0
 40
0.0
 40
0.0
 40
0.0
 40
1.0
 40
1.0
 40
1.0
 40
1.0
 10
2.020974357764505
 20
-3.520413162113906
 30
0.0
 10
2.020974357764505
 20
-3.449415228534146
 30
0.0
 10
1.964046605175932
 20
-3.391531048712913
 30
0.0
 10
1.893058524752682
 20
-3.390348251005396
 30
0.0
  0
SPLINE
  5
EA
330
70
100
AcDbEntity
  8
Layer 1
 62
    18
420
        0
370
     5
100
AcDbSpline
210
0.0
220
0.0
230
1.0
 70
     8
 71
     3
 72
     8
 73
     4
 74
     0
 42
0.0000000001
 43
0.0000000001
 40
0.0
 40
0.0
 40
0.0
 40
0.0
 40
1.0
 40
1.0
 40
1.0
 40
1.0
 10
1.520655264925115
 20
-1.44030786384912
 30
0.0
 10
1.520655264925115
 20
-1.39655870333844
 30
0.0
 10
1.485532900208302
 20
-1.360912818467138
 30
0.0
 10
1.44178852782679
 20
-1.36026557018671
 30
0.0
  0
SPLINE
  5
EB
330
70
100
AcDbEntity
  8
Layer 1
 62
    18
420
        0
370
     5
100
AcDbSpline
210
0.0
220
0.0
230
1.0
 70
     8
 71
     3
 72
     8
 73
     4
 74
     0
 42
0.0000000001
 43
0.0000000001
 40
0.0
 40
0.0
 40
0.0
 40
0.0
 40
1.0
 40
1.0
 40
1.0
 40
1.0
 10
1.700770138347289
 20
-1.770200746589011
 30
0.0
 10
1.700770138347289
 20
-1.726571058579275
 30
0.0
 10
1.665832457968791
 20
-1.69097635323366
 30
0.0
 10
1.622210341094538
 20
-1.690163583133223
 30
0.0
  0
SPLINE
  5
EC
330
70
100
AcDbEntity
  8
Layer 1
 62
    18
420
        0
370
     5
100
AcDbSpline
210
0.0
220
0.0
230
1.0
 70
     8
 71
     3
 72
     8
 73
     4
 74
     0
 42
0.0000000001
 43
0.0000000001
 40
0.0
 40
0.0
 40
0.0
 40
0.0
 40
1.0
 40
1.0
 40
1.0
 40
1.0
 10
1.295511673147391
 20
-1.279193480934256
 30
0.0
 10
1.295511673147391
 20
-1.322912704689075
 30
0.0
 10
1.330587722381854
 20
-1.358545801495842
 30
0.0
 10
1.374301519773275
 20
-1.359234599973723
 30
0.0
  0
SPLINE
  5
ED
330
70
100
AcDbEntity
  8
Layer 1
 62
    18
420
        0
370
     5
100
AcDbSpline
210
0.0
220
0.0
230
1.0
 70
     8
 71
     3
 72
     8
 73
     4
 74
     0
 42
0.0000000001
 43
0.0000000001
 40
0.0
 40
0.0
 40
0.0
 40
0.0
 40
1.0
 40
1.0
 40
1.0
 40
1.0
 10
1.520655264925115
 20
-1.609692223778804
 30
0.0
 10
1.520655264925115
 20
-1.653306353483799
 30
0.0
 10
1.555568924833967
 20
-1.688894365610622
 30
0.0
 10
1.599175074734981
 20
-1.689728632193363
 30
0.0
  0
SPLINE
  5
EE
330
70
100
AcDbEntity
  8
Layer 1
 62
    18
420
        0
370
     5
100
AcDbSpline
210
0.0
220
0.0
230
1.0
 70
     8
 71
     3
 72
     8
 73
     4
 74
     0
 42
0.0000000001
 43
0.0000000001
 40
0.0
 40
0.0
 40
0.0
 40
0.0
 40
1.0
 40
1.0
 40
1.0
 40
1.0
 10
2.094681040005335
 20
-4.060813660867097
 30
0.0
 10
2.126977317684109
 20
-4.059650416714147
 30
0.0
 10
2.152558279181271
 20
-4.033131495086763
 30
0.0
 10
2.152558279181271
 20
-4.000814275391045
 30
0.0
  0
SPLINE
  5
EF
330
70
100
AcDbEntity
  8
Layer 1
 62
    18
420
        0
370
     5
100
AcDbSpline
210
0.0
220
0.0
230
1.0
 70
     8
 71
     3
 72
     8
 73
     4
 74
     0
 42
0.0000000001
 43
0.0000000001
 40
0.0
 40
0.0
 40
0.0
 40
0.0
 40
1.0
 40
1.0
 40
1.0
 40
1.0
 10
1.664747163662847
 20
-3.150082806856541
 30
0.0
 10
1.686626722223788
 20
-3.140533784639589
 30
0.0
 10
1.700770138347289
 20
-3.1189293596492
 30
0.0
 10
1.700770138347289
 20
-3.095056804106914
 30
0.0
  0
SPLINE
  5
F0
330
70
100
AcDbEntity
  8
Layer 1
 62
    18
420
        0
370
     5
100
AcDbSpline
210
0.0
220
0.0
230
1.0
 70
     8
 71
     3
 72
     8
 73
     4
 74
     0
 42
0.0000000001
 43
0.0000000001
 40
0.0
 40
0.0
 40
0.0
 40
0.0
 40
1.0
 40
1.0
 40
1.0
 40
1.0
 10
2.017759673807694
 20
-4.635846971391528
 30
0.0
 10
2.01775967380772
 20
-4.657336172885353
 30
0.0
 10
2.034728731032689
 20
-4.674990652982235
 30
0.0
 10
2.05620109592553
 20
-4.675841139168621
 30
0.0
  0
SPLINE
  5
F1
330
70
100
AcDbEntity
  8
Layer 1
 62
    18
420
        0
370
     5
100
AcDbSpline
210
0.0
220
0.0
230
1.0
 70
     8
 71
     3
 72
     8
 73
     4
 74
     0
 42
0.0000000001
 43
0.0000000001
 40
0.0
 40
0.0
 40
0.0
 40
0.0
 40
1.0
 40
1.0
 40
1.0
 40
1.0
 10
2.056201095925037
 20
-4.062268704263664
 30
0.0
 10
2.03472873103236
 20
-4.063119190450303
 30
0.0
 10
2.017759673807694
 20
-4.080773670547134
 30
0.0
 10
2.017759673807694
 20
-4.102262872040833
 30
0.0
  0
SPLINE
  5
F2
330
70
100
AcDbEntity
  8
Layer 1
 62
    18
420
        0
370
     5
100
AcDbSpline
210
0.0
220
0.0
230
1.0
 70
     8
 71
     3
 72
     8
 73
     4
 74
     0
 42
0.0000000001
 43
0.0000000001
 40
0.0
 40
0.0
 40
0.0
 40
0.0
 40
1.0
 40
1.0
 40
1.0
 40
1.0
 10
2.186079658401518
 20
-4.719068413451041
 30
0.0
 10
2.186079658401518
 20
-4.697447502944744
 30
0.0
 10
2.168909195905838
 20
-4.679734552416044
 30
0.0
 10
2.147298740816091
 20
-4.679062241525167
 30
0.0
  0
SPLINE
  5
F3
330
70
100
AcDbEntity
  8
Layer 1
 62
    18
420
        0
370
     5
100
AcDbSpline
210
0.0
220
0.0
230
1.0
 70
     8
 71
     3
 72
     8
 73
     4
 74
     0
 42
0.0000000001
 43
0.0000000001
 40
0.0
 40
0.0
 40
0.0
 40
0.0
 40
1.0
 40
1.0
 40
1.0
 40
1.0
 10
2.186079658401518
 20
-4.752537142091871
 30
0.0
 10
2.186079658401518
 20
-4.767979431440683
 30
0.0
 10
2.194963023026035
 20
-4.782044308037231
 30
0.0
 10
2.208907143631171
 20
-4.788679502147538
 30
0.0
  0
SPLINE
  5
F4
330
70
100
AcDbEntity
  8
Layer 1
 62
    18
420
        0
370
     5
100
AcDbSpline
210
0.0
220
0.0
230
1.0
 70
     8
 71
     3
 72
     8
 73
     4
 74
     0
 42
0.0000000001
 43
0.0000000001
 40
0.0
 40
0.0
 40
0.0
 40
0.0
 40
1.0
 40
1.0
 40
1.0
 40
1.0
 10
1.640731847206577
 20
-3.346136465656387
 30
0.0
 10
1.640731847206577
 20
-3.367887956840427
 30
0.0
 10
1.65810297784214
 20
-3.385657960068429
 30
0.0
 10
1.679848865002857
 20
-3.386151680963494
 30
0.0
  0
SPLINE
  5
F5
330
70
100
AcDbEntity
  8
Layer 1
 62
    18
420
        0
370
     5
100
AcDbSpline
210
0.0
220
0.0
230
1.0
 70
     8
 71
     3
 72
     8
 73
     4
 74
     0
 42
0.0000000001
 43
0.0000000001
 40
0.0
 40
0.0
 40
0.0
 40
0.0
 40
1.0
 40
1.0
 40
1.0
 40
1.0
 10
2.020974357764505
 20
-3.566990319831019
 30
0.0
 10
2.020974357764505
 20
-3.588475612177742
 30
0.0
 10
2.037937452597753
 20
-3.606128342723031
 30
0.0
 10
2.059405696332545
 20
-3.606984086941704
 30
0.0
  0
SPLINE
  5
F6
330
70
100
AcDbEntity
  8
Layer 1
 62
    18
420
        0
370
     5
100
AcDbSpline
210
0.0
220
0.0
230
1.0
 70
     8
 71
     3
 72
     8
 73
     4
 74
     0
 42
0.0000000001
 43
0.0000000001
 40
0.0
 40
0.0
 40
0.0
 40
0.0
 40
1.0
 40
1.0
 40
1.0
 40
1.0
 10
1.664747163662847
 20
-3.150082806857413
 30
0.0
 10
1.650160791288915
 20
-3.156448821668694
 30
0.0
 10
1.640731847206577
 20
-3.170851771662291
 30
0.0
 10
1.640731847206577
 20
-3.186766808690498
 30
0.0
  0
SPLINE
  5
F7
330
70
100
AcDbEntity
  8
Layer 1
 62
    18
420
        0
370
     5
100
AcDbSpline
210
0.0
220
0.0
230
1.0
 70
     8
 71
     3
 72
     8
 73
     4
 74
     0
 42
0.0000000001
 43
0.0000000001
 40
0.0
 40
0.0
 40
0.0
 40
0.0
 40
1.0
 40
1.0
 40
1.0
 40
1.0
 10
2.152558279181271
 20
-3.624759554816187
 30
0.0
 10
2.152558279181271
 20
-3.618656013433299
 30
0.0
 10
2.1497729721617
 20
-3.61288611114028
 30
0.0
 10
2.144993902586975
 20
-3.609089571740734
 30
0.0
  0
SPLINE
  5
F8
330
70
100
AcDbEntity
  8
Layer 1
 62
    18
420
        0
370
     5
100
AcDbSpline
210
0.0
220
0.0
230
1.0
 70
     8
 71
     3
 72
     8
 73
     4
 74
     0
 42
0.0000000001
 43
0.0000000001
 40
0.0
 40
0.0
 40
0.0
 40
0.0
 40
1.0
 40
1.0
 40
1.0
 40
1.0
 10
1.305518055004161
 20
-1.067763839921642
 30
0.0
 10
1.299991682903686
 20
-1.067763839921642
 30
0.0
 10
1.295511673147391
 20
-1.072243849677938
 30
0.0
 10
1.295511673147391
 20
-1.077770221778412
 30
0.0
  0
SPLINE
  5
F9
330
70
100
AcDbEntity
  8
Layer 1
 62
    18
420
        0
370
     5
100
AcDbSpline
210
0.0
220
0.0
230
1.0
 70
     8
 71
     3
 72
     8
 73
     4
 74
     0
 42
0.0000000001
 43
0.0000000001
 40
0.0
 40
0.0
 40
0.0
 40
0.0
 40
1.0
 40
1.0
 40
1.0
 40
1.0
 10
2.815237105549398
 20
-4.679062241543331
 30
0.0
 10
2.84560740687756
 20
-4.678117407933616
 30
0.0
 10
2.87597356192407
 20
-4.677043697458126
 30
0.0
 10
2.906334750417941
 20
-4.67584113912057
 30
0.0
  0
SPLINE
  5
FA
330
70
100
AcDbEntity
  8
Layer 1
 62
    18
420
        0
370
     5
100
AcDbSpline
210
0.0
220
0.0
230
1.0
 70
     8
 71
     3
 72
     8
 73
     4
 74
     0
 42
0.0000000001
 43
0.0000000001
 40
0.0
 40
0.0
 40
0.0
 40
0.0
 40
1.0
 40
1.0
 40
1.0
 40
1.0
 10
2.05620109593561
 20
-4.67584113912057
 30
0.0
 10
2.086562284429457
 20
-4.677043697458126
 30
0.0
 10
2.116928439475953
 20
-4.678117407933616
 30
0.0
 10
2.147298740804128
 20
-4.679062241543331
 30
0.0
  0
SPLINE
  5
FB
330
70
100
AcDbEntity
  8
Layer 1
 62
    18
420
        0
370
     5
100
AcDbSpline
210
0.0
220
0.0
230
1.0
 70
     8
 71
     3
 72
     8
 73
     4
 74
     0
 42
0.0000000001
 43
0.0000000001
 40
0.0
 40
0.0
 40
0.0
 40
0.0
 40
1.0
 40
1.0
 40
1.0
 40
1.0
 10
2.906334750417904
 20
-4.062268704311716
 30
0.0
 10
2.893508982183448
 20
-4.061760696052134
 30
0.0
 10
2.880682313553367
 20
-4.061275680807183
 30
0.0
 10
2.867854806359231
 20
-4.060813660914996
 30
0.0
  0
SPLINE
  5
FC
330
70
100
AcDbEntity
  8
Layer 1
 62
    18
420
        0
370
     5
100
AcDbSpline
210
0.0
220
0.0
230
1.0
 70
     8
 71
     3
 72
     8
 73
     4
 74
     0
 42
0.0000000001
 43
0.0000000001
 40
0.0
 40
0.0
 40
0.0
 40
0.0
 40
1.0
 40
1.0
 40
1.0
 40
1.0
 10
2.094681039994295
 20
-4.060813660914996
 30
0.0
 10
2.081853532800171
 20
-4.061275680807183
 30
0.0
 10
2.069026864170091
 20
-4.061760696052134
 30
0.0
 10
2.05620109593561
 20
-4.062268704311716
 30
0.0
  0
SPLINE
  5
FD
330
70
100
AcDbEntity
  8
Layer 1
 62
    18
420
        0
370
     5
100
AcDbSpline
210
0.0
220
0.0
230
1.0
 70
     8
 71
     3
 72
     8
 73
     4
 74
     0
 42
0.0000000001
 43
0.0000000001
 40
0.0
 40
0.0
 40
0.0
 40
0.0
 40
1.0
 40
1.0
 40
1.0
 40
1.0
 10
2.839802043738548
 20
-3.609318677076619
 30
0.0
 10
2.860913693275922
 20
-3.608603631564783
 30
0.0
 10
2.882023156494407
 20
-3.607825431361409
 30
0.0
 10
2.903130150022446
 20
-3.606984086912903
 30
0.0
  0
SPLINE
  5
FE
330
70
100
AcDbEntity
  8
Layer 1
 62
    18
420
        0
370
     5
100
AcDbSpline
210
0.0
220
0.0
230
1.0
 70
     8
 71
     3
 72
     8
 73
     4
 74
     0
 42
0.0000000001
 43
0.0000000001
 40
0.0
 40
0.0
 40
0.0
 40
0.0
 40
1.0
 40
1.0
 40
1.0
 40
1.0
 10
2.059405696331067
 20
-3.606984086912903
 30
0.0
 10
2.080512689859119
 20
-3.607825431361409
 30
0.0
 10
2.101622153077591
 20
-3.608603631564783
 30
0.0
 10
2.122733802615003
 20
-3.609318677076619
 30
0.0
  0
SPLINE
  5
FF
330
70
100
AcDbEntity
  8
Layer 1
 62
    18
420
        0
370
     5
100
AcDbSpline
210
0.0
220
0.0
230
1.0
 70
     8
 71
     3
 72
     8
 73
     4
 74
     0
 42
0.0000000001
 43
0.0000000001
 40
0.0
 40
0.0
 40
0.0
 40
0.0
 40
1.0
 40
1.0
 40
1.0
 40
1.0
 10
3.069477321600844
 20
-3.390348251005396
 30
0.0
 10
2.998489241177581
 20
-3.391531048712913
 30
0.0
 10
2.941561488589008
 20
-3.449415228534146
 30
0.0
 10
2.941561488589008
 20
-3.520413162113906
 30
0.0
  0
SPLINE
  5
100
330
70
100
AcDbEntity
  8
Layer 1
 62
    18
420
        0
370
     5
100
AcDbSpline
210
0.0
220
0.0
230
1.0
 70
     8
 71
     3
 72
     8
 73
     4
 74
     0
 42
0.0000000001
 43
0.0000000001
 40
0.0
 40
0.0
 40
0.0
 40
0.0
 40
1.0
 40
1.0
 40
1.0
 40
1.0
 10
3.363360771618532
 20
-1.689728632193363
 30
0.0
 10
3.406966921519584
 20
-1.688894365610622
 30
0.0
 10
3.441880581428424
 20
-1.653306353483799
 30
0.0
 10
3.441880581428424
 20
-1.609692223778804
 30
0.0
  0
SPLINE
  5
101
330
70
100
AcDbEntity
  8
Layer 1
 62
    18
420
        0
370
     5
100
AcDbSpline
210
0.0
220
0.0
230
1.0
 70
     8
 71
     3
 72
     8
 73
     4
 74
     0
 42
0.0000000001
 43
0.0000000001
 40
0.0
 40
0.0
 40
0.0
 40
0.0
 40
1.0
 40
1.0
 40
1.0
 40
1.0
 10
3.520747318526888
 20
-1.36026557018671
 30
0.0
 10
3.477002946145312
 20
-1.36091281846705
 30
0.0
 10
3.441880581428424
 20
-1.396558703338402
 30
0.0
 10
3.441880581428424
 20
-1.44030786384912
 30
0.0
  0
SPLINE
  5
102
330
70
100
AcDbEntity
  8
Layer 1
 62
    18
420
        0
370
     5
100
AcDbSpline
210
0.0
220
0.0
230
1.0
 70
     8
 71
     3
 72
     8
 73
     4
 74
     0
 42
0.0000000001
 43
0.0000000001
 40
0.0
 40
0.0
 40
0.0
 40
0.0
 40
1.0
 40
1.0
 40
1.0
 40
1.0
 10
3.340325505259013
 20
-1.690163583133223
 30
0.0
 10
3.296703388384735
 20
-1.69097635323366
 30
0.0
 10
3.261765708006224
 20
-1.726571058579275
 30
0.0
 10
3.261765708006224
 20
-1.770200746589011
 30
0.0
  0
SPLINE
  5
103
330
70
100
AcDbEntity
  8
Layer 1
 62
    18
420
        0
370
     5
100
AcDbSpline
210
0.0
220
0.0
230
1.0
 70
     8
 71
     3
 72
     8
 73
     4
 74
     0
 42
0.0000000001
 43
0.0000000001
 40
0.0
 40
0.0
 40
0.0
 40
0.0
 40
1.0
 40
1.0
 40
1.0
 40
1.0
 10
3.588234326580391
 20
-1.359234599973723
 30
0.0
 10
3.631948123971748
 20
-1.358545801495754
 30
0.0
 10
3.667024173206161
 20
-1.322912704689024
 30
0.0
 10
3.667024173206161
 20
-1.279193480934256
 30
0.0
  0
SPLINE
  5
104
330
70
100
AcDbEntity
  8
Layer 1
 62
    18
420
        0
370
     5
100
AcDbSpline
210
0.0
220
0.0
230
1.0
 70
     8
 71
     3
 72
     8
 73
     4
 74
     0
 42
0.0000000001
 43
0.0000000001
 40
0.0
 40
0.0
 40
0.0
 40
0.0
 40
1.0
 40
1.0
 40
1.0
 40
1.0
 10
2.809977567172242
 20
-4.000814275391045
 30
0.0
 10
2.809977567172242
 20
-4.033131495086005
 30
0.0
 10
2.835558528668255
 20
-4.059650416713035
 30
0.0
 10
2.867854806346182
 20
-4.060813660867046
 30
0.0
  0
SPLINE
  5
105
330
70
100
AcDbEntity
  8
Layer 1
 62
    18
420
        0
370
     5
100
AcDbSpline
210
0.0
220
0.0
230
1.0
 70
     8
 71
     3
 72
     8
 73
     4
 74
     0
 42
0.0000000001
 43
0.0000000001
 40
0.0
 40
0.0
 40
0.0
 40
0.0
 40
1.0
 40
1.0
 40
1.0
 40
1.0
 10
3.261765708006224
 20
-3.095056804106914
 30
0.0
 10
3.261765708006224
 20
-3.1189293596492
 30
0.0
 10
3.275909124129738
 20
-3.140533784639589
 30
0.0
 10
3.297788682690666
 20
-3.150082806856541
 30
0.0
  0
SPLINE
  5
106
330
70
100
AcDbEntity
  8
Layer 1
 62
    18
420
        0
370
     5
100
AcDbSpline
210
0.0
220
0.0
230
1.0
 70
     8
 71
     3
 72
     8
 73
     4
 74
     0
 42
0.0000000001
 43
0.0000000001
 40
0.0
 40
0.0
 40
0.0
 40
0.0
 40
1.0
 40
1.0
 40
1.0
 40
1.0
 10
2.944776172545819
 20
-4.102262872040733
 30
0.0
 10
2.944776172545794
 20
-4.080773670546906
 30
0.0
 10
2.927807115320888
 20
-4.063119190450025
 30
0.0
 10
2.906334750428072
 20
-4.062268704263614
 30
0.0
  0
SPLINE
  5
107
330
70
100
AcDbEntity
  8
Layer 1
 62
    18
420
        0
370
     5
100
AcDbSpline
210
0.0
220
0.0
230
1.0
 70
     8
 71
     3
 72
     8
 73
     4
 74
     0
 42
0.0000000001
 43
0.0000000001
 40
0.0
 40
0.0
 40
0.0
 40
0.0
 40
1.0
 40
1.0
 40
1.0
 40
1.0
 10
2.906334750428439
 20
-4.675841139168621
 30
0.0
 10
2.927807115321115
 20
-4.674990652982008
 30
0.0
 10
2.944776172545819
 20
-4.657336172885177
 30
0.0
 10
2.944776172545819
 20
-4.635846971391452
 30
0.0
  0
SPLINE
  5
108
330
70
100
AcDbEntity
  8
Layer 1
 62
    18
420
        0
370
     5
100
AcDbSpline
210
0.0
220
0.0
230
1.0
 70
     8
 71
     3
 72
     8
 73
     4
 74
     0
 42
0.0000000001
 43
0.0000000001
 40
0.0
 40
0.0
 40
0.0
 40
0.0
 40
1.0
 40
1.0
 40
1.0
 40
1.0
 10
2.815237105539684
 20
-4.679062241525065
 30
0.0
 10
2.793626650449027
 20
-4.679734552414755
 30
0.0
 10
2.776456187951996
 20
-4.697447502943886
 30
0.0
 10
2.776456187951996
 20
-4.719068413451041
 30
0.0
  0
SPLINE
  5
109
330
70
100
AcDbEntity
  8
Layer 1
 62
    18
420
        0
370
     5
100
AcDbSpline
210
0.0
220
0.0
230
1.0
 70
     8
 71
     3
 72
     8
 73
     4
 74
     0
 42
0.0000000001
 43
0.0000000001
 40
0.0
 40
0.0
 40
0.0
 40
0.0
 40
1.0
 40
1.0
 40
1.0
 40
1.0
 10
2.75362870272238
 20
-4.788679502147538
 30
0.0
 10
2.767572823327479
 20
-4.782044308037231
 30
0.0
 10
2.776456187951996
 20
-4.767979431440683
 30
0.0
 10
2.776456187951996
 20
-4.752537142091871
 30
0.0
  0
SPLINE
  5
10A
330
70
100
AcDbEntity
  8
Layer 1
 62
    18
420
        0
370
     5
100
AcDbSpline
210
0.0
220
0.0
230
1.0
 70
     8
 71
     3
 72
     8
 73
     4
 74
     0
 42
0.0000000001
 43
0.0000000001
 40
0.0
 40
0.0
 40
0.0
 40
0.0
 40
1.0
 40
1.0
 40
1.0
 40
1.0
 10
2.903130150020299
 20
-3.606984086941754
 30
0.0
 10
2.924598393755357
 20
-3.606128342723473
 30
0.0
 10
2.941561488589008
 20
-3.588475612178007
 30
0.0
 10
2.941561488589008
 20
-3.566990319831019
 30
0.0
  0
SPLINE
  5
10B
330
70
100
AcDbEntity
  8
Layer 1
 62
    18
420
        0
370
     5
100
AcDbSpline
210
0.0
220
0.0
230
1.0
 70
     8
 71
     3
 72
     8
 73
     4
 74
     0
 42
0.0000000001
 43
0.0000000001
 40
0.0
 40
0.0
 40
0.0
 40
0.0
 40
1.0
 40
1.0
 40
1.0
 40
1.0
 10
3.282686981350732
 20
-3.386151680963494
 30
0.0
 10
3.304432868511424
 20
-3.385657960068392
 30
0.0
 10
3.321803999146949
 20
-3.367887956840389
 30
0.0
 10
3.321803999146949
 20
-3.346136465656387
 30
0.0
  0
SPLINE
  5
10C
330
70
100
AcDbEntity
  8
Layer 1
 62
    18
420
        0
370
     5
100
AcDbSpline
210
0.0
220
0.0
230
1.0
 70
     8
 71
     3
 72
     8
 73
     4
 74
     0
 42
0.0000000001
 43
0.0000000001
 40
0.0
 40
0.0
 40
0.0
 40
0.0
 40
1.0
 40
1.0
 40
1.0
 40
1.0
 10
3.321803999146949
 20
-3.186766808690498
 30
0.0
 10
3.321803999146949
 20
-3.170851771662291
 30
0.0
 10
3.312375055064636
 20
-3.156448821668694
 30
0.0
 10
3.297788682690666
 20
-3.150082806857413
 30
0.0
  0
SPLINE
  5
10D
330
70
100
AcDbEntity
  8
Layer 1
 62
    18
420
        0
370
     5
100
AcDbSpline
210
0.0
220
0.0
230
1.0
 70
     8
 71
     3
 72
     8
 73
     4
 74
     0
 42
0.0000000001
 43
0.0000000001
 40
0.0
 40
0.0
 40
0.0
 40
0.0
 40
1.0
 40
1.0
 40
1.0
 40
1.0
 10
2.817541943766589
 20
-3.609089571740734
 30
0.0
 10
2.812762874191813
 20
-3.61288611114028
 30
0.0
 10
2.809977567172242
 20
-3.618656013433299
 30
0.0
 10
2.809977567172242
 20
-3.624759554816187
 30
0.0
  0
SPLINE
  5
10E
330
70
100
AcDbEntity
  8
Layer 1
 62
    18
420
        0
370
     5
100
AcDbSpline
210
0.0
220
0.0
230
1.0
 70
     8
 71
     3
 72
     8
 73
     4
 74
     0
 42
0.0000000001
 43
0.0000000001
 40
0.0
 40
0.0
 40
0.0
 40
0.0
 40
1.0
 40
1.0
 40
1.0
 40
1.0
 10
3.667024173206161
 20
-1.077770221778412
 30
0.0
 10
3.667024173206161
 20
-1.072243849677938
 30
0.0
 10
3.662544163449865
 20
-1.067763839921642
 30
0.0
 10
3.657017791349352
 20
-1.067763839921642
 30
0.0
  0
SPLINE
  5
10F
330
70
100
AcDbEntity
  8
Layer 1
 62
    18
420
        0
370
     5
100
AcDbSpline
210
0.0
220
0.0
230
1.0
 70
     8
 71
     3
 72
     8
 73
     4
 74
     0
 42
0.0000000001
 43
0.0000000001
 40
0.0
 40
0.0
 40
0.0
 40
0.0
 40
1.0
 40
1.0
 40
1.0
 40
1.0
 10
3.520747318469779
 20
-1.3602655702241
 30
0.0
 10
3.543243151622593
 20
-1.359932718510107
 30
0.0
 10
3.565738823612541
 20
-1.359589061728557
 30
0.0
 10
3.588234326638346
 20
-1.359234599998646
 30
0.0
  0
SPLINE
  5
110
330
70
100
AcDbEntity
  8
Layer 1
 62
    18
420
        0
370
     5
100
AcDbSpline
210
0.0
220
0.0
230
1.0
 70
     8
 71
     3
 72
     8
 73
     4
 74
     0
 42
0.0000000001
 43
0.0000000001
 40
0.0
 40
0.0
 40
0.0
 40
0.0
 40
1.0
 40
1.0
 40
1.0
 40
1.0
 10
1.374301519715143
 20
-1.359234599998646
 30
0.0
 10
1.396797022740959
 20
-1.359589061728557
 30
0.0
 10
1.419292694730908
 20
-1.359932718510107
 30
0.0
 10
1.441788527883709
 20
-1.3602655702241
 30
0.0
  0
SPLINE
  5
111
330
70
100
AcDbEntity
  8
Layer 1
 62
    18
420
        0
370
     5
100
AcDbSpline
210
0.0
220
0.0
230
1.0
 70
     8
 71
     3
 72
     8
 73
     4
 74
     0
 42
0.0000000001
 43
0.0000000001
 40
0.0
 40
0.0
 40
0.0
 40
0.0
 40
1.0
 40
1.0
 40
1.0
 40
1.0
 10
3.340325505257952
 20
-1.690163583256637
 30
0.0
 10
3.348003963461855
 20
-1.690020517727185
 30
0.0
 10
3.355682385818668
 20
-1.689875534069857
 30
0.0
 10
3.363360771586813
 20
-1.689728632298675
 30
0.0
  0
SPLINE
  5
112
330
70
100
AcDbEntity
  8
Layer 1
 62
    18
420
        0
370
     5
100
AcDbSpline
210
0.0
220
0.0
230
1.0
 70
     8
 71
     3
 72
     8
 73
     4
 74
     0
 42
0.0000000001
 43
0.0000000001
 40
0.0
 40
0.0
 40
0.0
 40
0.0
 40
1.0
 40
1.0
 40
1.0
 40
1.0
 10
1.599175074766675
 20
-1.689728632298675
 30
0.0
 10
1.606853460534832
 20
-1.689875534069857
 30
0.0
 10
1.614531882891646
 20
-1.690020517727185
 30
0.0
 10
1.622210341095574
 20
-1.690163583256637
 30
0.0
  0
SPLINE
  5
113
330
70
100
AcDbEntity
  8
Layer 1
 62
    18
420
        0
370
     5
100
AcDbSpline
210
0.0
220
0.0
230
1.0
 70
     8
 71
     3
 72
     8
 73
     4
 74
     0
 42
0.0000000001
 43
0.0000000001
 40
0.0
 40
0.0
 40
0.0
 40
0.0
 40
1.0
 40
1.0
 40
1.0
 40
1.0
 10
1.679848864986448
 20
-3.386151680894499
 30
0.0
 10
1.750914365106811
 20
-3.387765159437346
 30
0.0
 10
1.821984575769533
 20
-3.389164022498145
 30
0.0
 10
1.893058524747794
 20
-3.39034825094067
 30
0.0
  0
SPLINE
  5
114
330
70
100
AcDbEntity
  8
Layer 1
 62
    18
420
        0
370
     5
100
AcDbSpline
210
0.0
220
0.0
230
1.0
 70
     8
 71
     3
 72
     8
 73
     4
 74
     0
 42
0.0000000001
 43
0.0000000001
 40
0.0
 40
0.0
 40
0.0
 40
0.0
 40
1.0
 40
1.0
 40
1.0
 40
1.0
 10
3.069477321605732
 20
-3.39034825094067
 30
0.0
 10
3.140551270583993
 20
-3.389164022498145
 30
0.0
 10
3.21162148124669
 20
-3.387765159437346
 30
0.0
 10
3.282686981367078
 20
-3.386151680894499
 30
0.0
  0
SPLINE
  5
115
330
70
100
AcDbEntity
  8
Layer 1
 62
    18
420
        0
370
     5
100
AcDbSpline
210
0.0
220
0.0
230
1.0
 70
     8
 71
     3
 72
    29
 73
    25
 74
     0
 42
0.0000000001
 43
0.0000000001
 40
0.0
 40
0.0
 40
0.0
 40
0.0
 40
1.0
 40
1.0
 40
1.0
 40
2.0
 40
2.0
 40
2.0
 40
3.0
 40
3.0
 40
3.0
 40
4.0
 40
4.0
 40
4.0
 40
5.0
 40
5.0
 40
5.0
 40
6.0
 40
6.0
 40
6.0
 40
7.0
 40
7.0
 40
7.0
 40
8.0
 40
8.0
 40
8.0
 40
8.0
 10
2.370785987456125
 20
-7.844243632607053
 30
0.0
 10
2.370785942127187
 20
-7.834084507433847
 30
0.0
 10
2.370137166303329
 20
-7.823913490257659
 30
0.0
 10
2.368844910735762
 20
-7.813828132495624
 30
0.0
 10
2.367552689842252
 20
-7.803743045346183
 30
0.0
 10
2.365617023736591
 20
-7.793743613013904
 30
0.0
 10
2.363054003339293
 20
-7.78390680275763
 30
0.0
 10
2.360490944974243
 20
-7.774069846782013
 30
0.0
 10
2.357300513730592
 20
-7.764395517700348
 30
0.0
 10
2.353509022112524
 20
-7.754963039432317
 30
0.0
 10
2.349717552057212
 20
-7.745530614808103
 30
0.0
 10
2.345325028464104
 20
-7.736340038246604
 30
0.0
 10
2.340367683641968
 20
-7.727464989368449
 30
0.0
 10
2.335410405077482
 20
-7.718590059110131
 30
0.0
 10
2.32988832038216
 20
-7.710030648100806
 30
0.0
 10
2.323846345644849
 20
-7.701855262739122
 30
0.0
 10
2.317804481752293
 20
-7.693680027361324
 30
0.0
 10
2.31124274689316
 20
-7.685888803540895
 30
0.0
 10
2.304215580090335
 20
-7.678544070740624
 30
0.0
 10
2.297188535108287
 20
-7.671199465266403
 30
0.0
 10
2.289696074319572
 20
-7.664301335331982
 30
0.0
 10
2.281795371246062
 20
-7.657902349352323
 30
0.0
 10
2.273893883426492
 20
-7.651502727786363
 30
0.0
 10
2.265584072219843
 20
-7.645602349336083
 30
0.0
 10
2.256945613895469
 20
-7.640255239363467
 30
0.0
  0
SPLINE
  5
116
330
70
100
AcDbEntity
  8
Layer 1
 62
    18
420
        0
370
     5
100
AcDbSpline
210
0.0
220
0.0
230
1.0
 70
     8
 71
     3
 72
    29
 73
    25
 74
     0
 42
0.0000000001
 43
0.0000000001
 40
0.0
 40
0.0
 40
0.0
 40
0.0
 40
1.0
 40
1.0
 40
1.0
 40
2.0
 40
2.0
 40
2.0
 40
3.0
 40
3.0
 40
3.0
 40
4.0
 40
4.0
 40
4.0
 40
5.0
 40
5.0
 40
5.0
 40
6.0
 40
6.0
 40
6.0
 40
7.0
 40
7.0
 40
7.0
 40
8.0
 40
8.0
 40
8.0
 40
8.0
 10
2.256945613895469
 20
-7.640255239363467
 30
0.0
 10
2.241715888601725
 20
-7.630828024987319
 30
0.0
 10
2.227065579480115
 20
-7.620425499181641
 30
0.0
 10
2.213134698806002
 20
-7.60914325072867
 30
0.0
 10
2.19920399219379
 20
-7.597861143243739
 30
0.0
 10
2.185992696051104
 20
-7.585699335094987
 30
0.0
 10
2.173602283073705
 20
-7.572750008653833
 30
0.0
 10
2.161212084673807
 20
-7.559800906469515
 30
0.0
 10
2.149642741007293
 20
-7.546064313269122
 30
0.0
 10
2.138989376907375
 20
-7.53165102218256
 30
0.0
 10
2.128335422726132
 20
-7.517236932755293
 30
0.0
 10
2.118597549585034
 20
-7.502146070476252
 30
0.0
 10
2.109855908788151
 20
-7.486498604297139
 30
0.0
 10
2.101113331098834
 20
-7.470849461088088
 30
0.0
 10
2.093367199309164
 20
-7.454643594663618
 30
0.0
 10
2.086680124381258
 20
-7.438011474051133
 30
0.0
 10
2.0799925585704
 20
-7.421378132512573
 30
0.0
 10
2.074364205112917
 20
-7.404318474203086
 30
0.0
 10
2.069843173776335
 20
-7.386971686479101
 30
0.0
 10
2.0653207183721
 20
-7.369619434736401
 30
0.0
 10
2.061906282783562
 20
-7.35197987266651
 30
0.0
 10
2.059626401908341
 20
-7.334189299428897
 30
0.0
 10
2.057346882247694
 20
-7.316401544853432
 30
0.0
 10
2.056201557820878
 20
-7.298462826957498
 30
0.0
 10
2.0562010959263
 20
-7.280544968029491
 30
0.0
  0
SPLINE
  5
117
330
70
100
AcDbEntity
  8
Layer 1
 62
    18
420
        0
370
     5
100
AcDbSpline
210
0.0
220
0.0
230
1.0
 70
     8
 71
     3
 72
    92
 73
    88
 74
     0
 42
0.0000000001
 43
0.0000000001
 40
0.0
 40
0.0
 40
0.0
 40
0.0
 40
1.0
 40
1.0
 40
1.0
 40
2.0
 40
2.0
 40
2.0
 40
3.0
 40
3.0
 40
3.0
 40
4.0
 40
4.0
 40
4.0
 40
5.0
 40
5.0
 40
5.0
 40
6.0
 40
6.0
 40
6.0
 40
7.0
 40
7.0
 40
7.0
 40
8.0
 40
8.0
 40
8.0
 40
9.0
 40
9.0
 40
9.0
 40
10.0
 40
10.0
 40
10.0
 40
11.0
 40
11.0
 40
11.0
 40
12.0
 40
12.0
 40
12.0
 40
13.0
 40
13.0
 40
13.0
 40
14.0
 40
14.0
 40
14.0
 40
15.0
 40
15.0
 40
15.0
 40
16.0
 40
16.0
 40
16.0
 40
17.0
 40
17.0
 40
17.0
 40
18.0
 40
18.0
 40
18.0
 40
19.0
 40
19.0
 40
19.0
 40
20.0
 40
20.0
 40
20.0
 40
21.0
 40
21.0
 40
21.0
 40
22.0
 40
22.0
 40
22.0
 40
23.0
 40
23.0
 40
23.0
 40
24.0
 40
24.0
 40
24.0
 40
25.0
 40
25.0
 40
25.0
 40
26.0
 40
26.0
 40
26.0
 40
27.0
 40
27.0
 40
27.0
 40
28.0
 40
28.0
 40
28.0
 40
29.0
 40
29.0
 40
29.0
 40
29.0
 10
2.591749844788422
 20
-9.82938951908568
 30
0.0
 10
2.591881678369077
 20
-9.835894618999594
 30
0.0
 10
2.592009577548183
 20
-9.842399799222574
 30
0.0
 10
2.592134257524384
 20
-9.848905040473178
 30
0.0
 10
2.592195134127678
 20
-9.852081308249655
 30
0.0
 10
2.592255243270932
 20
-9.855257590575167
 30
0.0
 10
2.592314558401489
 20
-9.858433887791786
 30
0.0
 10
2.592372098489097
 20
-9.861515132294622
 30
0.0
 10
2.592428891375561
 20
-9.864596390810724
 30
0.0
 10
2.592484836268731
 20
-9.867677664714593
 30
0.0
 10
2.592538544446167
 20
-9.870635747145923
 30
0.0
 10
2.59259147108153
 20
-9.873593843759181
 30
0.0
 10
2.592643499661284
 20
-9.876551956202723
 30
0.0
 10
2.592692874424566
 20
-9.87935918450767
 30
0.0
 10
2.592741440409844
 20
-9.882166427069325
 30
0.0
 10
2.592789098757558
 20
-9.884973685053687
 30
0.0
 10
2.592833737732057
 20
-9.887603090470721
 30
0.0
 10
2.592877580431932
 20
-9.890232509418359
 30
0.0
 10
2.592920474811244
 20
-9.892861943889732
 30
0.0
 10
2.592960038127494
 20
-9.895287183492932
 30
0.0
 10
2.592998794692284
 20
-9.897712436302425
 30
0.0
 10
2.593036529257586
 20
-9.900137705046946
 30
0.0
 10
2.593070729825411
 20
-9.902335837384043
 30
0.0
 10
2.593104090858572
 20
-9.904533982811143
 30
0.0
 10
2.593136317356968
 20
-9.90673214504871
 30
0.0
 10
2.593164899144085
 20
-9.908681702344285
 30
0.0
 10
2.593192588509054
 20
-9.910631272862978
 30
0.0
 10
2.593218964626405
 20
-9.912580861196323
 30
0.0
 10
2.593230810681764
 20
-9.913456461310689
 30
0.0
 10
2.593242391842952
 20
-9.914332065018394
 30
0.0
 10
2.59325363859706
 20
-9.915207673024497
 30
0.0
 10
2.593264001534937
 20
-9.916014472152053
 30
0.0
 10
2.593274080558835
 20
-9.91682127492888
 30
0.0
 10
2.593283795919774
 20
-9.917628082126258
 30
0.0
 10
2.593292658786013
 20
-9.91836409433386
 30
0.0
 10
2.593301219010021
 20
-9.919100110220167
 30
0.0
 10
2.593309375670527
 20
-9.919836130609457
 30
0.0
 10
2.593316726508242
 20
-9.920499437173702
 30
0.0
 10
2.593323749582307
 20
-9.921162747394999
 30
0.0
 10
2.593330320101358
 20
-9.92182606217918
 30
0.0
 10
2.593336155749031
 20
-9.922415189358742
 30
0.0
 10
2.593341634411596
 20
-9.923004320137579
 30
0.0
 10
2.593346593213861
 20
-9.923593455362579
 30
0.0
 10
2.593350916691204
 20
-9.92410711020496
 30
0.0
 10
2.593354844984496
 20
-9.924620768427251
 30
0.0
 10
2.59335816788622
 20
-9.925134430823087
 30
0.0
 10
2.593360994146324
 20
-9.925571321126755
 30
0.0
 10
2.593363382455335
 20
-9.92600821444959
 30
0.0
 10
2.593365016988602
 20
-9.926445110815039
 30
0.0
 10
2.593365725039246
 20
-9.926634366513351
 30
0.0
 10
2.593366291646273
 20
-9.926823622782622
 30
0.0
 10
2.593366660968336
 20
-9.927012879329847
 30
0.0
 10
2.593366991959997
 20
-9.9271824937502
 30
0.0
 10
2.593367164492406
 20
-9.927352108393733
 30
0.0
 10
2.593367115060901
 20
-9.927521723519172
 30
0.0
 10
2.593367071372995
 20
-9.927671630492922
 30
0.0
 10
2.593366854305966
 20
-9.927821537842975
 30
0.0
 10
2.593366380383725
 20
-9.927971442975678
 30
0.0
 10
2.593365968955064
 20
-9.928101580934606
 30
0.0
 10
2.593365363945091
 20
-9.928231717222336
 30
0.0
 10
2.593364458357465
 20
-9.928361856166675
 30
0.0
 10
2.593363690730951
 20
-9.928472169180167
 30
0.0
 10
2.593362707133337
 20
-9.928582484102509
 30
0.0
 10
2.593361350529966
 20
-9.928692781515362
 30
0.0
 10
2.59336023844628
 20
-9.928783198476189
 30
0.0
 10
2.593358875702771
 20
-9.928873603670757
 30
0.0
 10
2.593357058263993
 20
-9.928964037579437
 30
0.0
 10
2.593355641533548
 20
-9.92903453264954
 30
0.0
 10
2.593353948506622
 20
-9.929105045167892
 30
0.0
 10
2.593351583076683
 20
-9.929175442751859
 30
0.0
 10
2.593350651757266
 20
-9.929203159758065
 30
0.0
 10
2.593349616204452
 20
-9.929230858947599
 30
0.0
 10
2.593348402322526
 20
-9.929258644534481
 30
0.0
 10
2.593347407168935
 20
-9.929281423460452
 30
0.0
 10
2.593346292162108
 20
-9.929304260453211
 30
0.0
 10
2.59334492638882
 20
-9.929326815542177
 30
0.0
 10
2.593343860910434
 20
-9.929344411405736
 30
0.0
 10
2.593342642815514
 20
-9.929361835702566
 30
0.0
 10
2.593341155478128
 20
-9.929379933086389
 30
0.0
 10
2.593340086909897
 20
-9.929392935038473
 30
0.0
 10
2.593338879369071
 20
-9.929406284411999
 30
0.0
 10
2.59333708970165
 20
-9.929417974421614
 30
0.0
 10
2.593335997265714
 20
-9.929425110153538
 30
0.0
 10
2.593334687927166
 20
-9.929431627600099
 30
0.0
 10
2.593332729280164
 20
-9.929440916910404
 30
0.0
 10
2.593331965941868
 20
-9.929444537208761
 30
0.0
 10
2.59333110398178
 20
-9.929448578518304
 30
0.0
 10
2.593328074449598
 20
-9.929448737819939
 30
0.0
  0
SPLINE
  5
118
330
70
100
AcDbEntity
  8
Layer 1
 62
    18
420
        0
370
     5
100
AcDbSpline
210
0.0
220
0.0
230
1.0
 70
     8
 71
     3
 72
    92
 73
    88
 74
     0
 42
0.0000000001
 43
0.0000000001
 40
0.0
 40
0.0
 40
0.0
 40
0.0
 40
1.0
 40
1.0
 40
1.0
 40
2.0
 40
2.0
 40
2.0
 40
3.0
 40
3.0
 40
3.0
 40
4.0
 40
4.0
 40
4.0
 40
5.0
 40
5.0
 40
5.0
 40
6.0
 40
6.0
 40
6.0
 40
7.0
 40
7.0
 40
7.0
 40
8.0
 40
8.0
 40
8.0
 40
9.0
 40
9.0
 40
9.0
 40
10.0
 40
10.0
 40
10.0
 40
11.0
 40
11.0
 40
11.0
 40
12.0
 40
12.0
 40
12.0
 40
13.0
 40
13.0
 40
13.0
 40
14.0
 40
14.0
 40
14.0
 40
15.0
 40
15.0
 40
15.0
 40
16.0
 40
16.0
 40
16.0
 40
17.0
 40
17.0
 40
17.0
 40
18.0
 40
18.0
 40
18.0
 40
19.0
 40
19.0
 40
19.0
 40
20.0
 40
20.0
 40
20.0
 40
21.0
 40
21.0
 40
21.0
 40
22.0
 40
22.0
 40
22.0
 40
23.0
 40
23.0
 40
23.0
 40
24.0
 40
24.0
 40
24.0
 40
25.0
 40
25.0
 40
25.0
 40
26.0
 40
26.0
 40
26.0
 40
27.0
 40
27.0
 40
27.0
 40
28.0
 40
28.0
 40
28.0
 40
29.0
 40
29.0
 40
29.0
 40
29.0
 10
2.369207717869458
 20
-9.929448704398559
 30
0.0
 10
2.369204688837612
 20
-9.929448541294579
 30
0.0
 10
2.369203827092569
 20
-9.929444502769911
 30
0.0
 10
2.369203063824329
 20
-9.929440884461529
 30
0.0
 10
2.369201106184681
 20
-9.929431604180106
 30
0.0
 10
2.369199796351343
 20
-9.92942508819121
 30
0.0
 10
2.369198703605434
 20
-9.929417955418456
 30
0.0
 10
2.369196913524559
 20
-9.929406270872176
 30
0.0
 10
2.369195706005055
 20
-9.929392931166198
 30
0.0
 10
2.369194637297899
 20
-9.929379937927174
 30
0.0
 10
2.369193149744849
 20
-9.929361852400283
 30
0.0
 10
2.369191931131871
 20
-9.929344438131339
 30
0.0
 10
2.369190865206418
 20
-9.929326852726564
 30
0.0
 10
2.369189498807751
 20
-9.929304310180441
 30
0.0
 10
2.369188383311375
 20
-9.929281486417012
 30
0.0
 10
2.369187387648215
 20
-9.929258720529963
 30
0.0
 10
2.369186173086089
 20
-9.929230949507477
 30
0.0
 10
2.369185136840567
 20
-9.929203264607496
 30
0.0
 10
2.369184204846659
 20
-9.92917556193063
 30
0.0
 10
2.36918183750303
 20
-9.929105194780756
 30
0.0
 10
2.369180142794006
 20
-9.929034712933924
 30
0.0
 10
2.369178724480674
 20
-9.928964248469128
 30
0.0
 10
2.369176904796075
 20
-9.928873843127094
 30
0.0
 10
2.369175540077713
 20
-9.92878346639716
 30
0.0
 10
2.36917442616651
 20
-9.928693077899827
 30
0.0
 10
2.369173067165446
 20
-9.928582801547513
 30
0.0
 10
2.369172081481981
 20
-9.928472507679972
 30
0.0
 10
2.369171311979496
 20
-9.928362215734093
 30
0.0
 10
2.369170404063475
 20
-9.928232085126637
 30
0.0
 10
2.369169797093604
 20
-9.928101957194408
 30
0.0
 10
2.369169383915037
 20
-9.927971827575674
 30
0.0
 10
2.3691689079157
 20
-9.927821912698997
 30
0.0
 10
2.369168689116602
 20
-9.927671995584002
 30
0.0
 10
2.369168644003757
 20
-9.927522078834499
 30
0.0
 10
2.369168592953327
 20
-9.927352430517304
 30
0.0
 10
2.36916876431802
 20
-9.927182782668143
 30
0.0
 10
2.369169094425918
 20
-9.927013135046484
 30
0.0
 10
2.369169462800565
 20
-9.926823821534096
 30
0.0
 10
2.369170028855238
 20
-9.92663450830504
 30
0.0
 10
2.369170736530147
 20
-9.926445195653867
 30
0.0
 10
2.369172370289258
 20
-9.926008142903532
 30
0.0
 10
2.369174758851739
 20
-9.925571093233076
 30
0.0
 10
2.369177585825177
 20
-9.92513404657398
 30
0.0
 10
2.369180909681669
 20
-9.924620182388554
 30
0.0
 10
2.369184839607719
 20
-9.924106322366116
 30
0.0
 10
2.369189165015098
 20
-9.923592465735611
 30
0.0
 10
2.369194126059293
 20
-9.923003095711262
 30
0.0
 10
2.369199607360769
 20
-9.922413730149072
 30
0.0
 10
2.369205445730472
 20
-9.92182436817696
 30
0.0
 10
2.369212019230531
 20
-9.921160797498361
 30
0.0
 10
2.369219045379407
 20
-9.92049723137082
 30
0.0
 10
2.369226399575078
 20
-9.919833668900611
 30
0.0
 10
2.369234560703817
 20
-9.919097297584155
 30
0.0
 10
2.369243125818103
 20
-9.918360930771667
 30
0.0
 10
2.369251993693713
 20
-9.917624567646068
 30
0.0
 10
2.369261715222162
 20
-9.916817319621232
 30
0.0
 10
2.369271800607243
 20
-9.916010076027278
 30
0.0
 10
2.369282169827215
 20
-9.915202836082951
 30
0.0
 10
2.369293422559495
 20
-9.914326815034428
 30
0.0
 10
2.36930500955576
 20
-9.913450798283975
 30
0.0
 10
2.36931686103906
 20
-9.912574785117183
 30
0.0
 10
2.369343241684178
 20
-9.910624835744606
 30
0.0
 10
2.369370932807631
 20
-9.908674904128348
 30
0.0
 10
2.369399520690447
 20
-9.906724985787553
 30
0.0
 10
2.369431750974285
 20
-9.904526627062345
 30
0.0
 10
2.369465121088372
 20
-9.902328285210943
 30
0.0
 10
2.369499331841678
 20
-9.900129956495776
 30
0.0
 10
2.369537071828176
 20
-9.897704844856459
 30
0.0
 10
2.369575834843481
 20
-9.895279749203456
 30
0.0
 10
2.369615403223949
 20
-9.892854666730878
 30
0.0
 10
2.369658300346638
 20
-9.890225570994591
 30
0.0
 10
2.369702144039049
 20
-9.887596490749702
 30
0.0
 10
2.369746780186081
 20
-9.884967423966573
 30
0.0
 10
2.369794438108733
 20
-9.882160374754624
 30
0.0
 10
2.36984299941293
 20
-9.879353340888933
 30
0.0
 10
2.369892365743226
 20
-9.876546321203754
 30
0.0
 10
2.369944384788759
 20
-9.873588465435533
 30
0.0
 10
2.369997297701489
 20
-9.870630625412811
 30
0.0
 10
2.370050998026929
 20
-9.867672799699448
 30
0.0
 10
2.370106932698048
 20
-9.864591905736434
 30
0.0
 10
2.370163721669882
 20
-9.861511027298268
 30
0.0
 10
2.370221263674061
 20
-9.858430162968135
 30
0.0
 10
2.370280576330034
 20
-9.855254495928193
 30
0.0
 10
2.370340689075204
 20
-9.852078843877885
 30
0.0
 10
2.370401566819496
 20
-9.848903206345084
 30
0.0
 10
2.370526262370908
 20
-9.842398565316038
 30
0.0
 10
2.370654167484139
 20
-9.835893985195323
 30
0.0
 10
2.370785964941761
 20
-9.829389484463641
 30
0.0
  0
SPLINE
  5
119
330
70
100
AcDbEntity
  8
Layer 1
 62
    18
420
        0
370
     5
100
AcDbSpline
210
0.0
220
0.0
230
1.0
 70
     8
 71
     3
 72
    29
 73
    25
 74
     0
 42
0.0000000001
 43
0.0000000001
 40
0.0
 40
0.0
 40
0.0
 40
0.0
 40
1.0
 40
1.0
 40
1.0
 40
2.0
 40
2.0
 40
2.0
 40
3.0
 40
3.0
 40
3.0
 40
4.0
 40
4.0
 40
4.0
 40
5.0
 40
5.0
 40
5.0
 40
6.0
 40
6.0
 40
6.0
 40
7.0
 40
7.0
 40
7.0
 40
8.0
 40
8.0
 40
8.0
 40
8.0
 10
2.906334750427238
 20
-7.280544968029491
 30
0.0
 10
2.906334436326915
 20
-7.298460447339847
 30
0.0
 10
2.905189908378032
 20
-7.316396835870565
 30
0.0
 10
2.902911005672295
 20
-7.334182245674987
 30
0.0
 10
2.900632107323506
 20
-7.351967621476331
 30
0.0
 10
2.897218838555355
 20
-7.369602019128755
 30
0.0
 10
2.89269855089257
 20
-7.386949416398111
 30
0.0
 10
2.888178848818597
 20
-7.404294566367676
 30
0.0
 10
2.882552414652927
 20
-7.42135279030933
 30
0.0
 10
2.875866757655873
 20
-7.437984805031696
 30
0.0
 10
2.869181349822231
 20
-7.45461619990629
 30
0.0
 10
2.861436798106738
 20
-7.470821417329261
 30
0.0
 10
2.852695885771974
 20
-7.48647001505507
 30
0.0
 10
2.843955080694336
 20
-7.502118420761562
 30
0.0
 10
2.834217939449381
 20
-7.517210220431024
 30
0.0
 10
2.823564862632767
 20
-7.531625496701811
 30
0.0
 10
2.812911831160299
 20
-7.546040711615003
 30
0.0
 10
2.801342871913397
 20
-7.559779408888616
 30
0.0
 10
2.788952519677978
 20
-7.57273018216847
 30
0.0
 10
2.776558853633054
 20
-7.585684419142757
 30
0.0
 10
2.763343355176465
 20
-7.597850310605103
 30
0.0
 10
2.749408362989886
 20
-7.609136416710422
 30
0.0
 10
2.735475166488931
 20
-7.620421068469895
 30
0.0
 10
2.720822661676316
 20
-7.630826161598936
 30
0.0
 10
2.705590232458057
 20
-7.640255239363467
 30
0.0
  0
SPLINE
  5
11A
330
70
100
AcDbEntity
  8
Layer 1
 62
    18
420
        0
370
     5
100
AcDbSpline
210
0.0
220
0.0
230
1.0
 70
     8
 71
     3
 72
    29
 73
    25
 74
     0
 42
0.0000000001
 43
0.0000000001
 40
0.0
 40
0.0
 40
0.0
 40
0.0
 40
1.0
 40
1.0
 40
1.0
 40
2.0
 40
2.0
 40
2.0
 40
3.0
 40
3.0
 40
3.0
 40
4.0
 40
4.0
 40
4.0
 40
5.0
 40
5.0
 40
5.0
 40
6.0
 40
6.0
 40
6.0
 40
7.0
 40
7.0
 40
7.0
 40
8.0
 40
8.0
 40
8.0
 40
8.0
 10
2.705590232458057
 20
-7.640255239363467
 30
0.0
 10
2.696953036438761
 20
-7.645601562334124
 30
0.0
 10
2.688644405595836
 20
-7.651501008229514
 30
0.0
 10
2.680743960526165
 20
-7.657899549597433
 30
0.0
 10
2.672843521499291
 20
-7.664298086071235
 30
0.0
 10
2.665351267621253
 20
-7.671195717254122
 30
0.0
 10
2.658324377262184
 20
-7.678539796147863
 30
0.0
 10
2.651297105279278
 20
-7.685884273891588
 30
0.0
 10
2.644735247363668
 20
-7.693675247839892
 30
0.0
 10
2.638693230962934
 20
-7.701850232809899
 30
0.0
 10
2.632651115594967
 20
-7.710025351684836
 30
0.0
 10
2.627128858771887
 20
-7.718584494161606
 30
0.0
 10
2.622171394928626
 20
-7.727459171169028
 30
0.0
 10
2.617213870757609
 20
-7.736333956173034
 30
0.0
 10
2.612821153312501
 20
-7.745524283387212
 30
0.0
 10
2.609029480535531
 20
-7.754956470738407
 30
0.0
 10
2.605237746408647
 20
-7.764388810703898
 30
0.0
 10
2.602047076400051
 20
-7.774063018633164
 30
0.0
 10
2.599483716109413
 20
-7.783899860881066
 30
0.0
 10
2.596920255901623
 20
-7.793737086558975
 30
0.0
 10
2.59498415431656
 20
-7.803736959234356
 30
0.0
 10
2.593691630027491
 20
-7.8138225212161
 30
0.0
 10
2.592398896599787
 20
-7.823909715105653
 30
0.0
 10
2.591749948754719
 20
-7.834082626033957
 30
0.0
 10
2.591749858897413
 20
-7.844243632607053
 30
0.0
  0
SPLINE
  5
11B
330
70
100
AcDbEntity
  8
Layer 1
 62
    18
420
        0
370
     5
100
AcDbSpline
210
0.0
220
0.0
230
1.0
 70
     8
 71
     3
 72
    32
 73
    28
 74
     0
 42
0.0000000001
 43
0.0000000001
 40
0.0
 40
0.0
 40
0.0
 40
0.0
 40
1.0
 40
1.0
 40
1.0
 40
2.0
 40
2.0
 40
2.0
 40
3.0
 40
3.0
 40
3.0
 40
4.0
 40
4.0
 40
4.0
 40
5.0
 40
5.0
 40
5.0
 40
6.0
 40
6.0
 40
6.0
 40
7.0
 40
7.0
 40
7.0
 40
8.0
 40
8.0
 40
8.0
 40
9.0
 40
9.0
 40
9.0
 40
9.0
 10
9.003429638320135
 20
-7.67425330490404
 30
0.0
 10
9.000836425224102
 20
-7.67422902051597
 30
0.0
 10
8.998240292675165
 20
-7.673988463604271
 30
0.0
 10
8.995682812384048
 20
-7.673535821749965
 30
0.0
 10
8.993143380782763
 20
-7.673086374286867
 30
0.0
 10
8.99064205780971
 20
-7.67242782477668
 30
0.0
 10
8.988215145177163
 20
-7.67155826370683
 30
0.0
 10
8.985835634969033
 20
-7.670705686891905
 30
0.0
 10
8.98352765672535
 20
-7.66965026096649
 30
0.0
 10
8.981333399398888
 20
-7.668394418202271
 30
0.0
 10
8.979195989593511
 20
-7.667171111069667
 30
0.0
 10
8.977166484605756
 20
-7.665757637141521
 30
0.0
 10
8.97528943118972
 20
-7.664163015733189
 30
0.0
 10
8.973469480127656
 20
-7.66261690473766
 30
0.0
 10
8.971792846182601
 20
-7.660900500092161
 30
0.0
 10
8.970308936862112
 20
-7.659028091261537
 30
0.0
 10
8.968870992940233
 20
-7.657213681944035
 30
0.0
 10
8.96761401893314
 20
-7.655252783488726
 30
0.0
 10
8.96658499074485
 20
-7.653181395206097
 30
0.0
 10
8.966079979861861
 20
-7.652164830608878
 30
0.0
 10
8.965629869764773
 20
-7.65112165451953
 30
0.0
 10
8.965239268255118
 20
-7.650056931538554
 30
0.0
 10
8.964852746226142
 20
-7.649003328629507
 30
0.0
 10
8.964524496248612
 20
-7.647928626554302
 30
0.0
 10
8.964257342586657
 20
-7.646836903174769
 30
0.0
 10
8.963730749799196
 20
-7.644684981867207
 30
0.0
 10
8.963441536161981
 20
-7.64246692723082
 30
0.0
 10
8.963412842261606
 20
-7.640255239363467
 30
0.0
  0
SPLINE
  5
11C
330
70
100
AcDbEntity
  8
Layer 1
 62
    18
420
        0
370
     5
100
AcDbSpline
210
0.0
220
0.0
230
1.0
 70
     8
 71
     3
 72
    77
 73
    73
 74
     0
 42
0.0000000001
 43
0.0000000001
 40
0.0
 40
0.0
 40
0.0
 40
0.0
 40
1.0
 40
1.0
 40
1.0
 40
2.0
 40
2.0
 40
2.0
 40
3.0
 40
3.0
 40
3.0
 40
4.0
 40
4.0
 40
4.0
 40
5.0
 40
5.0
 40
5.0
 40
6.0
 40
6.0
 40
6.0
 40
7.0
 40
7.0
 40
7.0
 40
8.0
 40
8.0
 40
8.0
 40
9.0
 40
9.0
 40
9.0
 40
10.0
 40
10.0
 40
10.0
 40
11.0
 40
11.0
 40
11.0
 40
12.0
 40
12.0
 40
12.0
 40
13.0
 40
13.0
 40
13.0
 40
14.0
 40
14.0
 40
14.0
 40
15.0
 40
15.0
 40
15.0
 40
16.0
 40
16.0
 40
16.0
 40
17.0
 40
17.0
 40
17.0
 40
18.0
 40
18.0
 40
18.0
 40
19.0
 40
19.0
 40
19.0
 40
20.0
 40
20.0
 40
20.0
 40
21.0
 40
21.0
 40
21.0
 40
22.0
 40
22.0
 40
22.0
 40
23.0
 40
23.0
 40
23.0
 40
24.0
 40
24.0
 40
24.0
 40
24.0
 10
9.591472008193376
 20
-7.615758760231882
 30
0.0
 10
9.591472758071631
 20
-7.615724830292113
 30
0.0
 10
9.591470440899708
 20
-7.615690914033797
 30
0.0
 10
9.591468849234539
 20
-7.615656994557184
 30
0.0
 10
9.591466864128884
 20
-7.615614690592438
 30
0.0
 10
9.591466007532996
 20
-7.615572381621581
 30
0.0
 10
9.591464906359229
 20
-7.615530073721806
 30
0.0
 10
9.591463366005781
 20
-7.615470892216484
 30
0.0
 10
9.591461347081475
 20
-7.615411712807043
 30
0.0
 10
9.591459397114526
 20
-7.615352533060987
 30
0.0
 10
9.591453831664946
 20
-7.615183626661568
 30
0.0
 10
9.591448827944178
 20
-7.615014717520605
 30
0.0
 10
9.591443707056113
 20
-7.614845808715244
 30
0.0
 10
9.591436546524214
 20
-7.614609623727068
 30
0.0
 10
9.591429156902195
 20
-7.614373439394967
 30
0.0
 10
9.59142183421525
 20
-7.614137254519542
 30
0.0
 10
9.591412430184441
 20
-7.613833938282418
 30
0.0
 10
9.591403136546457
 20
-7.613530621149139
 30
0.0
 10
9.59139383392686
 20
-7.613227303675405
 30
0.0
 10
9.591382476847456
 20
-7.612856999311083
 30
0.0
 10
9.591371106381251
 20
-7.612486694439439
 30
0.0
 10
9.591359761428293
 20
-7.612116389019951
 30
0.0
 10
9.591346368645012
 20
-7.611679241308946
 30
0.0
 10
9.591333011416786
 20
-7.611242092834496
 30
0.0
 10
9.591319671872371
 20
-7.610804943740049
 30
0.0
 10
9.59130429816221
 20
-7.610301133169589
 30
0.0
 10
9.591288947940331
 20
-7.609797321775456
 30
0.0
 10
9.591273632607174
 20
-7.609293509337955
 30
0.0
 10
9.591236970589912
 20
-7.60808747743873
 30
0.0
 10
9.591200508496765
 20
-7.606881439560411
 30
0.0
 10
9.591164259898302
 20
-7.605675395235417
 30
0.0
 10
9.591120149239865
 20
-7.604207768580231
 30
0.0
 10
9.5910763547304
 20
-7.602740132378458
 30
0.0
 10
9.591032864213577
 20
-7.601272487164073
 30
0.0
 10
9.590981727533618
 20
-7.59954681202531
 30
0.0
 10
9.590931011133836
 20
-7.597821124426192
 30
0.0
 10
9.590880688683277
 20
-7.596095425363905
 30
0.0
 10
9.590822954567959
 20
-7.594115559368951
 30
0.0
 10
9.590765738991926
 20
-7.592135678285456
 30
0.0
 10
9.590709070379286
 20
-7.590155781518786
 30
0.0
 10
9.590645278674678
 20
-7.587927017066122
 30
0.0
 10
9.590582180079005
 20
-7.58569823273971
 30
0.0
 10
9.59051977947211
 20
-7.583469428886624
 30
0.0
 10
9.590450571176814
 20
-7.58099747031032
 30
0.0
 10
9.590382221474074
 20
-7.57852548771426
 30
0.0
 10
9.590314711176789
 20
-7.576053482102578
 30
0.0
 10
9.590160420239675
 20
-7.570403854154088
 30
0.0
 10
9.590010513726838
 20
-7.564754105989069
 30
0.0
 10
9.589865038221255
 20
-7.559104243720108
 30
0.0
 10
9.589696578251352
 20
-7.552561729059207
 30
0.0
 10
9.589534060055736
 20
-7.546019061390147
 30
0.0
 10
9.589377467195719
 20
-7.539476251778725
 30
0.0
 10
9.589201028450865
 20
-7.532104235484666
 30
0.0
 10
9.589032112115368
 20
-7.524732038989996
 30
0.0
 10
9.588870722329703
 20
-7.517359677589056
 30
0.0
 10
9.588692773217365
 20
-7.509230878345684
 30
0.0
 10
9.588523974408719
 20
-7.501101878619692
 30
0.0
 10
9.5883643329381
 20
-7.492972698964775
 30
0.0
 10
9.588191373664837
 20
-7.484165357115519
 30
0.0
 10
9.588029163328352
 20
-7.475357804064767
 30
0.0
 10
9.587877714611824
 20
-7.466550065556449
 30
0.0
 10
9.587716064117204
 20
-7.457149026584273
 30
0.0
 10
9.587566673906723
 20
-7.447747776327837
 30
0.0
 10
9.587429518398694
 20
-7.438346348567417
 30
0.0
 10
9.587285029075751
 20
-7.428442218933114
 30
0.0
 10
9.587154117834465
 20
-7.418537892304861
 30
0.0
 10
9.587036809616089
 20
-7.408633399875522
 30
0.0
 10
9.586788886092133
 20
-7.387700879540867
 30
0.0
 10
9.586601722044759
 20
-7.366767618636609
 30
0.0
 10
9.586475364097395
 20
-7.345833981255761
 30
0.0
 10
9.586344001518353
 20
-7.324071229858695
 30
0.0
 10
9.586278357093533
 20
-7.302308071572446
 30
0.0
 10
9.586278299556825
 20
-7.280544968029491
 30
0.0
  0
SPLINE
  5
11D
330
70
100
AcDbEntity
  8
Layer 1
 62
    18
420
        0
370
     5
100
AcDbSpline
210
0.0
220
0.0
230
1.0
 70
     8
 71
     3
 72
    83
 73
    79
 74
     0
 42
0.0000000001
 43
0.0000000001
 40
0.0
 40
0.0
 40
0.0
 40
0.0
 40
1.0
 40
1.0
 40
1.0
 40
2.0
 40
2.0
 40
2.0
 40
3.0
 40
3.0
 40
3.0
 40
4.0
 40
4.0
 40
4.0
 40
5.0
 40
5.0
 40
5.0
 40
6.0
 40
6.0
 40
6.0
 40
7.0
 40
7.0
 40
7.0
 40
8.0
 40
8.0
 40
8.0
 40
9.0
 40
9.0
 40
9.0
 40
10.0
 40
10.0
 40
10.0
 40
11.0
 40
11.0
 40
11.0
 40
12.0
 40
12.0
 40
12.0
 40
13.0
 40
13.0
 40
13.0
 40
14.0
 40
14.0
 40
14.0
 40
15.0
 40
15.0
 40
15.0
 40
16.0
 40
16.0
 40
16.0
 40
17.0
 40
17.0
 40
17.0
 40
18.0
 40
18.0
 40
18.0
 40
19.0
 40
19.0
 40
19.0
 40
20.0
 40
20.0
 40
20.0
 40
21.0
 40
21.0
 40
21.0
 40
22.0
 40
22.0
 40
22.0
 40
23.0
 40
23.0
 40
23.0
 40
24.0
 40
24.0
 40
24.0
 40
25.0
 40
25.0
 40
25.0
 40
26.0
 40
26.0
 40
26.0
 40
26.0
 10
8.968029718906992
 20
-7.280544968029491
 30
0.0
 10
8.968029652264526
 20
-7.305760394190125
 30
0.0
 10
8.967941849611962
 20
-7.33097590508065
 30
0.0
 10
8.967766112741779
 20
-7.356190787148938
 30
0.0
 10
8.967597046332178
 20
-7.380448585611095
 30
0.0
 10
8.967346594469011
 20
-7.40470580208158
 30
0.0
 10
8.967014936618751
 20
-7.428961875862872
 30
0.0
 10
8.966857954505636
 20
-7.440442893770068
 30
0.0
 10
8.96668277924545
 20
-7.451923655672594
 30
0.0
 10
8.966489387833791
 20
-7.463404112398519
 30
0.0
 10
8.966305766268279
 20
-7.474304593544275
 30
0.0
 10
8.966105722567009
 20
-7.485204799568665
 30
0.0
 10
8.965889295693513
 20
-7.496104679557523
 30
0.0
 10
8.965686465669072
 20
-7.506319783108235
 30
0.0
 10
8.965469246329904
 20
-7.516534600302393
 30
0.0
 10
8.96523759930311
 20
-7.526749090145257
 30
0.0
 10
8.965023728637712
 20
-7.536179730246153
 30
0.0
 10
8.96479755965452
 20
-7.545610091309147
 30
0.0
 10
8.964559144871827
 20
-7.555040142497546
 30
0.0
 10
8.96434285550006
 20
-7.563595064404757
 30
0.0
 10
8.964116487738616
 20
-7.572149731282731
 30
0.0
 10
8.963880010175444
 20
-7.580704118427471
 30
0.0
 10
8.963670065308809
 20
-7.588298706446089
 30
0.0
 10
8.963452152002723
 20
-7.595893073981819
 30
0.0
 10
8.963226293452635
 20
-7.603487205202705
 30
0.0
 10
8.963031194962214
 20
-7.610047078788788
 30
0.0
 10
8.962830168010567
 20
-7.616606776044918
 30
0.0
 10
8.962623225380612
 20
-7.623166285904264
 30
0.0
 10
8.962532650622025
 20
-7.626037255613128
 30
0.0
 10
8.962440942631019
 20
-7.628908189423478
 30
0.0
 10
8.962348079646996
 20
-7.631779085896444
 30
0.0
 10
8.962264337930037
 20
-7.634367994732504
 30
0.0
 10
8.962179656970393
 20
-7.636956873205664
 30
0.0
 10
8.962094059203334
 20
-7.639545721352558
 30
0.0
 10
8.962018015134338
 20
-7.641845624187352
 30
0.0
 10
8.961941247489624
 20
-7.644145503087555
 30
0.0
 10
8.961863779001683
 20
-7.646445358388088
 30
0.0
 10
8.96179624719323
 20
-7.648450217287871
 30
0.0
 10
8.961728182801454
 20
-7.650455058253909
 30
0.0
 10
8.961659545745634
 20
-7.652459879614474
 30
0.0
 10
8.961601162225708
 20
-7.654165205205218
 30
0.0
 10
8.961542364359678
 20
-7.655870516610598
 30
0.0
 10
8.961483138651955
 20
-7.657575813122901
 30
0.0
 10
8.961434465574205
 20
-7.658977265851212
 30
0.0
 10
8.961385503534756
 20
-7.660378708520788
 30
0.0
 10
8.961336285297596
 20
-7.661780142235632
 30
0.0
 10
8.961315725465787
 20
-7.662365560226362
 30
0.0
 10
8.961295120928323
 20
-7.662950976654428
 30
0.0
 10
8.961274480569221
 20
-7.663536391779492
 30
0.0
 10
8.9612565713812
 20
-7.664044343676398
 30
0.0
 10
8.961238635224338
 20
-7.664552294592239
 30
0.0
 10
8.961220663725145
 20
-7.66506024434486
 30
0.0
 10
8.961205439770083
 20
-7.665490537006083
 30
0.0
 10
8.961190190453079
 20
-7.665920828832717
 30
0.0
 10
8.961174919483053
 20
-7.666351119684804
 30
0.0
 10
8.961162410628503
 20
-7.666703582276163
 30
0.0
 10
8.961149887245456
 20
-7.667056044213646
 30
0.0
 10
8.961137323927205
 20
-7.667408505315607
 30
0.0
 10
8.961127540861676
 20
-7.667682967042335
 30
0.0
 10
8.961117733580522
 20
-7.667957428262347
 30
0.0
 10
8.961107953212023
 20
-7.668231888868679
 30
0.0
 10
8.961104107245091
 20
-7.668339815926982
 30
0.0
 10
8.96110026543983
 20
-7.66844774289047
 30
0.0
 10
8.961096375942942
 20
-7.66855566973585
 30
0.0
 10
8.961093191500088
 20
-7.668644032545216
 30
0.0
 10
8.961089975088826
 20
-7.668732395275456
 30
0.0
 10
8.96108688339882
 20
-7.668820757979674
 30
0.0
 10
8.961084476976843
 20
-7.668889535234433
 30
0.0
 10
8.961082146114929
 20
-7.668958312473452
 30
0.0
 10
8.961079485188545
 20
-7.669027089503136
 30
0.0
 10
8.961077582833922
 20
-7.669076259710739
 30
0.0
 10
8.96107551177892
 20
-7.669125429811376
 30
0.0
 10
8.96107419073817
 20
-7.669174600217224
 30
0.0
 10
8.961073397043719
 20
-7.669204142285151
 30
0.0
 10
8.96107287408386
 20
-7.669233684463228
 30
0.0
 10
8.961071009590821
 20
-7.669263226096214
 30
0.0
 10
8.961070385256233
 20
-7.669273118256821
 30
0.0
 10
8.961069610498446
 20
-7.669283010356265
 30
0.0
 10
8.961069951215701
 20
-7.66929290316572
 30
0.0
  0
SPLINE
  5
11E
330
70
100
AcDbEntity
  8
Layer 1
 62
    18
420
        0
370
     5
100
AcDbSpline
210
0.0
220
0.0
230
1.0
 70
     8
 71
     3
 72
    32
 73
    28
 74
     0
 42
0.0000000001
 43
0.0000000001
 40
0.0
 40
0.0
 40
0.0
 40
0.0
 40
1.0
 40
1.0
 40
1.0
 40
2.0
 40
2.0
 40
2.0
 40
3.0
 40
3.0
 40
3.0
 40
4.0
 40
4.0
 40
4.0
 40
5.0
 40
5.0
 40
5.0
 40
6.0
 40
6.0
 40
6.0
 40
7.0
 40
7.0
 40
7.0
 40
8.0
 40
8.0
 40
8.0
 40
9.0
 40
9.0
 40
9.0
 40
9.0
 10
9.549112321088992
 20
-7.67425330490404
 30
0.0
 10
9.551705534184948
 20
-7.67422902051597
 30
0.0
 10
9.554301666808061
 20
-7.673988463606772
 30
0.0
 10
9.55685914716029
 20
-7.673535821775405
 30
0.0
 10
9.559398578873949
 20
-7.673086374325849
 30
0.0
 10
9.561899901945025
 20
-7.672427824841001
 30
0.0
 10
9.564326814663141
 20
-7.671558263738132
 30
0.0
 10
9.566706324914749
 20
-7.670705686905344
 30
0.0
 10
9.569014303192462
 20
-7.669650260912829
 30
0.0
 10
9.571208560546311
 20
-7.668394418088205
 30
0.0
 10
9.573345970338978
 20
-7.667171110919171
 30
0.0
 10
9.575375475311879
 20
-7.66575763696801
 30
0.0
 10
9.577252528706493
 20
-7.664163015545404
 30
0.0
 10
9.579072479753575
 20
-7.662616904531179
 30
0.0
 10
9.580749113676599
 20
-7.660900499874109
 30
0.0
 10
9.582233022952676
 20
-7.659028091000486
 30
0.0
 10
9.583670966806367
 20
-7.657213681673182
 30
0.0
 10
9.58492794073062
 20
-7.655252783183691
 30
0.0
 10
9.585956968897056
 20
-7.653181394906368
 30
0.0
 10
9.586461979758015
 20
-7.65216483033459
 30
0.0
 10
9.586912089850228
 20
-7.651121654281395
 30
0.0
 10
9.58730269135521
 20
-7.650056931338414
 30
0.0
 10
9.587689213378679
 20
-7.649003328469158
 30
0.0
 10
9.58801746335118
 20
-7.647928626435562
 30
0.0
 10
9.588284616998684
 20
-7.646836903102969
 30
0.0
 10
9.588811209773412
 20
-7.644684981823198
 30
0.0
 10
9.58910042334719
 20
-7.64246692723082
 30
0.0
 10
9.589129117247516
 20
-7.640255239363467
 30
0.0
  0
LINE
  5
11F
330
70
100
AcDbEntity
  8
Layer 1
 62
    18
420
        0
370
     5
100
AcDbLine
 10
8.516534735142334
 20
-6.922010847519408
 30
0.0
 11
8.514200144890537
 21
-6.858682741204802
 31
0.0
  0
LINE
  5
120
330
70
100
AcDbEntity
  8
Layer 1
 62
    18
420
        0
370
     5
100
AcDbLine
 10
8.516534735142334
 20
-7.639079088539548
 30
0.0
 11
8.514200144890537
 21
-7.702407194854155
 31
0.0
  0
LINE
  5
121
330
70
100
AcDbEntity
  8
Layer 1
 62
    18
420
        0
370
     5
100
AcDbLine
 10
9.009478930129311
 20
-6.817036718660396
 30
0.0
 11
9.54306302937986
 21
-6.817036718660396
 31
0.0
  0
LINE
  5
122
330
70
100
AcDbEntity
  8
Layer 1
 62
    18
420
        0
370
     5
100
AcDbLine
 10
2.017759673807694
 20
-4.102262872040833
 30
0.0
 11
2.017759673807694
 21
-4.635846971391452
 31
0.0
  0
LINE
  5
123
330
70
100
AcDbEntity
  8
Layer 1
 62
    18
420
        0
370
     5
100
AcDbLine
 10
2.152558279181271
 20
-3.624759554816187
 30
0.0
 11
2.152558279181271
 21
-4.000814275391045
 31
0.0
  0
LINE
  5
124
330
70
100
AcDbEntity
  8
Layer 1
 62
    18
420
        0
370
     5
100
AcDbLine
 10
2.186079658401518
 20
-4.719068413451041
 30
0.0
 11
2.186079658401518
 21
-4.752537142091871
 31
0.0
  0
LINE
  5
125
330
70
100
AcDbEntity
  8
Layer 1
 62
    18
420
        0
370
     5
100
AcDbLine
 10
2.776456187951996
 20
-4.719068413451041
 30
0.0
 11
2.776456187951996
 21
-4.752537142091871
 31
0.0
  0
LINE
  5
126
330
70
100
AcDbEntity
  8
Layer 1
 62
    18
420
        0
370
     5
100
AcDbLine
 10
2.809977567172242
 20
-3.624759554816187
 30
0.0
 11
2.809977567172242
 21
-4.000814275391045
 31
0.0
  0
LINE
  5
127
330
70
100
AcDbEntity
  8
Layer 1
 62
    18
420
        0
370
     5
100
AcDbLine
 10
2.944776172545819
 20
-4.102262872040833
 30
0.0
 11
2.944776172545819
 21
-4.635846971391452
 31
0.0
  0
SPLINE
  5
128
330
70
100
AcDbEntity
  8
Layer 1
 62
    18
420
        0
370
     5
100
AcDbSpline
210
0.0
220
0.0
230
1.0
 70
     8
 71
     3
 72
     8
 73
     4
 74
     0
 42
0.0000000001
 43
0.0000000001
 40
0.0
 40
0.0
 40
0.0
 40
0.0
 40
1.0
 40
1.0
 40
1.0
 40
1.0
 10
2.208907143645534
 20
-4.788679502095823
 30
0.0
 10
2.381224055390121
 20
-4.870675075018071
 30
0.0
 10
2.581311790963404
 20
-4.870675075018071
 30
0.0
 10
2.753628702707992
 20
-4.788679502095823
 30
0.0
  0
LINE
  5
129
330
70
100
AcDbEntity
  8
Layer 1
 62
    18
420
        0
370
     5
100
AcDbLine
 10
8.969484762302675
 20
-6.85547814077899
 30
0.0
 11
8.968029718906992
 21
-6.893958084866122
 31
0.0
  0
LINE
  5
12A
330
70
100
AcDbEntity
  8
Layer 1
 62
    18
420
        0
370
     5
100
AcDbLine
 10
8.961069951215701
 20
-9.832172305387404
 30
0.0
 11
8.961069951215701
 21
-7.66929290316572
 31
0.0
  0
LINE
  5
12B
330
70
100
AcDbEntity
  8
Layer 1
 62
    18
420
        0
370
     5
100
AcDbLine
 10
9.583057197106452
 20
-6.85547814077899
 30
0.0
 11
9.586278299556825
 21
-6.946575785712688
 31
0.0
  0
LINE
  5
12C
330
70
100
AcDbEntity
  8
Layer 1
 62
    18
420
        0
370
     5
100
AcDbLine
 10
9.591472008193376
 20
-9.832172305687612
 30
0.0
 11
9.591472008193376
 21
-7.615758760231882
 31
0.0
  0
ENDSEC
  0
SECTION
  2
OBJECTS
  0
DICTIONARY
  5
C
330
0
100
AcDbDictionary
281
     1
  3
ACAD_COLOR
350
63
  3
ACAD_DETAILVIEWSTYLE
350
6A
  3
ACAD_GROUP
350
D
  3
ACAD_LAYOUT
350
62
  3
ACAD_MATERIAL
350
10
  3
ACAD_MLEADERSTYLE
350
66
  3
ACAD_MLINESTYLE
350
5F
  3
ACAD_PLOTSETTINGS
350
61
  3
ACAD_PLOTSTYLENAME
350
E
  3
ACAD_SCALELIST
350
42
  3
ACAD_SECTIONVIEWSTYLE
350
68
  3
ACAD_TABLESTYLE
350
64
  3
ACAD_VISUALSTYLE
350
29
  3
ACDB_RECOMPOSE_DATA
350
135
  3
AcDbVariableDictionary
350
12D
  0
DICTIONARY
  5
63
102
{ACAD_REACTORS
330
C
102
}
330
C
100
AcDbDictionary
281
     1
  0
DICTIONARY
  5
6A
102
{ACAD_REACTORS
330
C
102
}
330
C
100
AcDbDictionary
281
     1
  3
Imperial24
350
6B
  0
DICTIONARY
  5
D
102
{ACAD_REACTORS
330
C
102
}
330
C
100
AcDbDictionary
281
     1
  0
DICTIONARY
  5
62
102
{ACAD_REACTORS
330
C
102
}
330
C
100
AcDbDictionary
281
     1
  3
Layout1
350
6F
  3
Layout2
350
77
  3
Model
350
73
  0
DICTIONARY
  5
10
102
{ACAD_REACTORS
330
C
102
}
330
C
100
AcDbDictionary
281
     1
  3
ByBlock
350
19
  3
ByLayer
350
11
  3
Global
350
21
  0
DICTIONARY
  5
66
102
{ACAD_REACTORS
330
C
102
}
330
C
100
AcDbDictionary
281
     1
  3
Standard
350
67
  0
DICTIONARY
  5
5F
102
{ACAD_REACTORS
330
C
102
}
330
C
100
AcDbDictionary
281
     1
  3
Standard
350
60
  0
DICTIONARY
  5
61
102
{ACAD_REACTORS
330
C
102
}
330
C
100
AcDbDictionary
281
     1
  0
ACDBDICTIONARYWDFLT
  5
E
102
{ACAD_REACTORS
330
C
102
}
330
C
100
AcDbDictionary
281
     1
  3
Normal
350
F
100
AcDbDictionaryWithDefault
340
F
  0
DICTIONARY
  5
42
102
{ACAD_REACTORS
330
C
102
}
330
C
100
AcDbDictionary
281
     1
  3
A0
350
43
  3
A1
350
44
  3
A2
350
45
  3
A3
350
46
  3
A4
350
47
  3
A5
350
48
  3
A6
350
49
  3
A7
350
4A
  3
A8
350
4B
  3
A9
350
4C
  3
B0
350
4D
  3
B1
350
4E
  3
B2
350
4F
  3
B3
350
50
  3
B4
350
51
  3
B5
350
52
  3
B6
350
53
  0
DICTIONARY
  5
68
102
{ACAD_REACTORS
330
C
102
}
330
C
100
AcDbDictionary
281
     1
  3
Imperial24
350
69
  0
DICTIONARY
  5
64
102
{ACAD_REACTORS
330
C
102
}
330
C
100
AcDbDictionary
281
     1
  3
Standard
350
65
  0
DICTIONARY
  5
29
102
{ACAD_REACTORS
330
C
102
}
330
C
100
AcDbDictionary
281
     1
  3
2dWireframe
350
2F
  3
Basic
350
2E
  3
Brighten
350
35
  3
ColorChange
350
39
  3
Conceptual
350
32
  3
Dim
350
34
  3
EdgeColorOff
350
41
  3
Facepattern
350
38
  3
Flat
350
2A
  3
FlatWithEdges
350
2B
  3
Gouraud
350
2C
  3
GouraudWithEdges
350
2D
  3
Hidden
350
31
  3
JitterOff
350
3F
  3
Linepattern
350
37
  3
OverhangOff
350
40
  3
Realistic
350
33
  3
Shaded
350
3E
  3
Shaded with edges
350
3D
  3
Shades of Gray
350
3A
  3
Sketchy
350
3B
  3
Thicken
350
36
  3
Wireframe
350
30
  3
X-Ray
350
3C
  0
XRECORD
  5
135
102
{ACAD_REACTORS
330
C
102
}
330
C
100
AcDbXrecord
280
     1
 90
        1
330
65
  0
DICTIONARY
  5
12D
102
{ACAD_REACTORS
330
C
102
}
330
C
100
AcDbDictionary
281
     1
  3
CANNOSCALE
350
132
  3
CMLEADERSTYLE
350
12F
  3
CTABLESTYLE
350
12E
  3
CVIEWDETAILSTYLE
350
130
  3
CVIEWSECTIONSTYLE
350
131
  0
ACDBDETAILVIEWSTYLE
  5
6B
102
{ACAD_REACTORS
330
6A
102
}
330
6A
100
AcDbModelDocViewStyle
 70
     0
  3
Imperial24
290
     1
300
Imperial24
 90
        0
100
AcDbDetailViewStyle
 70
     0
 71
     0
 90
        3
 71
     1
340
55
 62
   256
 40
0.24
340
0
 62
   256
 40
0.24
300

 40
0.36
280
     3
 71
     2
340
5D
 90
       25
 62
   256
 71
     3
340
55
 62
   256
 40
0.24
 90
        1
 40
0.75
 90
        1
300
%<\AcVar ViewType \f "%tc1">% %<\AcVar ViewDetailId>%\PSCALE %<\AcVar ViewScale \f "%sn">%
 71
     4
340
5D
 90
       25
 62
   256
340
5D
 90
       25
 62
   256
280
     0
  0
LAYOUT
  5
6F
102
{ACAD_REACTORS
330
62
102
}
330
62
100
AcDbPlotSettings
  1

  2

  4

  6

 40
0.0
 41
0.0
 42
0.0
 43
0.0
 44
0.0
 45
0.0
 46
0.0
 47
0.0
 48
0.0
 49
0.0
140
0.0
141
0.0
142
1.0
143
1.0
 70
   688
 72
     0
 73
     0
 74
     5
  7

 75
    16
147
1.0
 76
     0
 77
     2
 78
   300
148
0.0
149
0.0
100
AcDbLayout
  1
Layout1
 70
     1
 71
     1
 10
0.0
 20
0.0
 11
12.0
 21
9.0
 12
0.0
 22
0.0
 32
0.0
 14
0.0
 24
0.0
 34
0.0
 15
0.0
 25
0.0
 35
0.0
146
0.0
 13
0.0
 23
0.0
 33
0.0
 16
1.0
 26
0.0
 36
0.0
 17
0.0
 27
1.0
 37
0.0
 76
     0
330
6C
  0
LAYOUT
  5
77
102
{ACAD_REACTORS
330
62
102
}
330
62
100
AcDbPlotSettings
  1

  2

  4

  6

 40
0.0
 41
0.0
 42
0.0
 43
0.0
 44
0.0
 45
0.0
 46
0.0
 47
0.0
 48
0.0
 49
0.0
140
0.0
141
0.0
142
1.0
143
1.0
 70
   688
 72
     0
 73
     0
 74
     5
  7

 75
    16
147
1.0
 76
     0
 77
     2
 78
   300
148
0.0
149
0.0
100
AcDbLayout
  1
Layout2
 70
     1
 71
     2
 10
0.0
 20
0.0
 11
12.0
 21
9.0
 12
0.0
 22
0.0
 32
0.0
 14
0.0
 24
0.0
 34
0.0
 15
0.0
 25
0.0
 35
0.0
146
0.0
 13
0.0
 23
0.0
 33
0.0
 16
1.0
 26
0.0
 36
0.0
 17
0.0
 27
1.0
 37
0.0
 76
     0
330
74
  0
LAYOUT
  5
73
102
{ACAD_REACTORS
330
62
102
}
330
62
100
AcDbPlotSettings
  1

  2

  4

  6

 40
0.0
 41
0.0
 42
0.0
 43
0.0
 44
0.0
 45
0.0
 46
0.0
 47
0.0
 48
0.0
 49
0.0
140
0.0
141
0.0
142
1.0
143
1.0
 70
  1712
 72
     0
 73
     0
 74
     0
  7

 75
     0
147
1.0
 76
     0
 77
     2
 78
   300
148
0.0
149
0.0
100
AcDbLayout
  1
Model
 70
     1
 71
     0
 10
0.0
 20
0.0
 11
12.0
 21
9.0
 12
0.0
 22
0.0
 32
0.0
 14
0.0
 24
0.0
 34
0.0
 15
0.0
 25
0.0
 35
0.0
146
0.0
 13
0.0
 23
0.0
 33
0.0
 16
1.0
 26
0.0
 36
0.0
 17
0.0
 27
1.0
 37
0.0
 76
     0
330
70
  0
MATERIAL
  5
19
102
{ACAD_XDICTIONARY
360
1A
102
}
102
{ACAD_REACTORS
330
10
102
}
330
10
100
AcDbMaterial
  1
ByBlock
 72
     0
 43
0.0208333333333333
 43
0.0
 43
0.0
 43
0.0
 43
0.0
 43
0.0208333333333333
 43
0.0
 43
0.0
 43
0.0
 43
0.0
 43
1.0
 43
0.0
 43
0.0
 43
0.0
 43
0.0
 43
1.0
 77
     0
 47
0.0208333333333333
 47
0.0
 47
0.0
 47
0.0
 47
0.0
 47
0.0208333333333333
 47
0.0
 47
0.0
 47
0.0
 47
0.0
 47
1.0
 47
0.0
 47
0.0
 47
0.0
 47
0.0
 47
1.0
171
     0
 49
0.0208333333333333
 49
0.0
 49
0.0
 49
0.0
 49
0.0
 49
0.0208333333333333
 49
0.0
 49
0.0
 49
0.0
 49
0.0
 49
1.0
 49
0.0
 49
0.0
 49
0.0
 49
0.0
 49
1.0
175
     0
142
0.0208333333333333
142
0.0
142
0.0
142
0.0
142
0.0
142
0.0208333333333333
142
0.0
142
0.0
142
0.0
142
0.0
142
1.0
142
0.0
142
0.0
142
0.0
142
0.0
142
1.0
179
     0
144
0.0208333333333333
144
0.0
144
0.0
144
0.0
144
0.0
144
0.0208333333333333
144
0.0
144
0.0
144
0.0
144
0.0
144
1.0
144
0.0
144
0.0
144
0.0
144
0.0
144
1.0
147
0.0208333333333333
147
0.0
147
0.0
147
0.0
147
0.0
147
0.0208333333333333
147
0.0
147
0.0
147
0.0
147
0.0
147
1.0
147
0.0
147
0.0
147
0.0
147
0.0
147
1.0
  0
MATERIAL
  5
11
102
{ACAD_XDICTIONARY
360
12
102
}
102
{ACAD_REACTORS
330
10
102
}
330
10
100
AcDbMaterial
  1
ByLayer
 72
     0
 43
0.0208333333333333
 43
0.0
 43
0.0
 43
0.0
 43
0.0
 43
0.0208333333333333
 43
0.0
 43
0.0
 43
0.0
 43
0.0
 43
1.0
 43
0.0
 43
0.0
 43
0.0
 43
0.0
 43
1.0
 77
     0
 47
0.0208333333333333
 47
0.0
 47
0.0
 47
0.0
 47
0.0
 47
0.0208333333333333
 47
0.0
 47
0.0
 47
0.0
 47
0.0
 47
1.0
 47
0.0
 47
0.0
 47
0.0
 47
0.0
 47
1.0
171
     0
 49
0.0208333333333333
 49
0.0
 49
0.0
 49
0.0
 49
0.0
 49
0.0208333333333333
 49
0.0
 49
0.0
 49
0.0
 49
0.0
 49
1.0
 49
0.0
 49
0.0
 49
0.0
 49
0.0
 49
1.0
175
     0
142
0.0208333333333333
142
0.0
142
0.0
142
0.0
142
0.0
142
0.0208333333333333
142
0.0
142
0.0
142
0.0
142
0.0
142
1.0
142
0.0
142
0.0
142
0.0
142
0.0
142
1.0
179
     0
144
0.0208333333333333
144
0.0
144
0.0
144
0.0
144
0.0
144
0.0208333333333333
144
0.0
144
0.0
144
0.0
144
0.0
144
1.0
144
0.0
144
0.0
144
0.0
144
0.0
144
1.0
147
0.0208333333333333
147
0.0
147
0.0
147
0.0
147
0.0
147
0.0208333333333333
147
0.0
147
0.0
147
0.0
147
0.0
147
1.0
147
0.0
147
0.0
147
0.0
147
0.0
147
1.0
  0
MATERIAL
  5
21
102
{ACAD_XDICTIONARY
360
22
102
}
102
{ACAD_REACTORS
330
10
102
}
330
10
100
AcDbMaterial
  1
Global
 72
     0
 43
0.0208333333333333
 43
0.0
 43
0.0
 43
0.0
 43
0.0
 43
0.0208333333333333
 43
0.0
 43
0.0
 43
0.0
 43
0.0
 43
1.0
 43
0.0
 43
0.0
 43
0.0
 43
0.0
 43
1.0
 77
     0
 47
0.0208333333333333
 47
0.0
 47
0.0
 47
0.0
 47
0.0
 47
0.0208333333333333
 47
0.0
 47
0.0
 47
0.0
 47
0.0
 47
1.0
 47
0.0
 47
0.0
 47
0.0
 47
0.0
 47
1.0
171
     0
 49
0.0208333333333333
 49
0.0
 49
0.0
 49
0.0
 49
0.0
 49
0.0208333333333333
 49
0.0
 49
0.0
 49
0.0
 49
0.0
 49
1.0
 49
0.0
 49
0.0
 49
0.0
 49
0.0
 49
1.0
175
     0
142
0.0208333333333333
142
0.0
142
0.0
142
0.0
142
0.0
142
0.0208333333333333
142
0.0
142
0.0
142
0.0
142
0.0
142
1.0
142
0.0
142
0.0
142
0.0
142
0.0
142
1.0
179
     0
144
0.0208333333333333
144
0.0
144
0.0
144
0.0
144
0.0
144
0.0208333333333333
144
0.0
144
0.0
144
0.0
144
0.0
144
1.0
144
0.0
144
0.0
144
0.0
144
0.0
144
1.0
147
0.0208333333333333
147
0.0
147
0.0
147
0.0
147
0.0
147
0.0208333333333333
147
0.0
147
0.0
147
0.0
147
0.0
147
1.0
147
0.0
147
0.0
147
0.0
147
0.0
147
1.0
  0
MLEADERSTYLE
  5
67
102
{ACAD_REACTORS
330
66
102
}
330
66
100
AcDbMLeaderStyle
179
     2
170
     2
171
     1
172
     0
 90
        2
 40
0.0
 41
0.0
173
     1
 91
-1056964608
340
5B
 92
       -2
290
     1
 42
0.09
291
     1
 43
0.36
  3
Standard
 44
0.18
300

342
55
174
     1
178
     6
175
     1
176
     0
 93
-1056964608
 45
0.18
292
     0
297
     0
 46
0.18
 94
-1056964608
 47
1.0
 49
1.0
140
1.0
293
     1
141
0.0
294
     1
177
     0
142
1.0
295
     1
296
     0
143
0.125
271
     0
272
     9
273
     9
298
     1
  0
MLINESTYLE
  5
60
102
{ACAD_REACTORS
330
5F
102
}
330
5F
100
AcDbMlineStyle
  2
STANDARD
 70
     0
  3

 62
   256
 51
90.0
 52
90.0
 71
     2
 49
0.5
 62
   256
  6
BYLAYER
 49
-0.5
 62
   256
  6
BYLAYER
  0
ACDBPLACEHOLDER
  5
F
102
{ACAD_REACTORS
330
E
102
}
330
E
  0
SCALE
  5
43
102
{ACAD_REACTORS
330
42
102
}
330
42
100
AcDbScale
 70
     0
300
1:1
140
1.0
141
1.0
290
     1
  0
SCALE
  5
44
102
{ACAD_REACTORS
330
42
102
}
330
42
100
AcDbScale
 70
     0
300
1/128" = 1'-0"
140
0.0078125
141
12.0
290
     0
  0
SCALE
  5
45
102
{ACAD_REACTORS
330
42
102
}
330
42
100
AcDbScale
 70
     0
300
1/64" = 1'-0"
140
0.015625
141
12.0
290
     0
  0
SCALE
  5
46
102
{ACAD_REACTORS
330
42
102
}
330
42
100
AcDbScale
 70
     0
300
1/32" = 1'-0"
140
0.03125
141
12.0
290
     0
  0
SCALE
  5
47
102
{ACAD_REACTORS
330
42
102
}
330
42
100
AcDbScale
 70
     0
300
1/16" = 1'-0"
140
0.0625
141
12.0
290
     0
  0
SCALE
  5
48
102
{ACAD_REACTORS
330
42
102
}
330
42
100
AcDbScale
 70
     0
300
3/32" = 1'-0"
140
0.09375
141
12.0
290
     0
  0
SCALE
  5
49
102
{ACAD_REACTORS
330
42
102
}
330
42
100
AcDbScale
 70
     0
300
1/8" = 1'-0"
140
0.125
141
12.0
290
     0
  0
SCALE
  5
4A
102
{ACAD_REACTORS
330
42
102
}
330
42
100
AcDbScale
 70
     0
300
3/16" = 1'-0"
140
0.1875
141
12.0
290
     0
  0
SCALE
  5
4B
102
{ACAD_REACTORS
330
42
102
}
330
42
100
AcDbScale
 70
     0
300
1/4" = 1'-0"
140
0.25
141
12.0
290
     0
  0
SCALE
  5
4C
102
{ACAD_REACTORS
330
42
102
}
330
42
100
AcDbScale
 70
     0
300
3/8" = 1'-0"
140
0.375
141
12.0
290
     0
  0
SCALE
  5
4D
102
{ACAD_REACTORS
330
42
102
}
330
42
100
AcDbScale
 70
     0
300
1/2" = 1'-0"
140
0.5
141
12.0
290
     0
  0
SCALE
  5
4E
102
{ACAD_REACTORS
330
42
102
}
330
42
100
AcDbScale
 70
     0
300
3/4" = 1'-0"
140
0.75
141
12.0
290
     0
  0
SCALE
  5
4F
102
{ACAD_REACTORS
330
42
102
}
330
42
100
AcDbScale
 70
     0
300
1" = 1'-0"
140
1.0
141
12.0
290
     0
  0
SCALE
  5
50
102
{ACAD_REACTORS
330
42
102
}
330
42
100
AcDbScale
 70
     0
300
1-1/2" = 1'-0"
140
1.5
141
12.0
290
     0
  0
SCALE
  5
51
102
{ACAD_REACTORS
330
42
102
}
330
42
100
AcDbScale
 70
     0
300
3" = 1'-0"
140
3.0
141
12.0
290
     0
  0
SCALE
  5
52
102
{ACAD_REACTORS
330
42
102
}
330
42
100
AcDbScale
 70
     0
300
6" = 1'-0"
140
6.0
141
12.0
290
     0
  0
SCALE
  5
53
102
{ACAD_REACTORS
330
42
102
}
330
42
100
AcDbScale
 70
     0
300
1'-0" = 1'-0"
140
12.0
141
12.0
290
     0
  0
ACDBSECTIONVIEWSTYLE
  5
69
102
{ACAD_REACTORS
330
68
102
}
330
68
100
AcDbModelDocViewStyle
 70
     0
  3
Imperial24
290
     1
300
Imperial24
 90
        0
100
AcDbSectionViewStyle
 70
     0
 71
     0
 90
       78
 71
     1
340
55
 62
   256
 40
0.24
340
0
340
0
 62
   256
 40
0.24
300
I, O, Q, S, X, Z
 40
0.48
 90
        3
 40
0.18
 90
        1
 71
     2
340
5D
 90
       25
 62
   256
340
5D
 90
       50
 62
   256
 40
0.24
 40
0.0
 40
0.24
 71
     3
340
55
 62
   256
 40
0.24
 90
        1
 40
0.75
 90
        1
300
%<\AcVar ViewType \f "%tc1">% %<\AcVar ViewSectionStartId>%-%<\AcVar ViewSectionEndId>%\PSCALE %<\AcVar ViewScale \f "%sn">%
 71
     4
 62
   256
 62
   257
300
ANSI31
 40
1.0
 90
        0
290
     0
290
     0
 90
        6
 40
0.0
 40
1.570796326794896
 40
0.2617993877991494
 40
1.308996938995747
 40
-0.2617993877991494
 40
1.832595714594046
  0
TABLESTYLE
  5
65
102
{ACAD_XDICTIONARY
360
133
102
}
102
{ACAD_REACTORS
330
64
102
}
330
64
100
AcDbTableStyle
280
     0
  3
Standard
 70
     0
 71
     0
 40
0.06
 41
0.06
280
     0
281
     0
  7
Standard
140
0.18
170
     2
 62
     0
 63
     7
283
     0
 90
      512
 91
        0
  1

274
    -2
284
     1
 64
     0
275
    -2
285
     1
 65
     0
276
    -2
286
     1
 66
     0
277
    -2
287
     1
 67
     0
278
    -2
288
     1
 68
     0
279
    -2
289
     1
 69
     0
  7
Standard
140
0.25
170
     5
 62
     0
 63
     7
283
     0
 90
      512
 91
        0
  1

274
    -2
284
     1
 64
     0
275
    -2
285
     1
 65
     0
276
    -2
286
     1
 66
     0
277
    -2
287
     1
 67
     0
278
    -2
288
     1
 68
     0
279
    -2
289
     1
 69
     0
  7
Standard
140
0.18
170
     5
 62
     0
 63
     7
283
     0
 90
      512
 91
        0
  1

274
    -2
284
     1
 64
     0
275
    -2
285
     1
 65
     0
276
    -2
286
     1
 66
     0
277
    -2
287
     1
 67
     0
278
    -2
288
     1
 68
     0
279
    -2
289
     1
 69
     0
  0
VISUALSTYLE
  5
2F
102
{ACAD_REACTORS
330
29
102
}
330
29
100
AcDbVisualStyle
  2
2dWireframe
 70
     4
177
     3
291
     0
 70
    58
 90
        0
176
     1
 90
        2
176
     1
 90
        0
176
     1
 90
        0
176
     1
 40
0.6
176
     1
 40
30.0
176
     1
 62
     7
420
 16777215
176
     1
 90
        1
176
     1
 90
        4
176
     1
 62
     7
176
     1
 62
   257
176
     1
 90
        1
176
     1
 90
        1
176
     1
 40
1.0
176
     1
 90
        0
176
     1
 62
   257
176
     1
 40
1.0
176
     1
 90
        1
176
     1
 90
        6
176
     1
 90
        2
176
     1
 62
     7
176
     1
 90
        5
176
     1
 90
        0
176
     1
 90
        0
176
     1
290
     0
176
     1
 90
        1
176
     1
 40
0.0
176
     1
 90
        0
176
     1
290
     1
176
     1
290
     1
176
     1
290
     0
176
     1
290
     0
176
     1
290
     0
176
     1
290
     0
176
     1
290
     0
176
     1
290
     0
176
     1
290
     0
176
     1
 90
       50
176
     1
 40
0.0
176
     1
 40
1.0
176
     1
 90
        0
176
     1
 62
    18
420
        0
176
     1
 90
       50
176
     1
 90
        3
176
     1
 62
     5
420
      255
176
     1
290
     0
176
     1
 90
       50
176
     1
 90
       50
176
     1
 90
       50
176
     1
290
     0
176
     1
 90
       50
176
     1
 62
   256
176
     0
 40
1.0
176
     0
 90
        2
176
     1
  1
strokes_ogs.tif
176
     1
290
     0
176
     1
 40
1.0
176
     1
 40
1.0
176
     1
  0
VISUALSTYLE
  5
2E
102
{ACAD_REACTORS
330
29
102
}
330
29
100
AcDbVisualStyle
  2
Basic
 70
     7
177
     3
291
     1
 70
    58
 90
        1
176
     1
 90
        0
176
     1
 90
        1
176
     1
 90
        0
176
     1
 40
0.6
176
     1
 40
30.0
176
     1
 62
     7
420
 16777215
176
     1
 90
        0
176
     1
 90
        4
176
     1
 62
     7
176
     1
 62
   257
176
     1
 90
        1
176
     1
 90
        1
176
     1
 40
1.0
176
     1
 90
        8
176
     1
 62
     7
176
     1
 40
1.0
176
     1
 90
        1
176
     1
 90
        6
176
     1
 90
        2
176
     1
 62
     7
176
     1
 90
        5
176
     1
 90
        0
176
     1
 90
        0
176
     1
290
     0
176
     1
 90
        1
176
     1
 40
0.0
176
     1
 90
        0
176
     1
290
     0
176
     1
290
     1
176
     1
290
     1
176
     1
290
     0
176
     1
290
     0
176
     1
290
     0
176
     1
290
     0
176
     1
290
     0
176
     1
290
     0
176
     1
 90
       50
176
     1
 40
0.0
176
     1
 40
1.0
176
     1
 90
        0
176
     1
 62
    18
420
        0
176
     1
 90
       50
176
     1
 90
        3
176
     1
 62
     5
420
      255
176
     1
290
     0
176
     1
 90
       50
176
     1
 90
       50
176
     1
 90
       50
176
     1
290
     0
176
     1
 90
       50
176
     1
 62
   256
176
     0
 40
1.0
176
     0
 90
        2
176
     1
  1
strokes_ogs.tif
176
     1
290
     0
176
     1
 40
1.0
176
     1
 40
1.0
176
     1
  0
VISUALSTYLE
  5
35
102
{ACAD_REACTORS
330
29
102
}
330
29
100
AcDbVisualStyle
  2
Brighten
 70
    12
177
     3
291
     1
 70
    58
 90
        2
176
     1
 90
        2
176
     1
 90
        0
176
     1
 90
        0
176
     1
 40
0.6
176
     1
 40
30.0
176
     1
 62
     7
420
 16777215
176
     1
 90
        1
176
     1
 90
        4
176
     1
 62
     7
176
     1
 62
   257
176
     1
 90
        1
176
     1
 90
        1
176
     1
 40
1.0
176
     1
 90
        8
176
     1
 62
     7
176
     1
 40
1.0
176
     1
 90
        1
176
     1
 90
        6
176
     1
 90
        2
176
     1
 62
     7
176
     1
 90
        5
176
     1
 90
        0
176
     1
 90
        0
176
     1
290
     0
176
     1
 90
        1
176
     1
 40
50.0
176
     1
 90
        0
176
     1
290
     0
176
     1
290
     1
176
     1
290
     1
176
     1
290
     0
176
     1
290
     0
176
     1
290
     0
176
     1
290
     0
176
     1
290
     0
176
     1
290
     0
176
     1
 90
       50
176
     1
 40
0.0
176
     1
 40
1.0
176
     1
 90
        0
176
     1
 62
    18
420
        0
176
     1
 90
       50
176
     1
 90
        3
176
     1
 62
     5
420
      255
176
     1
290
     0
176
     1
 90
       50
176
     1
 90
       50
176
     1
 90
       50
176
     1
290
     0
176
     1
 90
       50
176
     1
 62
   256
176
     0
 40
1.0
176
     0
 90
        2
176
     1
  1
strokes_ogs.tif
176
     1
290
     0
176
     1
 40
1.0
176
     1
 40
1.0
176
     1
  0
VISUALSTYLE
  5
39
102
{ACAD_REACTORS
330
29
102
}
330
29
100
AcDbVisualStyle
  2
ColorChange
 70
    16
177
     3
291
     1
 70
    58
 90
        2
176
     1
 90
        2
176
     1
 90
        3
176
     1
 90
        0
176
     1
 40
0.6
176
     1
 40
30.0
176
     1
 62
     8
420
  8421504
176
     1
 90
        1
176
     1
 90
        4
176
     1
 62
     7
176
     1
 62
   257
176
     1
 90
        1
176
     1
 90
        1
176
     1
 40
1.0
176
     1
 90
        8
176
     1
 62
     8
420
  8421504
176
     1
 40
1.0
176
     1
 90
        1
176
     1
 90
        6
176
     1
 90
        2
176
     1
 62
     7
176
     1
 90
        5
176
     1
 90
        0
176
     1
 90
        0
176
     1
290
     0
176
     1
 90
        1
176
     1
 40
0.0
176
     1
 90
        0
176
     1
290
     0
176
     1
290
     1
176
     1
290
     1
176
     1
290
     0
176
     1
290
     0
176
     1
290
     0
176
     1
290
     0
176
     1
290
     0
176
     1
290
     0
176
     1
 90
       50
176
     1
 40
0.0
176
     1
 40
1.0
176
     1
 90
        0
176
     1
 62
    18
420
        0
176
     1
 90
       50
176
     1
 90
        3
176
     1
 62
     5
420
      255
176
     1
290
     0
176
     1
 90
       50
176
     1
 90
       50
176
     1
 90
       50
176
     1
290
     0
176
     1
 90
       50
176
     1
 62
   256
176
     0
 40
1.0
176
     0
 90
        2
176
     1
  1
strokes_ogs.tif
176
     1
290
     0
176
     1
 40
1.0
176
     1
 40
1.0
176
     1
  0
VISUALSTYLE
  5
32
102
{ACAD_REACTORS
330
29
102
}
330
29
100
AcDbVisualStyle
  2
Conceptual
 70
     9
177
     3
291
     0
 70
    58
 90
        3
176
     1
 90
        2
176
     1
 90
        0
176
     1
 90
        0
176
     1
 40
0.6
176
     1
 40
30.0
176
     1
 62
     7
420
 16777215
176
     1
 90
        2
176
     1
 90
        2
176
     1
 62
     7
176
     1
 62
   257
176
     1
 90
        1
176
     1
 90
        1
176
     1
 40
179.0
176
     1
 90
        8
176
     1
 62
     7
176
     1
 40
1.0
176
     1
 90
        1
176
     1
 90
        6
176
     1
 90
        2
176
     1
 62
     7
176
     1
 90
        3
176
     1
 90
        0
176
     1
 90
        0
176
     1
290
     0
176
     1
 90
        1
176
     1
 40
0.0
176
     1
 90
        0
176
     1
290
     0
176
     1
290
     1
176
     1
290
     1
176
     1
290
     0
176
     1
290
     0
176
     1
290
     0
176
     1
290
     0
176
     1
290
     0
176
     1
290
     0
176
     1
 90
       50
176
     1
 40
0.0
176
     1
 40
1.0
176
     1
 90
        0
176
     1
 62
    18
420
        0
176
     1
 90
       50
176
     1
 90
        3
176
     1
 62
     5
420
      255
176
     1
290
     0
176
     1
 90
       50
176
     1
 90
       50
176
     1
 90
       50
176
     1
290
     0
176
     1
 90
       50
176
     1
 62
   256
176
     0
 40
1.0
176
     0
 90
        2
176
     1
  1
strokes_ogs.tif
176
     1
290
     0
176
     1
 40
1.0
176
     1
 40
1.0
176
     1
  0
VISUALSTYLE
  5
34
102
{ACAD_REACTORS
330
29
102
}
330
29
100
AcDbVisualStyle
  2
Dim
 70
    11
177
     3
291
     1
 70
    58
 90
        2
176
     1
 90
        2
176
     1
 90
        0
176
     1
 90
        0
176
     1
 40
0.6
176
     1
 40
30.0
176
     1
 62
     7
420
 16777215
176
     1
 90
        1
176
     1
 90
        4
176
     1
 62
     7
176
     1
 62
   257
176
     1
 90
        1
176
     1
 90
        1
176
     1
 40
1.0
176
     1
 90
        8
176
     1
 62
     7
176
     1
 40
1.0
176
     1
 90
        1
176
     1
 90
        6
176
     1
 90
        2
176
     1
 62
     7
176
     1
 90
        5
176
     1
 90
        0
176
     1
 90
        0
176
     1
290
     0
176
     1
 90
        1
176
     1
 40
-50.0
176
     1
 90
        0
176
     1
290
     0
176
     1
290
     1
176
     1
290
     1
176
     1
290
     0
176
     1
290
     0
176
     1
290
     0
176
     1
290
     0
176
     1
290
     0
176
     1
290
     0
176
     1
 90
       50
176
     1
 40
0.0
176
     1
 40
1.0
176
     1
 90
        0
176
     1
 62
    18
420
        0
176
     1
 90
       50
176
     1
 90
        3
176
     1
 62
     5
420
      255
176
     1
290
     0
176
     1
 90
       50
176
     1
 90
       50
176
     1
 90
       50
176
     1
290
     0
176
     1
 90
       50
176
     1
 62
   256
176
     0
 40
1.0
176
     0
 90
        2
176
     1
  1
strokes_ogs.tif
176
     1
290
     0
176
     1
 40
1.0
176
     1
 40
1.0
176
     1
  0
VISUALSTYLE
  5
41
102
{ACAD_REACTORS
330
29
102
}
330
29
100
AcDbVisualStyle
  2
EdgeColorOff
 70
    22
177
     3
291
     1
 70
    58
 90
        2
176
     0
 90
        2
176
     0
 90
        0
176
     0
 90
        0
176
     0
 40
0.6
176
     0
 40
30.0
176
     0
 62
     7
420
 16777215
176
     0
 90
        1
176
     0
 90
        4
176
     0
 62
     7
176
     0
 62
   257
176
     0
 90
        1
176
     0
 90
        1
176
     0
 40
1.0
176
     0
 90
        8
176
     2
 62
     7
176
     0
 40
1.0
176
     0
 90
        1
176
     0
 90
        6
176
     0
 90
        2
176
     0
 62
     7
176
     0
 90
        5
176
     0
 90
        0
176
     0
 90
        0
176
     0
290
     0
176
     0
 90
        1
176
     0
 40
0.0
176
     0
 90
        0
176
     0
290
     0
176
     0
290
     1
176
     0
290
     1
176
     0
290
     0
176
     0
290
     0
176
     0
290
     0
176
     0
290
     0
176
     0
290
     0
176
     0
290
     0
176
     0
 90
       50
176
     0
 40
0.0
176
     0
 40
1.0
176
     0
 90
        0
176
     0
 62
    18
420
        0
176
     0
 90
       50
176
     0
 90
        3
176
     0
 62
     5
420
      255
176
     0
290
     0
176
     0
 90
       50
176
     0
 90
       50
176
     0
 90
       50
176
     0
290
     0
176
     0
 90
       50
176
     0
 62
   256
176
     0
 40
1.0
176
     0
 90
        2
176
     0
  1
strokes_ogs.tif
176
     0
290
     0
176
     0
 40
1.0
176
     0
 40
1.0
176
     0
  0
VISUALSTYLE
  5
38
102
{ACAD_REACTORS
330
29
102
}
330
29
100
AcDbVisualStyle
  2
Facepattern
 70
    15
177
     3
291
     1
 70
    58
 90
        2
176
     1
 90
        2
176
     1
 90
        0
176
     1
 90
        0
176
     1
 40
0.6
176
     1
 40
30.0
176
     1
 62
     7
420
 16777215
176
     1
 90
        1
176
     1
 90
        4
176
     1
 62
     7
176
     1
 62
   257
176
     1
 90
        1
176
     1
 90
        1
176
     1
 40
1.0
176
     1
 90
        8
176
     1
 62
     7
176
     1
 40
1.0
176
     1
 90
        1
176
     1
 90
        6
176
     1
 90
        2
176
     1
 62
     7
176
     1
 90
        5
176
     1
 90
        0
176
     1
 90
        0
176
     1
290
     0
176
     1
 90
        1
176
     1
 40
0.0
176
     1
 90
        0
176
     1
290
     0
176
     1
290
     1
176
     1
290
     1
176
     1
290
     0
176
     1
290
     0
176
     1
290
     0
176
     1
290
     0
176
     1
290
     0
176
     1
290
     0
176
     1
 90
       50
176
     1
 40
0.0
176
     1
 40
1.0
176
     1
 90
        0
176
     1
 62
    18
420
        0
176
     1
 90
       50
176
     1
 90
        3
176
     1
 62
     5
420
      255
176
     1
290
     0
176
     1
 90
       50
176
     1
 90
       50
176
     1
 90
       50
176
     1
290
     0
176
     1
 90
       50
176
     1
 62
   256
176
     0
 40
1.0
176
     0
 90
        2
176
     1
  1
strokes_ogs.tif
176
     1
290
     0
176
     1
 40
1.0
176
     1
 40
1.0
176
     1
  0
VISUALSTYLE
  5
2A
102
{ACAD_REACTORS
330
29
102
}
330
29
100
AcDbVisualStyle
  2
Flat
 70
     0
177
     3
291
     1
 70
    58
 90
        2
176
     1
 90
        1
176
     1
 90
        1
176
     1
 90
        2
176
     1
 40
0.6
176
     1
 40
30.0
176
     1
 62
     7
420
 16777215
176
     1
 90
        0
176
     1
 90
        0
176
     1
 62
     7
176
     1
 62
   257
176
     1
 90
        1
176
     1
 90
        1
176
     1
 40
1.0
176
     1
 90
        8
176
     1
 62
     7
176
     1
 40
1.0
176
     1
 90
        1
176
     1
 90
        6
176
     1
 90
        2
176
     1
 62
     7
176
     1
 90
        5
176
     1
 90
        0
176
     1
 90
        0
176
     1
290
     0
176
     1
 90
       13
176
     1
 40
0.0
176
     1
 90
        0
176
     1
290
     0
176
     1
290
     1
176
     1
290
     1
176
     1
290
     0
176
     1
290
     0
176
     1
290
     0
176
     1
290
     0
176
     1
290
     0
176
     1
290
     0
176
     1
 90
       50
176
     1
 40
0.0
176
     1
 40
1.0
176
     1
 90
        0
176
     1
 62
    18
420
        0
176
     1
 90
       50
176
     1
 90
        3
176
     1
 62
     5
420
      255
176
     1
290
     0
176
     1
 90
       50
176
     1
 90
       50
176
     1
 90
       50
176
     1
290
     0
176
     1
 90
       50
176
     1
 62
   256
176
     0
 40
1.0
176
     0
 90
        2
176
     1
  1
strokes_ogs.tif
176
     1
290
     0
176
     1
 40
1.0
176
     1
 40
1.0
176
     1
  0
VISUALSTYLE
  5
2B
102
{ACAD_REACTORS
330
29
102
}
330
29
100
AcDbVisualStyle
  2
FlatWithEdges
 70
     1
177
     3
291
     1
 70
    58
 90
        2
176
     1
 90
        1
176
     1
 90
        1
176
     1
 90
        2
176
     1
 40
0.6
176
     1
 40
30.0
176
     1
 62
     7
420
 16777215
176
     1
 90
        1
176
     1
 90
        0
176
     1
 62
     7
176
     1
 62
   257
176
     1
 90
        1
176
     1
 90
        1
176
     1
 40
1.0
176
     1
 90
        0
176
     1
 62
   257
176
     1
 40
1.0
176
     1
 90
        1
176
     1
 90
        6
176
     1
 90
        2
176
     1
 62
     7
176
     1
 90
        5
176
     1
 90
        0
176
     1
 90
        0
176
     1
290
     0
176
     1
 90
       13
176
     1
 40
0.0
176
     1
 90
        0
176
     1
290
     0
176
     1
290
     1
176
     1
290
     1
176
     1
290
     0
176
     1
290
     0
176
     1
290
     0
176
     1
290
     0
176
     1
290
     0
176
     1
290
     0
176
     1
 90
       50
176
     1
 40
0.0
176
     1
 40
1.0
176
     1
 90
        0
176
     1
 62
    18
420
        0
176
     1
 90
       50
176
     1
 90
        3
176
     1
 62
     5
420
      255
176
     1
290
     0
176
     1
 90
       50
176
     1
 90
       50
176
     1
 90
       50
176
     1
290
     0
176
     1
 90
       50
176
     1
 62
   256
176
     0
 40
1.0
176
     0
 90
        2
176
     1
  1
strokes_ogs.tif
176
     1
290
     0
176
     1
 40
1.0
176
     1
 40
1.0
176
     1
  0
VISUALSTYLE
  5
2C
102
{ACAD_REACTORS
330
29
102
}
330
29
100
AcDbVisualStyle
  2
Gouraud
 70
     2
177
     3
291
     1
 70
    58
 90
        2
176
     1
 90
        2
176
     1
 90
        1
176
     1
 90
        2
176
     1
 40
0.6
176
     1
 40
30.0
176
     1
 62
     7
420
 16777215
176
     1
 90
        0
176
     1
 90
        0
176
     1
 62
     7
176
     1
 62
   257
176
     1
 90
        1
176
     1
 90
        1
176
     1
 40
1.0
176
     1
 90
        0
176
     1
 62
     7
176
     1
 40
1.0
176
     1
 90
        1
176
     1
 90
        6
176
     1
 90
        2
176
     1
 62
     7
176
     1
 90
        5
176
     1
 90
        0
176
     1
 90
        0
176
     1
290
     0
176
     1
 90
       13
176
     1
 40
0.0
176
     1
 90
        0
176
     1
290
     0
176
     1
290
     1
176
     1
290
     1
176
     1
290
     0
176
     1
290
     0
176
     1
290
     0
176
     1
290
     0
176
     1
290
     0
176
     1
290
     0
176
     1
 90
       50
176
     1
 40
0.0
176
     1
 40
1.0
176
     1
 90
        0
176
     1
 62
    18
420
        0
176
     1
 90
       50
176
     1
 90
        3
176
     1
 62
     5
420
      255
176
     1
290
     0
176
     1
 90
       50
176
     1
 90
       50
176
     1
 90
       50
176
     1
290
     0
176
     1
 90
       50
176
     1
 62
   256
176
     0
 40
1.0
176
     0
 90
        2
176
     1
  1
strokes_ogs.tif
176
     1
290
     0
176
     1
 40
1.0
176
     1
 40
1.0
176
     1
  0
VISUALSTYLE
  5
2D
102
{ACAD_REACTORS
330
29
102
}
330
29
100
AcDbVisualStyle
  2
GouraudWithEdges
 70
     3
177
     3
291
     1
 70
    58
 90
        2
176
     1
 90
        2
176
     1
 90
        1
176
     1
 90
        2
176
     1
 40
0.6
176
     1
 40
30.0
176
     1
 62
     7
420
 16777215
176
     1
 90
        1
176
     1
 90
        0
176
     1
 62
     7
176
     1
 62
   257
176
     1
 90
        1
176
     1
 90
        1
176
     1
 40
1.0
176
     1
 90
        0
176
     1
 62
   257
176
     1
 40
1.0
176
     1
 90
        1
176
     1
 90
        6
176
     1
 90
        2
176
     1
 62
     7
176
     1
 90
        5
176
     1
 90
        0
176
     1
 90
        0
176
     1
290
     0
176
     1
 90
       13
176
     1
 40
0.0
176
     1
 90
        0
176
     1
290
     0
176
     1
290
     1
176
     1
290
     1
176
     1
290
     0
176
     1
290
     0
176
     1
290
     0
176
     1
290
     0
176
     1
290
     0
176
     1
290
     0
176
     1
 90
       50
176
     1
 40
0.0
176
     1
 40
1.0
176
     1
 90
        0
176
     1
 62
    18
420
        0
176
     1
 90
       50
176
     1
 90
        3
176
     1
 62
     5
420
      255
176
     1
290
     0
176
     1
 90
       50
176
     1
 90
       50
176
     1
 90
       50
176
     1
290
     0
176
     1
 90
       50
176
     1
 62
   256
176
     0
 40
1.0
176
     0
 90
        2
176
     1
  1
strokes_ogs.tif
176
     1
290
     0
176
     1
 40
1.0
176
     1
 40
1.0
176
     1
  0
VISUALSTYLE
  5
31
102
{ACAD_REACTORS
330
29
102
}
330
29
100
AcDbVisualStyle
  2
Hidden
 70
     6
177
     3
291
     0
 70
    58
 90
        1
176
     1
 90
        2
176
     1
 90
        2
176
     1
 90
        0
176
     1
 40
0.6
176
     1
 40
30.0
176
     1
 62
     7
420
 16777215
176
     1
 90
        2
176
     1
 90
        2
176
     1
 62
     7
176
     1
 62
   257
176
     1
 90
        2
176
     1
 90
        1
176
     1
 40
40.0
176
     1
 90
        0
176
     1
 62
   257
176
     1
 40
1.0
176
     1
 90
        1
176
     1
 90
        6
176
     1
 90
        2
176
     1
 62
     7
176
     1
 90
        3
176
     1
 90
        0
176
     1
 90
        0
176
     1
290
     0
176
     1
 90
        1
176
     1
 40
0.0
176
     1
 90
        0
176
     1
290
     0
176
     1
290
     1
176
     1
290
     1
176
     1
290
     0
176
     1
290
     0
176
     1
290
     0
176
     1
290
     0
176
     1
290
     0
176
     1
290
     0
176
     1
 90
       50
176
     1
 40
0.0
176
     1
 40
1.0
176
     1
 90
        0
176
     1
 62
    18
420
        0
176
     1
 90
       50
176
     1
 90
        3
176
     1
 62
     5
420
      255
176
     1
290
     0
176
     1
 90
       50
176
     1
 90
       50
176
     1
 90
       50
176
     1
290
     0
176
     1
 90
       50
176
     1
 62
   256
176
     0
 40
1.0
176
     0
 90
        2
176
     1
  1
strokes_ogs.tif
176
     1
290
     0
176
     1
 40
1.0
176
     1
 40
1.0
176
     1
  0
VISUALSTYLE
  5
3F
102
{ACAD_REACTORS
330
29
102
}
330
29
100
AcDbVisualStyle
  2
JitterOff
 70
    20
177
     3
291
     1
 70
    58
 90
        2
176
     0
 90
        2
176
     0
 90
        0
176
     0
 90
        0
176
     0
 40
0.6
176
     0
 40
30.0
176
     0
 62
     7
420
 16777215
176
     0
 90
        1
176
     0
 90
        4
176
     0
 62
     7
176
     0
 62
   257
176
     0
 90
        1
176
     0
 90
        1
176
     0
 40
1.0
176
     0
 90
       10
176
     2
 62
     7
176
     0
 40
1.0
176
     0
 90
        1
176
     0
 90
        6
176
     0
 90
        2
176
     0
 62
     7
176
     0
 90
        5
176
     0
 90
        0
176
     0
 90
        0
176
     0
290
     0
176
     0
 90
        1
176
     0
 40
0.0
176
     0
 90
        0
176
     0
290
     0
176
     0
290
     1
176
     0
290
     1
176
     0
290
     0
176
     0
290
     0
176
     0
290
     0
176
     0
290
     0
176
     0
290
     0
176
     0
290
     0
176
     0
 90
       50
176
     0
 40
0.0
176
     0
 40
1.0
176
     0
 90
        0
176
     0
 62
    18
420
        0
176
     0
 90
       50
176
     0
 90
        3
176
     0
 62
     5
420
      255
176
     0
290
     0
176
     0
 90
       50
176
     0
 90
       50
176
     0
 90
       50
176
     0
290
     0
176
     0
 90
       50
176
     0
 62
   256
176
     0
 40
1.0
176
     0
 90
        2
176
     0
  1
strokes_ogs.tif
176
     0
290
     0
176
     0
 40
1.0
176
     0
 40
1.0
176
     0
  0
VISUALSTYLE
  5
37
102
{ACAD_REACTORS
330
29
102
}
330
29
100
AcDbVisualStyle
  2
Linepattern
 70
    14
177
     3
291
     1
 70
    58
 90
        2
176
     1
 90
        2
176
     1
 90
        0
176
     1
 90
        0
176
     1
 40
0.6
176
     1
 40
30.0
176
     1
 62
     7
420
 16777215
176
     1
 90
        1
176
     1
 90
        4
176
     1
 62
     7
176
     1
 62
   257
176
     1
 90
        7
176
     1
 90
        7
176
     1
 40
1.0
176
     1
 90
        8
176
     1
 62
     7
176
     1
 40
1.0
176
     1
 90
        1
176
     1
 90
        6
176
     1
 90
        2
176
     1
 62
     7
176
     1
 90
        5
176
     1
 90
        0
176
     1
 90
        0
176
     1
290
     0
176
     1
 90
        1
176
     1
 40
0.0
176
     1
 90
        0
176
     1
290
     0
176
     1
290
     1
176
     1
290
     1
176
     1
290
     0
176
     1
290
     0
176
     1
290
     0
176
     1
290
     0
176
     1
290
     0
176
     1
290
     0
176
     1
 90
       50
176
     1
 40
0.0
176
     1
 40
1.0
176
     1
 90
        0
176
     1
 62
    18
420
        0
176
     1
 90
       50
176
     1
 90
        3
176
     1
 62
     5
420
      255
176
     1
290
     0
176
     1
 90
       50
176
     1
 90
       50
176
     1
 90
       50
176
     1
290
     0
176
     1
 90
       50
176
     1
 62
   256
176
     0
 40
1.0
176
     0
 90
        2
176
     1
  1
strokes_ogs.tif
176
     1
290
     0
176
     1
 40
1.0
176
     1
 40
1.0
176
     1
  0
VISUALSTYLE
  5
40
102
{ACAD_REACTORS
330
29
102
}
330
29
100
AcDbVisualStyle
  2
OverhangOff
 70
    21
177
     3
291
     1
 70
    58
 90
        2
176
     0
 90
        2
176
     0
 90
        0
176
     0
 90
        0
176
     0
 40
0.6
176
     0
 40
30.0
176
     0
 62
     7
420
 16777215
176
     0
 90
        1
176
     0
 90
        4
176
     0
 62
     7
176
     0
 62
   257
176
     0
 90
        1
176
     0
 90
        1
176
     0
 40
1.0
176
     0
 90
        9
176
     2
 62
     7
176
     0
 40
1.0
176
     0
 90
        1
176
     0
 90
        6
176
     0
 90
        2
176
     0
 62
     7
176
     0
 90
        5
176
     0
 90
        0
176
     0
 90
        0
176
     0
290
     0
176
     0
 90
        1
176
     0
 40
0.0
176
     0
 90
        0
176
     0
290
     0
176
     0
290
     1
176
     0
290
     1
176
     0
290
     0
176
     0
290
     0
176
     0
290
     0
176
     0
290
     0
176
     0
290
     0
176
     0
290
     0
176
     0
 90
       50
176
     0
 40
0.0
176
     0
 40
1.0
176
     0
 90
        0
176
     0
 62
    18
420
        0
176
     0
 90
       50
176
     0
 90
        3
176
     0
 62
     5
420
      255
176
     0
290
     0
176
     0
 90
       50
176
     0
 90
       50
176
     0
 90
       50
176
     0
290
     0
176
     0
 90
       50
176
     0
 62
   256
176
     0
 40
1.0
176
     0
 90
        2
176
     0
  1
strokes_ogs.tif
176
     0
290
     0
176
     0
 40
1.0
176
     0
 40
1.0
176
     0
  0
VISUALSTYLE
  5
33
102
{ACAD_REACTORS
330
29
102
}
330
29
100
AcDbVisualStyle
  2
Realistic
 70
     8
177
     3
291
     0
 70
    58
 90
        2
176
     1
 90
        3
176
     1
 90
        0
176
     1
 90
        2
176
     1
 40
0.6
176
     1
 40
30.0
176
     1
 62
     7
420
 16777215
176
     1
 90
        0
176
     1
 90
        0
176
     1
 62
     7
176
     1
 62
   257
176
     1
 90
        1
176
     1
 90
        1
176
     1
 40
1.0
176
     1
 90
        8
176
     1
 62
   257
176
     1
 40
1.0
176
     1
 90
        1
176
     1
 90
        6
176
     1
 90
        2
176
     1
 62
     7
176
     1
 90
        3
176
     1
 90
        0
176
     1
 90
        0
176
     1
290
     0
176
     1
 90
       13
176
     1
 40
0.0
176
     1
 90
        0
176
     1
290
     0
176
     1
290
     1
176
     1
290
     1
176
     1
290
     0
176
     1
290
     0
176
     1
290
     0
176
     1
290
     0
176
     1
290
     0
176
     1
290
     0
176
     1
 90
       50
176
     1
 40
0.0
176
     1
 40
1.0
176
     1
 90
        0
176
     1
 62
    18
420
        0
176
     1
 90
       50
176
     1
 90
        3
176
     1
 62
     5
420
      255
176
     1
290
     0
176
     1
 90
       50
176
     1
 90
       50
176
     1
 90
       50
176
     1
290
     0
176
     1
 90
       50
176
     1
 62
   256
176
     0
 40
1.0
176
     0
 90
        2
176
     1
  1
strokes_ogs.tif
176
     1
290
     0
176
     1
 40
1.0
176
     1
 40
1.0
176
     1
  0
VISUALSTYLE
  5
3E
102
{ACAD_REACTORS
330
29
102
}
330
29
100
AcDbVisualStyle
  2
Shaded
 70
    27
177
     3
291
     0
 70
    58
 90
        2
176
     1
 90
        2
176
     1
 90
        1
176
     1
 90
        2
176
     1
 40
0.6
176
     1
 40
30.0
176
     1
 62
     7
420
 16777215
176
     1
 90
        0
176
     1
 90
        4
176
     1
 62
     7
176
     1
 62
   257
176
     1
 90
        1
176
     1
 90
        1
176
     1
 40
1.0
176
     1
 90
        8
176
     1
 62
   257
176
     1
 40
1.0
176
     1
 90
        1
176
     1
 90
        6
176
     1
 90
        2
176
     1
 62
     8
420
  7895160
176
     1
 90
        3
176
     1
 90
        0
176
     1
 90
        0
176
     1
290
     0
176
     1
 90
        5
176
     1
 40
0.0
176
     1
 90
        0
176
     1
290
     0
176
     1
290
     1
176
     1
290
     1
176
     1
290
     0
176
     1
290
     0
176
     1
290
     0
176
     1
290
     0
176
     1
290
     0
176
     1
290
     0
176
     1
 90
       50
176
     1
 40
0.0
176
     1
 40
1.0
176
     1
 90
        0
176
     1
 62
    18
420
        0
176
     1
 90
       50
176
     1
 90
        3
176
     1
 62
     5
420
      255
176
     1
290
     0
176
     1
 90
       50
176
     1
 90
       50
176
     1
 90
       50
176
     1
290
     0
176
     1
 90
       50
176
     1
 62
   256
176
     0
 40
1.0
176
     0
 90
        2
176
     1
  1
strokes_ogs.tif
176
     1
290
     0
176
     1
 40
1.0
176
     1
 40
1.0
176
     1
  0
VISUALSTYLE
  5
3D
102
{ACAD_REACTORS
330
29
102
}
330
29
100
AcDbVisualStyle
  2
Shaded with edges
 70
    26
177
     3
291
     0
 70
    58
 90
        2
176
     1
 90
        2
176
     1
 90
        1
176
     1
 90
        2
176
     1
 40
0.6
176
     1
 40
30.0
176
     1
 62
     7
420
 16777215
176
     1
 90
        1
176
     1
 90
        2
176
     1
 62
     7
176
     1
 62
   257
176
     1
 90
        2
176
     1
 90
        1
176
     1
 40
1.0
176
     1
 90
        8
176
     1
 62
   257
176
     1
 40
1.0
176
     1
 90
        1
176
     1
 90
        6
176
     1
 90
        2
176
     1
 62
     7
176
     1
 90
        3
176
     1
 90
        0
176
     1
 90
        0
176
     1
290
     0
176
     1
 90
        5
176
     1
 40
0.0
176
     1
 90
        0
176
     1
290
     0
176
     1
290
     1
176
     1
290
     1
176
     1
290
     0
176
     1
290
     0
176
     1
290
     0
176
     1
290
     0
176
     1
290
     0
176
     1
290
     0
176
     1
 90
       50
176
     1
 40
0.0
176
     1
 40
1.0
176
     1
 90
        0
176
     1
 62
    18
420
        0
176
     1
 90
       50
176
     1
 90
        3
176
     1
 62
     5
420
      255
176
     1
290
     0
176
     1
 90
       50
176
     1
 90
       50
176
     1
 90
       50
176
     1
290
     0
176
     1
 90
       50
176
     1
 62
   256
176
     0
 40
1.0
176
     0
 90
        2
176
     1
  1
strokes_ogs.tif
176
     1
290
     0
176
     1
 40
1.0
176
     1
 40
1.0
176
     1
  0
VISUALSTYLE
  5
3A
102
{ACAD_REACTORS
330
29
102
}
330
29
100
AcDbVisualStyle
  2
Shades of Gray
 70
    23
177
     3
291
     0
 70
    58
 90
        2
176
     1
 90
        2
176
     1
 90
        3
176
     1
 90
        0
176
     1
 40
0.6
176
     1
 40
30.0
176
     1
 62
     7
420
 16777215
176
     1
 90
        2
176
     1
 90
        2
176
     1
 62
     7
176
     1
 62
     7
176
     1
 90
        1
176
     1
 90
        1
176
     1
 40
40.0
176
     1
 90
        8
176
     1
 62
     7
176
     1
 40
1.0
176
     1
 90
        1
176
     1
 90
        6
176
     1
 90
        2
176
     1
 62
     7
176
     1
 90
        3
176
     1
 90
        0
176
     1
 90
        0
176
     1
290
     0
176
     1
 90
        1
176
     1
 40
0.0
176
     1
 90
        0
176
     1
290
     0
176
     1
290
     1
176
     1
290
     1
176
     1
290
     0
176
     1
290
     0
176
     1
290
     0
176
     1
290
     0
176
     1
290
     0
176
     1
290
     0
176
     1
 90
       50
176
     1
 40
0.0
176
     1
 40
1.0
176
     1
 90
        0
176
     1
 62
    18
420
        0
176
     1
 90
       50
176
     1
 90
        3
176
     1
 62
     5
420
      255
176
     1
290
     0
176
     1
 90
       50
176
     1
 90
       50
176
     1
 90
       50
176
     1
290
     0
176
     1
 90
       50
176
     1
 62
   256
176
     0
 40
1.0
176
     0
 90
        2
176
     1
  1
strokes_ogs.tif
176
     1
290
     0
176
     1
 40
1.0
176
     1
 40
1.0
176
     1
  0
VISUALSTYLE
  5
3B
102
{ACAD_REACTORS
330
29
102
}
330
29
100
AcDbVisualStyle
  2
Sketchy
 70
    24
177
     3
291
     0
 70
    58
 90
        1
176
     1
 90
        2
176
     1
 90
        2
176
     1
 90
        0
176
     1
 40
0.6
176
     1
 40
30.0
176
     1
 62
     7
420
 16777215
176
     1
 90
        2
176
     1
 90
        2
176
     1
 62
     7
176
     1
 62
     7
176
     1
 90
        1
176
     1
 90
        1
176
     1
 40
40.0
176
     1
 90
       11
176
     1
 62
     7
176
     1
 40
1.0
176
     1
 90
        1
176
     1
 90
        6
176
     1
 90
        2
176
     1
 62
     7
176
     1
 90
        6
176
     1
 90
        0
176
     1
 90
        0
176
     1
290
     0
176
     1
 90
        1
176
     1
 40
0.0
176
     1
 90
        0
176
     1
290
     0
176
     1
290
     1
176
     1
290
     1
176
     1
290
     0
176
     1
290
     0
176
     1
290
     0
176
     1
290
     0
176
     1
290
     0
176
     1
290
     0
176
     1
 90
       50
176
     1
 40
0.0
176
     1
 40
1.0
176
     1
 90
        0
176
     1
 62
    18
420
        0
176
     1
 90
       50
176
     1
 90
        3
176
     1
 62
     5
420
      255
176
     1
290
     0
176
     1
 90
       50
176
     1
 90
       50
176
     1
 90
       50
176
     1
290
     0
176
     1
 90
       50
176
     1
 62
   256
176
     0
 40
1.0
176
     0
 90
        2
176
     1
  1
strokes_ogs.tif
176
     1
290
     0
176
     1
 40
1.0
176
     1
 40
1.0
176
     1
  0
VISUALSTYLE
  5
36
102
{ACAD_REACTORS
330
29
102
}
330
29
100
AcDbVisualStyle
  2
Thicken
 70
    13
177
     3
291
     1
 70
    58
 90
        2
176
     1
 90
        2
176
     1
 90
        0
176
     1
 90
        0
176
     1
 40
0.6
176
     1
 40
30.0
176
     1
 62
     7
420
 16777215
176
     1
 90
        1
176
     1
 90
        4
176
     1
 62
     7
176
     1
 62
   257
176
     1
 90
        1
176
     1
 90
        1
176
     1
 40
1.0
176
     1
 90
       12
176
     1
 62
     7
176
     1
 40
1.0
176
     1
 90
        1
176
     1
 90
        6
176
     1
 90
        2
176
     1
 62
     7
176
     1
 90
        5
176
     1
 90
        0
176
     1
 90
        0
176
     1
290
     0
176
     1
 90
        1
176
     1
 40
0.0
176
     1
 90
        0
176
     1
290
     0
176
     1
290
     1
176
     1
290
     1
176
     1
290
     0
176
     1
290
     0
176
     1
290
     0
176
     1
290
     0
176
     1
290
     0
176
     1
290
     0
176
     1
 90
       50
176
     1
 40
0.0
176
     1
 40
1.0
176
     1
 90
        0
176
     1
 62
    18
420
        0
176
     1
 90
       50
176
     1
 90
        3
176
     1
 62
     5
420
      255
176
     1
290
     0
176
     1
 90
       50
176
     1
 90
       50
176
     1
 90
       50
176
     1
290
     0
176
     1
 90
       50
176
     1
 62
   256
176
     0
 40
1.0
176
     0
 90
        2
176
     1
  1
strokes_ogs.tif
176
     1
290
     0
176
     1
 40
1.0
176
     1
 40
1.0
176
     1
  0
VISUALSTYLE
  5
30
102
{ACAD_REACTORS
330
29
102
}
330
29
100
AcDbVisualStyle
  2
Wireframe
 70
     5
177
     3
291
     0
 70
    58
 90
        0
176
     1
 90
        2
176
     1
 90
        0
176
     1
 90
        0
176
     1
 40
0.6
176
     1
 40
30.0
176
     1
 62
     7
420
 16777215
176
     1
 90
        1
176
     1
 90
        4
176
     1
 62
     7
176
     1
 62
   257
176
     1
 90
        1
176
     1
 90
        1
176
     1
 40
1.0
176
     1
 90
        0
176
     1
 62
   257
176
     1
 40
1.0
176
     1
 90
        1
176
     1
 90
        6
176
     1
 90
        2
176
     1
 62
     7
176
     1
 90
        3
176
     1
 90
        0
176
     1
 90
        0
176
     1
290
     0
176
     1
 90
        1
176
     1
 40
0.0
176
     1
 90
        0
176
     1
290
     0
176
     1
290
     1
176
     1
290
     1
176
     1
290
     0
176
     1
290
     0
176
     1
290
     0
176
     1
290
     0
176
     1
290
     0
176
     1
290
     0
176
     1
 90
       50
176
     1
 40
0.0
176
     1
 40
1.0
176
     1
 90
        0
176
     1
 62
    18
420
        0
176
     1
 90
       50
176
     1
 90
        3
176
     1
 62
     5
420
      255
176
     1
290
     0
176
     1
 90
       50
176
     1
 90
       50
176
     1
 90
       50
176
     1
290
     0
176
     1
 90
       50
176
     1
 62
   256
176
     0
 40
1.0
176
     0
 90
        2
176
     1
  1
strokes_ogs.tif
176
     1
290
     0
176
     1
 40
1.0
176
     1
 40
1.0
176
     1
  0
VISUALSTYLE
  5
3C
102
{ACAD_REACTORS
330
29
102
}
330
29
100
AcDbVisualStyle
  2
X-Ray
 70
    25
177
     3
291
     0
 70
    58
 90
        2
176
     1
 90
        2
176
     1
 90
        1
176
     1
 90
        1
176
     1
 40
0.5
176
     1
 40
30.0
176
     1
 62
     7
420
 16777215
176
     1
 90
        1
176
     1
 90
        0
176
     1
 62
     7
176
     1
 62
   257
176
     1
 90
        1
176
     1
 90
        1
176
     1
 40
1.0
176
     1
 90
        8
176
     1
 62
     7
176
     1
 40
1.0
176
     1
 90
        1
176
     1
 90
        6
176
     1
 90
        2
176
     1
 62
     7
176
     1
 90
        3
176
     1
 90
        0
176
     1
 90
        0
176
     1
290
     0
176
     1
 90
       13
176
     1
 40
0.0
176
     1
 90
        0
176
     1
290
     0
176
     1
290
     1
176
     1
290
     1
176
     1
290
     0
176
     1
290
     0
176
     1
290
     0
176
     1
290
     0
176
     1
290
     0
176
     1
290
     0
176
     1
 90
       50
176
     1
 40
0.0
176
     1
 40
1.0
176
     1
 90
        0
176
     1
 62
    18
420
        0
176
     1
 90
       50
176
     1
 90
        3
176
     1
 62
     5
420
      255
176
     1
290
     0
176
     1
 90
       50
176
     1
 90
       50
176
     1
 90
       50
176
     1
290
     0
176
     1
 90
       50
176
     1
 62
   256
176
     0
 40
1.0
176
     0
 90
        2
176
     1
  1
strokes_ogs.tif
176
     1
290
     0
176
     1
 40
1.0
176
     1
 40
1.0
176
     1
  0
DICTIONARYVAR
  5
132
102
{ACAD_REACTORS
330
12D
102
}
330
12D
100
DictionaryVariables
280
     0
  1
1:1
  0
DICTIONARYVAR
  5
12F
102
{ACAD_REACTORS
330
12D
102
}
330
12D
100
DictionaryVariables
280
     0
  1
STANDARD
  0
DICTIONARYVAR
  5
12E
102
{ACAD_REACTORS
330
12D
102
}
330
12D
100
DictionaryVariables
280
     0
  1
STANDARD
  0
DICTIONARYVAR
  5
130
102
{ACAD_REACTORS
330
12D
102
}
330
12D
100
DictionaryVariables
280
     0
  1
Imperial24
  0
DICTIONARYVAR
  5
131
102
{ACAD_REACTORS
330
12D
102
}
330
12D
100
DictionaryVariables
280
     0
  1
Imperial24
  0
DICTIONARY
  5
1A
330
19
100
AcDbDictionary
280
     1
281
     1
  3
BUMPTILE
360
1C
  3
DIFFUSETILE
360
1B
  3
OPACITYTILE
360
1F
  3
REFLECTIONTILE
360
1E
  3
REFRACTIONTILE
360
20
  3
SPECULARTILE
360
1D
  0
DICTIONARY
  5
12
330
11
100
AcDbDictionary
280
     1
281
     1
  3
BUMPTILE
360
14
  3
DIFFUSETILE
360
13
  3
OPACITYTILE
360
17
  3
REFLECTIONTILE
360
16
  3
REFRACTIONTILE
360
18
  3
SPECULARTILE
360
15
  0
DICTIONARY
  5
22
330
21
100
AcDbDictionary
280
     1
281
     1
  3
BUMPTILE
360
24
  3
DIFFUSETILE
360
23
  3
OPACITYTILE
360
27
  3
REFLECTIONTILE
360
26
  3
REFRACTIONTILE
360
28
  3
SPECULARTILE
360
25
  0
DICTIONARY
  5
133
330
65
100
AcDbDictionary
280
     1
281
     1
  3
ACAD_ROUNDTRIP_2008_TABLESTYLE_CELLSTYLEMAP
360
134
  0
XRECORD
  5
1C
102
{ACAD_REACTORS
330
1A
102
}
330
1A
100
AcDbXrecord
280
     1
270
     1
271
     1
  0
XRECORD
  5
1B
102
{ACAD_REACTORS
330
1A
102
}
330
1A
100
AcDbXrecord
280
     1
270
     1
271
     1
  0
XRECORD
  5
1F
102
{ACAD_REACTORS
330
1A
102
}
330
1A
100
AcDbXrecord
280
     1
270
     1
271
     1
  0
XRECORD
  5
1E
102
{ACAD_REACTORS
330
1A
102
}
330
1A
100
AcDbXrecord
280
     1
270
     1
271
     1
  0
XRECORD
  5
20
102
{ACAD_REACTORS
330
1A
102
}
330
1A
100
AcDbXrecord
280
     1
270
     1
271
     1
  0
XRECORD
  5
1D
102
{ACAD_REACTORS
330
1A
102
}
330
1A
100
AcDbXrecord
280
     1
270
     1
271
     1
  0
XRECORD
  5
14
102
{ACAD_REACTORS
330
12
102
}
330
12
100
AcDbXrecord
280
     1
270
     1
271
     1
  0
XRECORD
  5
13
102
{ACAD_REACTORS
330
12
102
}
330
12
100
AcDbXrecord
280
     1
270
     1
271
     1
  0
XRECORD
  5
17
102
{ACAD_REACTORS
330
12
102
}
330
12
100
AcDbXrecord
280
     1
270
     1
271
     1
  0
XRECORD
  5
16
102
{ACAD_REACTORS
330
12
102
}
330
12
100
AcDbXrecord
280
     1
270
     1
271
     1
  0
XRECORD
  5
18
102
{ACAD_REACTORS
330
12
102
}
330
12
100
AcDbXrecord
280
     1
270
     1
271
     1
  0
XRECORD
  5
15
102
{ACAD_REACTORS
330
12
102
}
330
12
100
AcDbXrecord
280
     1
270
     1
271
     1
  0
XRECORD
  5
24
102
{ACAD_REACTORS
330
22
102
}
330
22
100
AcDbXrecord
280
     1
270
     1
271
     1
  0
XRECORD
  5
23
102
{ACAD_REACTORS
330
22
102
}
330
22
100
AcDbXrecord
280
     1
270
     1
271
     1
  0
XRECORD
  5
27
102
{ACAD_REACTORS
330
22
102
}
330
22
100
AcDbXrecord
280
     1
270
     1
271
     1
  0
XRECORD
  5
26
102
{ACAD_REACTORS
330
22
102
}
330
22
100
AcDbXrecord
280
     1
270
     1
271
     1
  0
XRECORD
  5
28
102
{ACAD_REACTORS
330
22
102
}
330
22
100
AcDbXrecord
280
     1
270
     1
271
     1
  0
XRECORD
  5
25
102
{ACAD_REACTORS
330
22
102
}
330
22
100
AcDbXrecord
280
     1
270
     1
271
     1
  0
CELLSTYLEMAP
  5
134
102
{ACAD_REACTORS
330
133
102
}
330
133
100
AcDbCellStyleMap
 90
        3
300
CELLSTYLE
  1
TABLEFORMAT_BEGIN
 90
        5
170
     1
 91
        0
 92
    32768
 62
   257
 93
        1
300
CONTENTFORMAT
  1
CONTENTFORMAT_BEGIN
 90
        0
 91
        0
 92
      512
 93
        0
300

 40
0.0
140
1.0
 94
        5
 62
     0
340
55
144
0.25
309
CONTENTFORMAT_END
171
     0
 94
        0
309
TABLEFORMAT_END
  1
CELLSTYLE_BEGIN
 90
        1
 91
        1
300
_TITLE
309
CELLSTYLE_END
300
CELLSTYLE
  1
TABLEFORMAT_BEGIN
 90
        5
170
     1
 91
        0
 92
        0
 62
   257
 93
        1
300
CONTENTFORMAT
  1
CONTENTFORMAT_BEGIN
 90
        0
 91
        0
 92
      512
 93
        0
300

 40
0.0
140
1.0
 94
        5
 62
     0
340
55
144
0.18
309
CONTENTFORMAT_END
171
     0
 94
        0
309
TABLEFORMAT_END
  1
CELLSTYLE_BEGIN
 90
        2
 91
        1
300
_HEADER
309
CELLSTYLE_END
300
CELLSTYLE
  1
TABLEFORMAT_BEGIN
 90
        5
170
     1
 91
        0
 92
        0
 62
   257
 93
        1
300
CONTENTFORMAT
  1
CONTENTFORMAT_BEGIN
 90
        0
 91
        0
 92
      512
 93
        0
300

 40
0.0
140
1.0
 94
        2
 62
     0
340
55
144
0.18
309
CONTENTFORMAT_END
171
     0
 94
        0
309
TABLEFORMAT_END
  1
CELLSTYLE_BEGIN
 90
        3
 91
        2
300
_DATA
309
CELLSTYLE_END
  0
ENDSEC
  0
EOF
