  0
SECTION
  2
HEADER
  9
$ACADVER
  1
AC1018
  9
$ACADMAINTVER
 70
   104
  9
$DWGCODEPAGE
  3
ANSI_936
  9
$INSBASE
 10
0.0
 20
0.0
 30
0.0
  9
$EXTMIN
 10
1.000000000000000E+20
 20
1.000000000000000E+20
 30
1.000000000000000E+20
  9
$EXTMAX
 10
-1.000000000000000E+20
 20
-1.000000000000000E+20
 30
-1.000000000000000E+20
  9
$LIMMIN
 10
0.0
 20
0.0
  9
$LIMMAX
 10
12.0
 20
9.0
  9
$ORTHOMODE
 70
     0
  9
$REGENMODE
 70
     1
  9
$FILLMODE
 70
     1
  9
$QTEXTMODE
 70
     0
  9
$MIRRTEXT
 70
     0
  9
$LTSCALE
 40
1.0
  9
$ATTMODE
 70
     1
  9
$TEXTSIZE
 40
0.2
  9
$TRACEWID
 40
0.05
  9
$TEXTSTYLE
  7
Standard
  9
$CLAYER
  8
0
  9
$CELTYPE
  6
ByLayer
  9
$CECOLOR
 62
   256
  9
$CELTSCALE
 40
1.0
  9
$DISPSILH
 70
     0
  9
$DIMSCALE
 40
1.0
  9
$DIMASZ
 40
0.18
  9
$DIMEXO
 40
0.0625
  9
$DIMDLI
 40
0.38
  9
$DIMRND
 40
0.0
  9
$DIMDLE
 40
0.0
  9
$DIMEXE
 40
0.18
  9
$DIMTP
 40
0.0
  9
$DIMTM
 40
0.0
  9
$DIMTXT
 40
0.18
  9
$DIMCEN
 40
0.09
  9
$DIMTSZ
 40
0.0
  9
$DIMTOL
 70
     0
  9
$DIMLIM
 70
     0
  9
$DIMTIH
 70
     1
  9
$DIMTOH
 70
     1
  9
$DIMSE1
 70
     0
  9
$DIMSE2
 70
     0
  9
$DIMTAD
 70
     0
  9
$DIMZIN
 70
     0
  9
$DIMBLK
  1

  9
$DIMASO
 70
     1
  9
$DIMSHO
 70
     1
  9
$DIMPOST
  1

  9
$DIMAPOST
  1

  9
$DIMALT
 70
     0
  9
$DIMALTD
 70
     2
  9
$DIMALTF
 40
25.4
  9
$DIMLFAC
 40
1.0
  9
$DIMTOFL
 70
     0
  9
$DIMTVP
 40
0.0
  9
$DIMTIX
 70
     0
  9
$DIMSOXD
 70
     0
  9
$DIMSAH
 70
     0
  9
$DIMBLK1
  1

  9
$DIMBLK2
  1

  9
$DIMSTYLE
  2
Standard
  9
$DIMCLRD
 70
     0
  9
$DIMCLRE
 70
     0
  9
$DIMCLRT
 70
     0
  9
$DIMTFAC
 40
1.0
  9
$DIMGAP
 40
0.09
  9
$DIMJUST
 70
     0
  9
$DIMSD1
 70
     0
  9
$DIMSD2
 70
     0
  9
$DIMTOLJ
 70
     1
  9
$DIMTZIN
 70
     0
  9
$DIMALTZ
 70
     0
  9
$DIMALTTZ
 70
     0
  9
$DIMUPT
 70
     0
  9
$DIMDEC
 70
     4
  9
$DIMTDEC
 70
     4
  9
$DIMALTU
 70
     2
  9
$DIMALTTD
 70
     2
  9
$DIMTXSTY
  7
Standard
  9
$DIMAUNIT
 70
     0
  9
$DIMADEC
 70
     0
  9
$DIMALTRND
 40
0.0
  9
$DIMAZIN
 70
     0
  9
$DIMDSEP
 70
    46
  9
$DIMATFIT
 70
     3
  9
$DIMFRAC
 70
     0
  9
$DIMLDRBLK
  1

  9
$DIMLUNIT
 70
     2
  9
$DIMLWD
 70
    -2
  9
$DIMLWE
 70
    -2
  9
$DIMTMOVE
 70
     0
  9
$LUNITS
 70
     2
  9
$LUPREC
 70
     4
  9
$SKETCHINC
 40
0.1
  9
$FILLETRAD
 40
0.0
  9
$AUNITS
 70
     0
  9
$AUPREC
 70
     0
  9
$MENU
  1
.
  9
$ELEVATION
 40
0.0
  9
$PELEVATION
 40
0.0
  9
$THICKNESS
 40
0.0
  9
$LIMCHECK
 70
     0
  9
$CHAMFERA
 40
0.0
  9
$CHAMFERB
 40
0.0
  9
$CHAMFERC
 40
0.0
  9
$CHAMFERD
 40
0.0
  9
$SKPOLY
 70
     0
  9
$TDCREATE
 40
2460900.783368056
  9
$TDUCREATE
 40
2460900.450034722
  9
$TDUPDATE
 40
2460900.783368056
  9
$TDUUPDATE
 40
2460900.450034722
  9
$TDINDWG
 40
0.0000000000
  9
$TDUSRTIMER
 40
0.0000000000
  9
$USRTIMER
 70
     1
  9
$ANGBASE
 50
0.0
  9
$ANGDIR
 70
     0
  9
$PDMODE
 70
     0
  9
$PDSIZE
 40
0.0
  9
$PLINEWID
 40
0.0
  9
$SPLFRAME
 70
     0
  9
$SPLINETYPE
 70
     6
  9
$SPLINESEGS
 70
     8
  9
$HANDSEED
  5
25A
  9
$SURFTAB1
 70
     6
  9
$SURFTAB2
 70
     6
  9
$SURFTYPE
 70
     6
  9
$SURFU
 70
     6
  9
$SURFV
 70
     6
  9
$UCSBASE
  2

  9
$UCSNAME
  2

  9
$UCSORG
 10
0.0
 20
0.0
 30
0.0
  9
$UCSXDIR
 10
1.0
 20
0.0
 30
0.0
  9
$UCSYDIR
 10
0.0
 20
1.0
 30
0.0
  9
$UCSORTHOREF
  2

  9
$UCSORTHOVIEW
 70
     0
  9
$UCSORGTOP
 10
0.0
 20
0.0
 30
0.0
  9
$UCSORGBOTTOM
 10
0.0
 20
0.0
 30
0.0
  9
$UCSORGLEFT
 10
0.0
 20
0.0
 30
0.0
  9
$UCSORGRIGHT
 10
0.0
 20
0.0
 30
0.0
  9
$UCSORGFRONT
 10
0.0
 20
0.0
 30
0.0
  9
$UCSORGBACK
 10
0.0
 20
0.0
 30
0.0
  9
$PUCSBASE
  2

  9
$PUCSNAME
  2

  9
$PUCSORG
 10
0.0
 20
0.0
 30
0.0
  9
$PUCSXDIR
 10
1.0
 20
0.0
 30
0.0
  9
$PUCSYDIR
 10
0.0
 20
1.0
 30
0.0
  9
$PUCSORTHOREF
  2

  9
$PUCSORTHOVIEW
 70
     0
  9
$PUCSORGTOP
 10
0.0
 20
0.0
 30
0.0
  9
$PUCSORGBOTTOM
 10
0.0
 20
0.0
 30
0.0
  9
$PUCSORGLEFT
 10
0.0
 20
0.0
 30
0.0
  9
$PUCSORGRIGHT
 10
0.0
 20
0.0
 30
0.0
  9
$PUCSORGFRONT
 10
0.0
 20
0.0
 30
0.0
  9
$PUCSORGBACK
 10
0.0
 20
0.0
 30
0.0
  9
$USERI1
 70
     0
  9
$USERI2
 70
     0
  9
$USERI3
 70
     0
  9
$USERI4
 70
     0
  9
$USERI5
 70
     0
  9
$USERR1
 40
0.0
  9
$USERR2
 40
0.0
  9
$USERR3
 40
0.0
  9
$USERR4
 40
0.0
  9
$USERR5
 40
0.0
  9
$WORLDVIEW
 70
     1
  9
$SHADEDGE
 70
     3
  9
$SHADEDIF
 70
    70
  9
$TILEMODE
 70
     1
  9
$MAXACTVP
 70
    64
  9
$PINSBASE
 10
0.0
 20
0.0
 30
0.0
  9
$PLIMCHECK
 70
     0
  9
$PEXTMIN
 10
1.000000000000000E+20
 20
1.000000000000000E+20
 30
1.000000000000000E+20
  9
$PEXTMAX
 10
-1.000000000000000E+20
 20
-1.000000000000000E+20
 30
-1.000000000000000E+20
  9
$PLIMMIN
 10
0.0
 20
0.0
  9
$PLIMMAX
 10
12.0
 20
9.0
  9
$UNITMODE
 70
     0
  9
$VISRETAIN
 70
     1
  9
$PLINEGEN
 70
     0
  9
$PSLTSCALE
 70
     1
  9
$TREEDEPTH
 70
  3020
  9
$CMLSTYLE
  2
Standard
  9
$CMLJUST
 70
     0
  9
$CMLSCALE
 40
1.0
  9
$PROXYGRAPHICS
 70
     1
  9
$MEASUREMENT
 70
     0
  9
$CELWEIGHT
370
    -1
  9
$ENDCAPS
280
     0
  9
$JOINSTYLE
280
     0
  9
$LWDISPLAY
290
     1
  9
$INSUNITS
 70
     1
  9
$HYPERLINKBASE
  1

  9
$STYLESHEET
  1

  9
$XEDIT
290
     1
  9
$CEPSNTYPE
380
     0
  9
$PSTYLEMODE
290
     1
  9
$FINGERPRINTGUID
  2
{40DCDA00-601A-904C-843C-23A9065176D0}
  9
$VERSIONGUID
  2
{75D33BE4-167F-C640-85AE-42F8163EBE14}
  9
$EXTNAMES
290
     1
  9
$PSVPSCALE
 40
0.0
  9
$OLESTARTUP
290
     0
  9
$SORTENTS
280
   127
  9
$INDEXCTL
280
     0
  9
$HIDETEXT
280
     1
  9
$XCLIPFRAME
290
     0
  9
$HALOGAP
280
     0
  9
$OBSCOLOR
 70
   257
  9
$OBSLTYPE
280
     0
  9
$INTERSECTIONDISPLAY
280
     0
  9
$INTERSECTIONCOLOR
 70
   257
  9
$DIMASSOC
280
     2
  9
$PROJECTNAME
  1

  0
ENDSEC
  0
SECTION
  2
CLASSES
  0
CLASS
  1
ACDBDICTIONARYWDFLT
  2
AcDbDictionaryWithDefault
  3
ObjectDBX Classes
 90
        0
 91
        1
280
     0
281
     0
  0
CLASS
  1
MATERIAL
  2
AcDbMaterial
  3
ObjectDBX Classes
 90
     1153
 91
        3
280
     0
281
     0
  0
CLASS
  1
VISUALSTYLE
  2
AcDbVisualStyle
  3
ObjectDBX Classes
 90
     4095
 91
       24
280
     0
281
     0
  0
CLASS
  1
SCALE
  2
AcDbScale
  3
ObjectDBX Classes
 90
     1153
 91
       17
280
     0
281
     0
  0
CLASS
  1
TABLESTYLE
  2
AcDbTableStyle
  3
ObjectDBX Classes
 90
     4095
 91
        1
280
     0
281
     0
  0
CLASS
  1
MLEADERSTYLE
  2
AcDbMLeaderStyle
  3
ACDB_MLEADERSTYLE_CLASS
 90
     4095
 91
        1
280
     0
281
     0
  0
CLASS
  1
ACDBSECTIONVIEWSTYLE
  2
AcDbSectionViewStyle
  3
ObjectDBX Classes
 90
     1025
 91
        1
280
     0
281
     0
  0
CLASS
  1
ACDBDETAILVIEWSTYLE
  2
AcDbDetailViewStyle
  3
ObjectDBX Classes
 90
     1025
 91
        1
280
     0
281
     0
  0
CLASS
  1
DICTIONARYVAR
  2
AcDbDictionaryVar
  3
ObjectDBX Classes
 90
        0
 91
       10
280
     0
281
     0
  0
CLASS
  1
CELLSTYLEMAP
  2
AcDbCellStyleMap
  3
ObjectDBX Classes
 90
     1152
 91
        1
280
     0
281
     0
  0
ENDSEC
  0
SECTION
  2
TABLES
  0
TABLE
  2
VPORT
  5
8
330
0
100
AcDbSymbolTable
 70
     1
  0
VPORT
  5
57
330
8
100
AcDbSymbolTableRecord
100
AcDbViewportTableRecord
  2
*Active
 70
     0
 10
0.0
 20
0.0
 11
1.0
 21
1.0
 12
0.0
 22
0.0
 13
0.0
 23
0.0
 14
1.0
 24
1.0
 15
0.0
 25
0.0
 16
0.0
 26
0.0
 36
1.0
 17
17.5
 27
-12.5
 37
0.0
 40
25.5
 41
1.4
 42
50.0
 43
0.0
 44
0.0
 50
0.0
 51
0.0
 71
     0
 72
   100
 73
     1
 74
     1
 75
     0
 76
     0
 77
     0
 78
     0
281
     0
 65
     1
110
0.0
120
0.0
130
0.0
111
1.0
121
0.0
131
0.0
112
0.0
122
1.0
132
0.0
 79
     0
146
0.0
  0
ENDTAB
  0
TABLE
  2
LTYPE
  5
5
330
0
100
AcDbSymbolTable
 70
     1
  0
LTYPE
  5
5B
330
5
100
AcDbSymbolTableRecord
100
AcDbLinetypeTableRecord
  2
ByBlock
 70
     0
  3

 72
    65
 73
     0
 40
0.0
  0
LTYPE
  5
5C
330
5
100
AcDbSymbolTableRecord
100
AcDbLinetypeTableRecord
  2
ByLayer
 70
     0
  3

 72
    65
 73
     0
 40
0.0
  0
LTYPE
  5
5D
330
5
100
AcDbSymbolTableRecord
100
AcDbLinetypeTableRecord
  2
Continuous
 70
     0
  3
Solid line
 72
    65
 73
     0
 40
0.0
  0
ENDTAB
  0
TABLE
  2
LAYER
  5
2
330
0
100
AcDbSymbolTable
 70
     2
  0
LAYER
  5
54
330
2
100
AcDbSymbolTableRecord
100
AcDbLayerTableRecord
  2
0
 70
     0
 62
     7
  6
Continuous
370
    -3
390
F
  0
LAYER
  5
78
330
2
100
AcDbSymbolTableRecord
100
AcDbLayerTableRecord
  2
Layer 1
 70
     0
 62
     7
  6
Continuous
370
     0
390
F
  0
ENDTAB
  0
TABLE
  2
STYLE
  5
3
330
0
100
AcDbSymbolTable
 70
     2
  0
STYLE
  5
55
330
3
100
AcDbSymbolTableRecord
100
AcDbTextStyleTableRecord
  2
Standard
 70
     0
 40
0.0
 41
1.0
 50
0.0
 71
     0
 42
0.2
  3
txt
  4

  0
STYLE
  5
5A
330
3
100
AcDbSymbolTableRecord
100
AcDbTextStyleTableRecord
  2
Annotative
 70
     0
 40
0.0
 41
1.0
 50
0.0
 71
     0
 42
0.2
  3
txt
  4

1001
AcadAnnotative
1000
AnnotativeData
1002
{
1070
     1
1070
     1
1002
}
  0
ENDTAB
  0
TABLE
  2
VIEW
  5
6
330
0
100
AcDbSymbolTable
 70
     0
  0
ENDTAB
  0
TABLE
  2
UCS
  5
7
330
0
100
AcDbSymbolTable
 70
     0
  0
ENDTAB
  0
TABLE
  2
APPID
  5
9
330
0
100
AcDbSymbolTable
 70
     3
  0
APPID
  5
56
330
9
100
AcDbSymbolTableRecord
100
AcDbRegAppTableRecord
  2
ACAD
 70
     0
  0
APPID
  5
5E
330
9
100
AcDbSymbolTableRecord
100
AcDbRegAppTableRecord
  2
AcadAnnotative
 70
     0
  0
APPID
  5
253
330
9
100
AcDbSymbolTableRecord
100
AcDbRegAppTableRecord
  2
ACAD_MLEADERVER
 70
     0
  0
ENDTAB
  0
TABLE
  2
DIMSTYLE
  5
A
330
0
100
AcDbSymbolTable
 70
     2
100
AcDbDimStyleTable
 71
     0
  0
DIMSTYLE
105
58
330
A
100
AcDbSymbolTableRecord
100
AcDbDimStyleTableRecord
  2
Standard
 70
     0
340
55
  0
DIMSTYLE
105
59
330
A
100
AcDbSymbolTableRecord
100
AcDbDimStyleTableRecord
  2
Annotative
 70
     0
340
55
1001
AcadAnnotative
1000
AnnotativeData
1002
{
1070
     1
1070
     1
1002
}
  0
ENDTAB
  0
TABLE
  2
BLOCK_RECORD
  5
1
330
0
100
AcDbSymbolTable
 70
     1
  0
BLOCK_RECORD
  5
70
330
1
100
AcDbSymbolTableRecord
100
AcDbBlockTableRecord
  2
*Model_Space
340
73
  0
BLOCK_RECORD
  5
6C
330
1
100
AcDbSymbolTableRecord
100
AcDbBlockTableRecord
  2
*Paper_Space
340
6F
  0
BLOCK_RECORD
  5
74
330
1
100
AcDbSymbolTableRecord
100
AcDbBlockTableRecord
  2
*Paper_Space0
340
77
  0
ENDTAB
  0
ENDSEC
  0
SECTION
  2
BLOCKS
  0
BLOCK
  5
71
330
70
100
AcDbEntity
  8
0
100
AcDbBlockBegin
  2
*Model_Space
 70
     0
 10
0.0
 20
0.0
 30
0.0
  3
*Model_Space
  1

  0
ENDBLK
  5
72
330
70
100
AcDbEntity
  8
0
100
AcDbBlockEnd
  0
BLOCK
  5
6D
330
6C
100
AcDbEntity
 67
     1
  8
0
100
AcDbBlockBegin
  2
*Paper_Space
 70
     0
 10
0.0
 20
0.0
 30
0.0
  3
*Paper_Space
  1

  0
ENDBLK
  5
6E
330
6C
100
AcDbEntity
 67
     1
  8
0
100
AcDbBlockEnd
  0
BLOCK
  5
75
330
74
100
AcDbEntity
 67
     1
  8
0
100
AcDbBlockBegin
  2
*Paper_Space0
 70
     0
 10
0.0
 20
0.0
 30
0.0
  3
*Paper_Space0
  1

  0
ENDBLK
  5
76
330
74
100
AcDbEntity
 67
     1
  8
0
100
AcDbBlockEnd
  0
ENDSEC
  0
SECTION
  2
ENTITIES
  0
LINE
  5
79
330
70
100
AcDbEntity
  8
Layer 1
 62
     7
370
     5
100
AcDbLine
 10
6.720476392312295
 20
-13.85906421975379
 30
0.0
 11
6.720476392312295
 21
-20.62343042796043
 31
0.0
  0
LINE
  5
7A
330
70
100
AcDbEntity
  8
Layer 1
 62
     7
370
     5
100
AcDbLine
 10
13.60490116957874
 20
-13.73900565069395
 30
0.0
 11
13.60067223107014
 21
-13.7432345893027
 31
0.0
  0
LINE
  5
7B
330
70
100
AcDbEntity
  8
Layer 1
 62
     7
370
     5
100
AcDbLine
 10
6.720476392312295
 20
-20.62343042796043
 30
0.0
 11
6.724705330920969
 21
-20.61920148935173
 31
0.0
  0
LINE
  5
7C
330
70
100
AcDbEntity
  8
Layer 1
 62
     7
370
     5
100
AcDbLine
 10
10.71268562247727
 20
-16.69125048232538
 30
0.0
 11
10.71268562247727
 21
-16.69125048232538
 31
0.0
  0
LINE
  5
7D
330
70
100
AcDbEntity
  8
Layer 1
 62
     7
370
     5
100
AcDbLine
 10
10.70132951519526
 20
-16.70260658960736
 30
0.0
 11
10.70132951519526
 21
-16.70260658960736
 31
0.0
  0
LINE
  5
7E
330
70
100
AcDbEntity
  8
Layer 1
 62
     7
370
     5
100
AcDbLine
 10
9.247093643007916
 20
-18.16026697291509
 30
0.0
 11
9.276748375756268
 21
-18.13061224026677
 31
0.0
  0
LINE
  5
7F
330
70
100
AcDbEntity
  8
Layer 1
 62
     7
370
     5
100
AcDbLine
 10
11.11208298188508
 20
-16.2952776340379
 30
0.0
 11
11.14173771453335
 21
-16.26562290138961
 31
0.0
  0
LINE
  5
80
330
70
100
AcDbEntity
  8
Layer 1
 62
     7
370
     5
100
AcDbLine
 10
9.303698416417507
 20
-18.21687174632471
 30
0.0
 11
9.333353149165834
 21
-18.18721701367634
 31
0.0
  0
LINE
  5
81
330
70
100
AcDbEntity
  8
Layer 1
 62
     7
370
     5
100
AcDbLine
 10
11.16868775529465
 20
-16.35188240744752
 30
0.0
 11
11.19834248794294
 21
-16.32222767479925
 31
0.0
  0
LINE
  5
82
330
70
100
AcDbEntity
  8
Layer 1
 62
     7
370
     5
100
AcDbLine
 10
10.77271490700717
 20
-16.75127976695532
 30
0.0
 11
10.77271490700717
 21
-16.75127976695532
 31
0.0
  0
LINE
  5
83
330
70
100
AcDbEntity
  8
Layer 1
 62
     7
370
     5
100
AcDbLine
 10
10.76135879982527
 20
-16.76263587413728
 30
0.0
 11
10.76135879982527
 21
-16.76263587413728
 31
0.0
  0
LINE
  5
84
330
70
100
AcDbEntity
  8
Layer 1
 62
     7
370
     5
100
AcDbLine
 10
13.72495973863859
 20
-13.85906421975379
 30
0.0
 11
13.72073080012998
 21
-13.86329315836249
 31
0.0
  0
LINE
  5
85
330
70
100
AcDbEntity
  8
Layer 1
 62
     7
370
     5
100
AcDbLine
 10
6.840534961472156
 20
-20.74348899702027
 30
0.0
 11
6.844763899980787
 21
-20.7392600584116
 31
0.0
  0
LINE
  5
86
330
70
100
AcDbEntity
  8
Layer 1
 62
     7
370
     5
100
AcDbLine
 10
9.276748375756268
 20
-16.35188240744752
 30
0.0
 11
9.276748375756268
 21
-18.13061224026677
 31
0.0
  0
LINE
  5
87
330
70
100
AcDbEntity
  8
Layer 1
 62
     7
370
     5
100
AcDbLine
 10
9.277440620540067
 20
-18.12991995485696
 30
0.0
 11
9.277440620540067
 21
-16.35257469285739
 31
0.0
  0
LINE
  5
88
330
70
100
AcDbEntity
  8
Layer 1
 62
     7
370
     5
100
AcDbLine
 10
9.333353149165834
 20
-18.18648681319837
 30
0.0
 11
9.333353149165834
 21
-18.18721701367634
 31
0.0
  0
LINE
  5
89
330
70
100
AcDbEntity
  8
Layer 1
 62
     7
370
     5
100
AcDbLine
 10
9.333353151667475
 20
-16.29599946455856
 30
0.0
 11
9.333353149165834
 21
-16.2952776340379
 31
0.0
  0
LINE
  5
8A
330
70
100
AcDbEntity
  8
Layer 1
 62
     7
370
     5
100
AcDbLine
 10
9.672721224043735
 20
-16.75127976695532
 30
0.0
 11
9.672721224043735
 21
-17.73121488075887
 31
0.0
  0
LINE
  5
8B
330
70
100
AcDbEntity
  8
Layer 1
 62
     7
370
     5
100
AcDbLine
 10
9.684077331225642
 20
-17.71985877357696
 30
0.0
 11
9.684077331225642
 21
-16.76263587413728
 31
0.0
  0
LINE
  5
8C
330
70
100
AcDbEntity
  8
Layer 1
 62
     7
370
     5
100
AcDbLine
 10
10.05614393368788
 20
-17.7498734157919
 30
0.0
 11
10.05614393368788
 21
-16.73262123182235
 31
0.0
  0
LINE
  5
8D
330
70
100
AcDbEntity
  8
Layer 1
 62
     7
370
     5
100
AcDbLine
 10
10.07262199376845
 20
-19.67280368551044
 30
0.0
 11
10.07262199376845
 21
-16.71090787049244
 31
0.0
  0
LINE
  5
8E
330
70
100
AcDbEntity
  8
Layer 1
 62
     7
370
     5
100
AcDbLine
 10
10.07815375627314
 20
-21.49344078703545
 30
0.0
 11
10.07815375627314
 21
-21.49343622341442
 31
0.0
  0
LINE
  5
8F
330
70
100
AcDbEntity
  8
Layer 1
 62
     7
370
     5
100
AcDbLine
 10
10.09107877726674
 20
-19.69281649507136
 30
0.0
 11
10.09107877726674
 21
-19.69281649507136
 31
0.0
  0
LINE
  5
90
330
70
100
AcDbEntity
  8
Layer 1
 62
     7
370
     5
100
AcDbLine
 10
10.09107877726674
 20
-21.48051120242076
 30
0.0
 11
10.09107877726674
 21
-21.48051120242076
 31
0.0
  0
LINE
  5
91
330
70
100
AcDbEntity
  8
Layer 1
 62
     7
370
     5
100
AcDbLine
 10
10.09263480332937
 20
-16.69089506093147
 30
0.0
 11
10.09263480332937
 21
-16.69089506093147
 31
0.0
  0
LINE
  5
92
330
70
100
AcDbEntity
  8
Layer 1
 62
     7
370
     5
100
AcDbLine
 10
10.09263480332937
 20
-19.69281649507136
 30
0.0
 11
10.09263480332937
 21
-19.69281649507136
 31
0.0
  0
LINE
  5
93
330
70
100
AcDbEntity
  8
Layer 1
 62
     7
370
     5
100
AcDbLine
 10
10.35435735378419
 20
-21.48051120242076
 30
0.0
 11
10.35435735378419
 21
-21.48051120242076
 31
0.0
  0
LINE
  5
94
330
70
100
AcDbEntity
  8
Layer 1
 62
     7
370
     5
100
AcDbLine
 10
10.35435735378419
 20
-19.69281649507136
 30
0.0
 11
10.35435735378419
 21
-19.69281649507136
 31
0.0
  0
LINE
  5
95
330
70
100
AcDbEntity
  8
Layer 1
 62
     7
370
     5
100
AcDbLine
 10
10.36728237477779
 20
-21.49344078703545
 30
0.0
 11
10.36728237477779
 21
-21.49343622341442
 31
0.0
  0
LINE
  5
96
330
70
100
AcDbEntity
  8
Layer 1
 62
     7
370
     5
100
AcDbLine
 10
10.37281413718243
 20
-16.71090787049244
 30
0.0
 11
10.37281413718243
 21
-19.67280368551044
 31
0.0
  0
LINE
  5
97
330
70
100
AcDbEntity
  8
Layer 1
 62
     7
370
     5
100
AcDbLine
 10
10.38929219736306
 20
-16.73262123182235
 30
0.0
 11
10.38929219736306
 21
-17.7498734157919
 31
0.0
  0
LINE
  5
98
330
70
100
AcDbEntity
  8
Layer 1
 62
     7
370
     5
100
AcDbLine
 10
10.76135879982527
 20
-16.76263587413728
 30
0.0
 11
10.76135879982527
 21
-17.71985877357696
 31
0.0
  0
LINE
  5
99
330
70
100
AcDbEntity
  8
Layer 1
 62
     7
370
     5
100
AcDbLine
 10
10.77271490700717
 20
-17.73121488075887
 30
0.0
 11
10.77271490700717
 21
-16.75127976695532
 31
0.0
  0
LINE
  5
9A
330
70
100
AcDbEntity
  8
Layer 1
 62
     7
370
     5
100
AcDbLine
 10
11.11208298188508
 20
-16.2960078345159
 30
0.0
 11
11.11208298188508
 21
-16.2952776340379
 31
0.0
  0
LINE
  5
9B
330
70
100
AcDbEntity
  8
Layer 1
 62
     7
370
     5
100
AcDbLine
 10
11.11208298088441
 20
-18.18649518305564
 30
0.0
 11
11.11208298188508
 21
-18.18721701367634
 31
0.0
  0
LINE
  5
9C
330
70
100
AcDbEntity
  8
Layer 1
 62
     7
370
     5
100
AcDbLine
 10
11.16799551051085
 20
-16.35257469285739
 30
0.0
 11
11.16799551051085
 21
-18.12991995485696
 31
0.0
  0
LINE
  5
9D
330
70
100
AcDbEntity
  8
Layer 1
 62
     7
370
     5
100
AcDbLine
 10
11.16868775529465
 20
-18.13061224026677
 30
0.0
 11
11.16868775529465
 21
-16.35188240744752
 31
0.0
  0
LINE
  5
9E
330
70
100
AcDbEntity
  8
Layer 1
 62
     7
370
     5
100
AcDbLine
 10
10.36728237477779
 20
-21.49343622341442
 30
0.0
 11
10.07815375627314
 21
-21.49343622341442
 31
0.0
  0
LINE
  5
9F
330
70
100
AcDbEntity
  8
Layer 1
 62
     7
370
     5
100
AcDbLine
 10
10.04813454193173
 20
-21.46342158109941
 30
0.0
 11
10.0481391140582
 21
-21.46342158109941
 31
0.0
  0
LINE
  5
A0
330
70
100
AcDbEntity
  8
Layer 1
 62
     7
370
     5
100
AcDbLine
 10
10.39729701699271
 20
-21.46342158109941
 30
0.0
 11
10.3973015891192
 21
-21.46342158109941
 31
0.0
  0
LINE
  5
A1
330
70
100
AcDbEntity
  8
Layer 1
 62
     7
370
     5
100
AcDbLine
 10
6.840534961472156
 20
-20.74348899702027
 30
0.0
 11
10.0481391140582
 21
-20.74348899702027
 31
0.0
  0
LINE
  5
A2
330
70
100
AcDbEntity
  8
Layer 1
 62
     7
370
     5
100
AcDbLine
 10
10.39729701699271
 20
-20.74348899702027
 30
0.0
 11
13.60490116957874
 21
-20.74348899702027
 31
0.0
  0
LINE
  5
A3
330
70
100
AcDbEntity
  8
Layer 1
 62
     7
370
     5
100
AcDbLine
 10
13.72495973863859
 20
-20.62343042796043
 30
0.0
 11
13.72495973863859
 21
-13.85906421975379
 31
0.0
  0
LINE
  5
A4
330
70
100
AcDbEntity
  8
Layer 1
 62
     7
370
     5
100
AcDbLine
 10
10.35280132762148
 20
-19.69281649507136
 30
0.0
 11
10.09263480332937
 21
-19.69281649507136
 31
0.0
  0
LINE
  5
A5
330
70
100
AcDbEntity
  8
Layer 1
 62
     7
370
     5
100
AcDbLine
 10
13.60490116957874
 20
-20.74348899702027
 30
0.0
 11
13.60067223107014
 21
-20.7392600584116
 31
0.0
  0
LINE
  5
A6
330
70
100
AcDbEntity
  8
Layer 1
 62
     7
370
     5
100
AcDbLine
 10
6.720476392312295
 20
-13.85906421975379
 30
0.0
 11
6.724705330920969
 21
-13.86329315836249
 31
0.0
  0
LINE
  5
A7
330
70
100
AcDbEntity
  8
Layer 1
 62
     7
370
     5
100
AcDbLine
 10
9.672721224043735
 20
-16.75127976695532
 30
0.0
 11
9.672721224043735
 21
-16.75127976695532
 31
0.0
  0
LINE
  5
A8
330
70
100
AcDbEntity
  8
Layer 1
 62
     7
370
     5
100
AcDbLine
 10
9.684077331225642
 20
-16.76263587413728
 30
0.0
 11
9.684077331225642
 21
-16.76263587413728
 31
0.0
  0
LINE
  5
A9
330
70
100
AcDbEntity
  8
Layer 1
 62
     7
370
     5
100
AcDbLine
 10
11.14173771453335
 20
-18.21687174632471
 30
0.0
 11
11.11208298188508
 21
-18.18721701367634
 31
0.0
  0
LINE
  5
AA
330
70
100
AcDbEntity
  8
Layer 1
 62
     7
370
     5
100
AcDbLine
 10
9.276748375756268
 20
-16.35188240744752
 30
0.0
 11
9.247093643007916
 21
-16.32222767479925
 31
0.0
  0
LINE
  5
AB
330
70
100
AcDbEntity
  8
Layer 1
 62
     7
370
     5
100
AcDbLine
 10
11.19834248794294
 20
-18.16026697291509
 30
0.0
 11
11.16868775529465
 21
-18.13061224026677
 31
0.0
  0
LINE
  5
AC
330
70
100
AcDbEntity
  8
Layer 1
 62
     7
370
     5
100
AcDbLine
 10
9.333353149165834
 20
-16.2952776340379
 30
0.0
 11
9.303698416417507
 21
-16.26562290138961
 31
0.0
  0
LINE
  5
AD
330
70
100
AcDbEntity
  8
Layer 1
 62
     7
370
     5
100
AcDbLine
 10
9.732750508573657
 20
-16.69125048232538
 30
0.0
 11
9.732750508573657
 21
-16.69125048232538
 31
0.0
  0
LINE
  5
AE
330
70
100
AcDbEntity
  8
Layer 1
 62
     7
370
     5
100
AcDbLine
 10
9.744106615755576
 20
-16.70260658960736
 30
0.0
 11
9.744106615755576
 21
-16.70260658960736
 31
0.0
  0
LINE
  5
AF
330
70
100
AcDbEntity
  8
Layer 1
 62
     7
370
     5
100
AcDbLine
 10
13.72495973863859
 20
-20.62343042796043
 30
0.0
 11
13.72073080012998
 21
-20.61920148935173
 31
0.0
  0
LINE
  5
B0
330
70
100
AcDbEntity
  8
Layer 1
 62
     7
370
     5
100
AcDbLine
 10
6.840534961472156
 20
-13.73900565069395
 30
0.0
 11
6.844763899980787
 21
-13.7432345893027
 31
0.0
  0
LINE
  5
B1
330
70
100
AcDbEntity
  8
Layer 1
 62
     7
370
     5
100
AcDbLine
 10
9.333353149165834
 20
-18.18721701367634
 30
0.0
 11
10.00860209847587
 21
-18.18721701367634
 31
0.0
  0
LINE
  5
B2
330
70
100
AcDbEntity
  8
Layer 1
 62
     7
370
     5
100
AcDbLine
 10
10.43683681445563
 20
-18.18721701367634
 30
0.0
 11
11.11208298188508
 21
-18.18721701367634
 31
0.0
  0
LINE
  5
B3
330
70
100
AcDbEntity
  8
Layer 1
 62
     7
370
     5
100
AcDbLine
 10
10.07262199376845
 20
-18.13919050954329
 30
0.0
 11
10.07262199376845
 21
-18.13919050954329
 31
0.0
  0
LINE
  5
B4
330
70
100
AcDbEntity
  8
Layer 1
 62
     7
370
     5
100
AcDbLine
 10
11.16795755491671
 20
-18.13061224026677
 30
0.0
 11
11.16868775529465
 21
-18.13061224026677
 31
0.0
  0
LINE
  5
B5
330
70
100
AcDbEntity
  8
Layer 1
 62
     7
370
     5
100
AcDbLine
 10
9.277470206276953
 20
-18.13061223916609
 30
0.0
 11
9.276748375756268
 21
-18.13061224026677
 31
0.0
  0
LINE
  5
B6
330
70
100
AcDbEntity
  8
Layer 1
 62
     7
370
     5
100
AcDbLine
 10
9.732750508573657
 20
-17.79124416528884
 30
0.0
 11
10.07262199376845
 21
-17.79124416528884
 31
0.0
  0
LINE
  5
B7
330
70
100
AcDbEntity
  8
Layer 1
 62
     7
370
     5
100
AcDbLine
 10
10.37281413718243
 20
-17.79124416528884
 30
0.0
 11
10.71268562247727
 21
-17.79124416528884
 31
0.0
  0
LINE
  5
B8
330
70
100
AcDbEntity
  8
Layer 1
 62
     7
370
     5
100
AcDbLine
 10
10.70132951519526
 20
-17.77988805810691
 30
0.0
 11
10.41930683957795
 21
-17.77988805810691
 31
0.0
  0
LINE
  5
B9
330
70
100
AcDbEntity
  8
Layer 1
 62
     7
370
     5
100
AcDbLine
 10
10.02612929147296
 20
-17.77988805810691
 30
0.0
 11
9.744106615755576
 21
-17.77988805810691
 31
0.0
  0
LINE
  5
BA
330
70
100
AcDbEntity
  8
Layer 1
 62
     7
370
     5
100
AcDbLine
 10
9.744106615755576
 20
-16.70260658960736
 30
0.0
 11
10.02612929147296
 21
-16.70260658960736
 31
0.0
  0
LINE
  5
BB
330
70
100
AcDbEntity
  8
Layer 1
 62
     7
370
     5
100
AcDbLine
 10
10.41930683957795
 20
-16.70260658960736
 30
0.0
 11
10.70132951519526
 21
-16.70260658960736
 31
0.0
  0
LINE
  5
BC
330
70
100
AcDbEntity
  8
Layer 1
 62
     7
370
     5
100
AcDbLine
 10
10.71268562247727
 20
-16.69125048232538
 30
0.0
 11
10.35644231640223
 21
-16.69125048232538
 31
0.0
  0
LINE
  5
BD
330
70
100
AcDbEntity
  8
Layer 1
 62
     7
370
     5
100
AcDbLine
 10
10.0889938146487
 20
-16.69125048232538
 30
0.0
 11
9.732750508573657
 21
-16.69125048232538
 31
0.0
  0
LINE
  5
BE
330
70
100
AcDbEntity
  8
Layer 1
 62
     7
370
     5
100
AcDbLine
 10
10.35280132762148
 20
-16.69089506093147
 30
0.0
 11
10.09263480332937
 21
-16.69089506093147
 31
0.0
  0
LINE
  5
BF
330
70
100
AcDbEntity
  8
Layer 1
 62
     7
370
     5
100
AcDbLine
 10
11.16796592477396
 20
-16.35188240994908
 30
0.0
 11
11.16868775529465
 21
-16.35188240744752
 31
0.0
  0
LINE
  5
C0
330
70
100
AcDbEntity
  8
Layer 1
 62
     7
370
     5
100
AcDbLine
 10
9.277478576134221
 20
-16.35188240744752
 30
0.0
 11
9.276748375756268
 21
-16.35188240744752
 31
0.0
  0
LINE
  5
C1
330
70
100
AcDbEntity
  8
Layer 1
 62
     7
370
     5
100
AcDbLine
 10
9.334045434475582
 20
-16.29596987892174
 30
0.0
 11
11.11139069647524
 21
-16.29596987892174
 31
0.0
  0
LINE
  5
C2
330
70
100
AcDbEntity
  8
Layer 1
 62
     7
370
     5
100
AcDbLine
 10
11.11208298188508
 20
-16.2952776340379
 30
0.0
 11
9.333353149165834
 21
-16.2952776340379
 31
0.0
  0
LINE
  5
C3
330
70
100
AcDbEntity
  8
Layer 1
 62
     7
370
     5
100
AcDbLine
 10
13.60490116957874
 20
-13.73900565069395
 30
0.0
 11
6.840534961472156
 21
-13.73900565069395
 31
0.0
  0
LINE
  5
C4
330
70
100
AcDbEntity
  8
Layer 1
 62
     7
370
     5
100
AcDbLine
 10
6.720476392312295
 20
-3.917597189970188
 30
0.0
 11
6.725355195578609
 21
-4.197103636729707
 31
0.0
  0
LWPOLYLINE
  5
C5
330
70
100
AcDbEntity
  8
Layer 1
 62
     7
370
     5
100
AcDbPolyline
 90
       16
 70
     0
 43
0.0
 10
8.680329463838296
 20
-4.27335325057494
 10
8.680167912734569
 20
-4.274032870377873
 10
8.680222988086534
 20
-4.274650101547851
 10
8.680382805680677
 20
-4.2752081188169
 10
8.680483180127174
 20
-4.275708198501964
 10
8.680458285993228
 20
-4.276154752126696
 10
8.680424922738463
 20
-4.276555022126747
 10
8.680559005560603
 20
-4.276911931873288
 10
8.680639285645307
 20
-4.277226301090978
 10
8.680456813750879
 20
-4.277501576686113
 10
8.680380044113096
 20
-4.277742656593671
 10
8.680536797145704
 20
-4.277947106855776
 10
8.680478471813518
 20
-4.278107301691382
 10
8.680162916036312
 20
-4.27822139501888
 10
8.680064458416772
 20
-4.278293028769351
 10
8.680486445617297
 20
-4.278322665438887
  0
LWPOLYLINE
  5
C6
330
70
100
AcDbEntity
  8
Layer 1
 62
     7
370
     5
100
AcDbPolyline
 90
       13
 70
     0
 43
0.0
 10
8.947295505184355
 20
-5.051653358143716
 10
8.947207738007351
 20
-5.051721990673197
 10
8.947116777986757
 20
-5.051770928596813
 10
8.947029895275893
 20
-5.05180787404442
 10
8.946957565279754
 20
-5.051843241181788
 10
8.946899474097499
 20
-5.051878177043097
 10
8.946844931486452
 20
-5.051904909953994
 10
8.94679597895352
 20
-5.051925886980736
 10
8.946757841542977
 20
-5.051947176907699
 10
8.946722848344949
 20
-5.051964444260028
 10
8.946690235070237
 20
-5.05197746039121
 10
8.946664062618056
 20
-5.051990324725263
 10
8.946641182873488
 20
-5.052001995495376
  0
LINE
  5
C7
330
70
100
AcDbEntity
  8
Layer 1
 62
     7
370
     5
100
AcDbLine
 10
8.947295505184355
 20
-5.051653358143716
 30
0.0
 11
8.946557701239548
 21
-5.05203521695935
 31
0.0
  0
LWPOLYLINE
  5
C8
330
70
100
AcDbEntity
  8
Layer 1
 62
     7
370
     5
100
AcDbPolyline
 90
        6
 70
     0
 43
0.0
 10
8.946641182873488
 20
-5.052001995495376
 10
8.946600913098096
 20
-5.052018258304642
 10
8.946586522987432
 20
-5.052025518651778
 10
8.946574193595804
 20
-5.052030584794477
 10
8.946564051103917
 20
-5.052033083593831
 10
8.946559310769808
 20
-5.052035329431368
  0
LINE
  5
C9
330
70
100
AcDbEntity
  8
Layer 1
 62
     7
370
     5
100
AcDbLine
 10
10.35280132762148
 20
-9.933447743986461
 30
0.0
 11
10.09263480332937
 21
-9.933447743986461
 31
0.0
  0
LINE
  5
CA
330
70
100
AcDbEntity
  8
Layer 1
 62
     7
370
     5
100
AcDbLine
 10
8.924917227262552
 20
-5.006873971987247
 30
0.0
 11
8.924986690323635
 21
-5.008915300476486
 31
0.0
  0
LINE
  5
CB
330
70
100
AcDbEntity
  8
Layer 1
 62
     7
370
     5
100
AcDbLine
 10
8.680329463838296
 20
-4.27335325057494
 30
0.0
 11
8.680486445617297
 21
-4.278322665438887
 31
0.0
  0
LINE
  5
CC
330
70
100
AcDbEntity
  8
Layer 1
 62
     7
370
     5
100
AcDbLine
 10
8.924922768509366
 20
-5.006812823748191
 30
0.0
 11
8.924900616830756
 21
-5.005922359290277
 31
0.0
  0
LINE
  5
CD
330
70
100
AcDbEntity
  8
Layer 1
 62
     7
370
     5
100
AcDbLine
 10
8.92491454964872
 20
-5.006720573101498
 30
0.0
 11
8.924917133302415
 21
-5.006868587140577
 31
0.0
  0
LINE
  5
CE
330
70
100
AcDbEntity
  8
Layer 1
 62
     7
370
     5
100
AcDbLine
 10
8.924900616830756
 20
-5.005922359290277
 30
0.0
 11
8.922152010135315
 21
-4.84845478832181
 31
0.0
  0
LINE
  5
CF
330
70
100
AcDbEntity
  8
Layer 1
 62
     7
370
     5
100
AcDbLine
 10
8.921370601580594
 20
-4.708627075163525
 30
0.0
 11
8.917891229445482
 21
-4.509293977907266
 31
0.0
  0
LINE
  5
D0
330
70
100
AcDbEntity
  8
Layer 1
 62
     7
370
     5
100
AcDbLine
 10
9.714091973540663
 20
-9.583223576670118
 30
0.0
 11
10.02612929147296
 21
-9.583223576670118
 31
0.0
  0
LINE
  5
D1
330
70
100
AcDbEntity
  8
Layer 1
 62
     7
370
     5
100
AcDbLine
 10
10.41930683957795
 20
-9.583223576670118
 30
0.0
 11
10.73134415751026
 21
-9.583223576670118
 31
0.0
  0
LINE
  5
D2
330
70
100
AcDbEntity
  8
Layer 1
 62
     7
370
     5
100
AcDbLine
 10
8.924986706934305
 20
-5.008916253486467
 30
0.0
 11
8.925217092696874
 21
-5.011945435869443
 31
0.0
  0
LWPOLYLINE
  5
D3
330
70
100
AcDbEntity
  8
Layer 1
 62
     7
370
     5
100
AcDbPolyline
 90
        8
 70
     0
 43
0.0
 10
9.244280373123615
 20
-5.865933271238165
 10
9.244574952074204
 20
-5.873613481095465
 10
9.244850998262576
 20
-5.881323542759964
 10
9.245109390050906
 20
-5.889067487011604
 10
9.245350822684219
 20
-5.896841909871682
 10
9.245576109182934
 20
-5.904643473903913
 10
9.245786362959645
 20
-5.912475819438415
 10
9.245983139610112
 20
-5.920357881594933
  0
LINE
  5
D4
330
70
100
AcDbEntity
  8
Layer 1
 62
     7
370
     5
100
AcDbLine
 10
9.245983139610112
 20
-5.920357881594933
 30
0.0
 11
9.246337833938644
 21
-5.936125141314846
 31
0.0
  0
LINE
  5
D5
330
70
100
AcDbEntity
  8
Layer 1
 62
     7
370
     5
100
AcDbLine
 10
9.246337833938644
 20
-5.936125141314846
 30
0.0
 11
9.246644365839907
 21
-5.951536891684605
 31
0.0
  0
LINE
  5
D6
330
70
100
AcDbEntity
  8
Layer 1
 62
     7
370
     5
100
AcDbLine
 10
9.296348473453488
 20
-8.833455021037517
 30
0.0
 11
9.277440620540067
 21
-7.750224856767557
 31
0.0
  0
LINE
  5
D7
330
70
100
AcDbEntity
  8
Layer 1
 62
     7
370
     5
100
AcDbLine
 10
9.276748375756268
 20
-7.675526092571746
 30
0.0
 11
9.247093643007916
 21
-5.976607594941911
 31
0.0
  0
LWPOLYLINE
  5
D8
330
70
100
AcDbEntity
  8
Layer 1
 62
     7
370
     5
100
AcDbPolyline
 90
        3
 70
     0
 43
0.0
 10
9.246644365839907
 20
-5.951536891684605
 10
9.24707645230468
 20
-5.975623373973474
 10
9.247093599379985
 20
-5.976607596042627
  0
LINE
  5
D9
330
70
100
AcDbEntity
  8
Layer 1
 62
     7
370
     5
100
AcDbLine
 10
9.182210300850556
 20
-4.738122381968423
 30
0.0
 11
9.180551007589871
 21
-4.833183227382846
 31
0.0
  0
LWPOLYLINE
  5
DA
330
70
100
AcDbEntity
  8
Layer 1
 62
     7
370
     5
100
AcDbPolyline
 90
       16
 70
     0
 43
0.0
 10
11.76494968543363
 20
-4.278322665438887
 10
11.76497739927237
 20
-4.278300208564902
 10
11.76495890073206
 20
-4.278234534228886
 10
11.7649570021168
 20
-4.278125205050754
 10
11.76511087740747
 20
-4.277968532469647
 10
11.76519122853765
 20
-4.277766409697252
 10
11.76497844324058
 20
-4.277526606106637
 10
11.76484757667707
 20
-4.277250057896972
 10
11.76496425455886
 20
-4.27693324271369
 10
11.76501048004632
 20
-4.276577352619761
 10
11.76478400468666
 20
-4.276187457760506
 10
11.76472901418899
 20
-4.275755324665914
 10
11.76505172874831
 20
-4.275261128346616
 10
11.76546847069153
 20
-4.274695568549835
 10
11.76559393609793
 20
-4.274060919331114
 10
11.76510666721263
 20
-4.27335325057494
  0
LINE
  5
DB
330
70
100
AcDbEntity
  8
Layer 1
 62
     7
370
     5
100
AcDbLine
 10
9.878988840564513
 20
-8.862188662124481
 30
0.0
 11
9.843977292089334
 21
-8.86277926595115
 31
0.0
  0
LINE
  5
DC
330
70
100
AcDbEntity
  8
Layer 1
 62
     7
370
     5
100
AcDbLine
 10
10.0921153887687
 20
-9.182967385451471
 30
0.0
 11
10.35332074228226
 21
-9.182967385451471
 31
0.0
  0
LINE
  5
DD
330
70
100
AcDbEntity
  8
Layer 1
 62
     7
370
     5
100
AcDbLine
 10
10.75270514549721
 20
-8.882775242037533
 30
0.0
 11
9.69273098555373
 21
-8.882775242037533
 31
0.0
  0
LINE
  5
DE
330
70
100
AcDbEntity
  8
Layer 1
 62
     7
370
     5
100
AcDbLine
 10
9.326360132559051
 20
-8.862779387428897
 30
0.0
 11
9.843977306398489
 21
-8.862779387428897
 31
0.0
  0
LINE
  5
DF
330
70
100
AcDbEntity
  8
Layer 1
 62
     7
370
     5
100
AcDbLine
 10
10.60146048641607
 20
-8.862779387428897
 30
0.0
 11
11.11907599849186
 21
-8.862779387428897
 31
0.0
  0
LINE
  5
E0
330
70
100
AcDbEntity
  8
Layer 1
 62
     7
370
     5
100
AcDbLine
 10
9.878998061266454
 20
-8.862762432476566
 30
0.0
 11
10.56643806968446
 21
-8.862762432476566
 31
0.0
  0
LINE
  5
E1
330
70
100
AcDbEntity
  8
Layer 1
 62
     7
370
     5
100
AcDbLine
 10
10.58308276192094
 20
-8.862461707291988
 30
0.0
 11
10.56406291622447
 21
-8.862149335352643
 31
0.0
  0
LINE
  5
E2
330
70
100
AcDbEntity
  8
Layer 1
 62
     7
370
     5
100
AcDbLine
 10
10.60146048641607
 20
-8.862779387428897
 30
0.0
 11
10.57448770840137
 21
-8.862318549361159
 31
0.0
  0
LINE
  5
E3
330
70
100
AcDbEntity
  8
Layer 1
 62
     7
370
     5
100
AcDbLine
 10
8.925217088093884
 20
-5.011945171400181
 30
0.0
 11
8.925759392505671
 21
-5.01594382020773
 31
0.0
  0
LINE
  5
E4
330
70
100
AcDbEntity
  8
Layer 1
 62
     7
370
     5
100
AcDbLine
 10
9.684077331225642
 20
-9.553728269865258
 30
0.0
 11
9.672721224043735
 21
-8.903137323256094
 31
0.0
  0
LINE
  5
E5
330
70
100
AcDbEntity
  8
Layer 1
 62
     7
370
     5
100
AcDbLine
 10
9.507260123672127
 20
-7.740043816108267
 30
0.0
 11
9.507260123672127
 21
-7.705021399376631
 31
0.0
  0
LINE
  5
E6
330
70
100
AcDbEntity
  8
Layer 1
 62
     7
370
     5
100
AcDbLine
 10
9.878998061266454
 20
-8.862762432476566
 30
0.0
 11
9.878998061266454
 21
-8.86218851392962
 31
0.0
  0
LINE
  5
E7
330
70
100
AcDbEntity
  8
Layer 1
 62
     7
370
     5
100
AcDbLine
 10
10.07262199376845
 20
-9.913434934425518
 30
0.0
 11
10.07262199376845
 21
-9.202980195012425
 31
0.0
  0
LINE
  5
E8
330
70
100
AcDbEntity
  8
Layer 1
 62
     7
370
     5
100
AcDbLine
 10
10.05614393368788
 20
-9.553728269865258
 30
0.0
 11
10.06210074655377
 21
-9.212462692256394
 31
0.0
  0
LINE
  5
E9
330
70
100
AcDbEntity
  8
Layer 1
 62
     7
370
     5
100
AcDbLine
 10
10.3833353844972
 20
-9.212462692256394
 30
0.0
 11
10.38929219736306
 21
-9.553728269865258
 31
0.0
  0
LINE
  5
EA
330
70
100
AcDbEntity
  8
Layer 1
 62
     7
370
     5
100
AcDbLine
 10
10.37281413718243
 20
-9.202980195012425
 30
0.0
 11
10.37281413718243
 21
-9.913434934425518
 31
0.0
  0
LINE
  5
EB
330
70
100
AcDbEntity
  8
Layer 1
 62
     7
370
     5
100
AcDbLine
 10
10.56643806968446
 20
-8.862762432476566
 30
0.0
 11
10.56643806968446
 21
-8.86218765948273
 31
0.0
  0
LINE
  5
EC
330
70
100
AcDbEntity
  8
Layer 1
 62
     7
370
     5
100
AcDbLine
 10
9.28744550134508
 20
-7.740043816108267
 30
0.0
 11
11.15799062970585
 21
-7.740043816108267
 31
0.0
  0
LINE
  5
ED
330
70
100
AcDbEntity
  8
Layer 1
 62
     7
370
     5
100
AcDbLine
 10
11.13867311307972
 20
-7.705021399376631
 30
0.0
 11
9.30676301797118
 21
-7.705021399376631
 31
0.0
  0
LINE
  5
EE
330
70
100
AcDbEntity
  8
Layer 1
 62
     7
370
     5
100
AcDbLine
 10
10.93817600727875
 20
-7.740043816108267
 30
0.0
 11
10.93817600727875
 21
-7.705021399376631
 31
0.0
  0
LINE
  5
EF
330
70
100
AcDbEntity
  8
Layer 1
 62
     7
370
     5
100
AcDbLine
 10
10.76135879982527
 20
-9.553728269865258
 30
0.0
 11
10.77271490700717
 21
-8.903137323256094
 31
0.0
  0
LINE
  5
F0
330
70
100
AcDbEntity
  8
Layer 1
 62
     7
370
     5
100
AcDbLine
 10
11.26322583020037
 20
-4.738122381968423
 30
0.0
 11
11.26488512336098
 21
-4.833183227382846
 31
0.0
  0
LINE
  5
F1
330
70
100
AcDbEntity
  8
Layer 1
 62
     7
370
     5
100
AcDbLine
 10
11.16868775529465
 20
-7.675526092571746
 30
0.0
 11
11.19834248794294
 21
-5.976607594941911
 31
0.0
  0
LINE
  5
F2
330
70
100
AcDbEntity
  8
Layer 1
 62
     7
370
     5
100
AcDbLine
 10
11.14908765759744
 20
-8.833455021037517
 30
0.0
 11
11.16799551051085
 21
-7.750224856767557
 31
0.0
  0
LINE
  5
F3
330
70
100
AcDbEntity
  8
Layer 1
 62
     7
370
     5
100
AcDbLine
 10
11.19834253157089
 20
-5.976607596042627
 30
0.0
 11
11.19869856295522
 21
-5.956579232025774
 31
0.0
  0
LINE
  5
F4
330
70
100
AcDbEntity
  8
Layer 1
 62
     7
370
     5
100
AcDbLine
 10
11.19942394414857
 20
-5.919933193865845
 30
0.0
 11
11.19923354347918
 21
-5.92991148805365
 31
0.0
  0
LINE
  5
F5
330
70
100
AcDbEntity
  8
Layer 1
 62
     7
370
     5
100
AcDbLine
 10
11.19869856295522
 20
-5.956579232025774
 30
0.0
 11
11.19894642480367
 21
-5.943551256434235
 31
0.0
  0
LWPOLYLINE
  5
F6
330
70
100
AcDbEntity
  8
Layer 1
 62
     7
370
     5
100
AcDbPolyline
 90
        9
 70
     0
 43
0.0
 10
11.19894642480367
 20
-5.943551256434235
 10
11.19928013830302
 20
-5.927775540301669
 10
11.19946636039786
 20
-5.919804083826672
 10
11.1996658861079
 20
-5.911854793739672
 10
11.19987936604963
 20
-5.90395079574273
 10
11.20010828477317
 20
-5.896077316279716
 10
11.20035378050717
 20
-5.88823074083709
 10
11.20061668648487
 20
-5.880414472793277
 10
11.20089771526245
 20
-5.872631973363682
  0
LINE
  5
F7
330
70
100
AcDbEntity
  8
Layer 1
 62
     7
370
     5
100
AcDbLine
 10
11.19945726077349
 20
-5.917193060093646
 30
0.0
 11
11.1991752414619
 21
-5.929908791627718
 31
0.0
  0
LINE
  5
F8
330
70
100
AcDbEntity
  8
Layer 1
 62
     7
370
     5
100
AcDbLine
 10
11.19949806228922
 20
-5.917195288520006
 30
0.0
 11
11.19942394414857
 21
-5.919933193865845
 31
0.0
  0
LWPOLYLINE
  5
F9
330
70
100
AcDbEntity
  8
Layer 1
 62
     7
370
     5
100
AcDbPolyline
 90
      151
 70
     0
 43
0.0
 10
11.20089771526245
 20
-5.872631973363682
 10
11.20119776491465
 20
-5.864879217071688
 10
11.20151740820813
 20
-5.857159097269332
 10
11.20185711724502
 20
-5.849474601468702
 10
11.20221762309333
 20
-5.841821423013331
 10
11.20259930369492
 20
-5.834202027481321
 10
11.20300245053633
 20
-5.826618998826612
 10
11.20342768531557
 20
-5.819067852578819
 10
11.20387524208237
 20
-5.811550693785281
 10
11.20434527943829
 20
-5.804069766482408
 10
11.20483835333916
 20
-5.796620495441667
 10
11.20535459386825
 20
-5.789204683316913
 10
11.2058940648664
 20
-5.781824287861202
 10
11.20645728796757
 20
-5.774474717935984
 10
11.20704432130888
 20
-5.767157522832828
 10
11.20765516288908
 20
-5.759874420651448
 10
11.20829032343508
 20
-5.752620866582926
 10
11.2089498134536
 20
-5.745398199584226
 10
11.20963358781576
 20
-5.73820793692649
 10
11.2103421624518
 20
-5.731045633064291
 10
11.21107551874975
 20
-5.723912452342864
 10
11.21183358596439
 20
-5.716809745526839
 10
11.21261689533571
 20
-5.709733208761412
 10
11.21342541384264
 20
-5.702683863700536
 10
11.21425905763143
 20
-5.695662922820247
 10
11.21511837985618
 20
-5.688666259279139
 10
11.21600334649511
 20
-5.681694750238635
 10
11.21691386749053
 20
-5.674749522920162
 10
11.2178505084045
 20
-5.66782673946736
 10
11.21881352620144
 20
-5.660925148679274
 10
11.21980256315246
 20
-5.654047817118743
 10
11.22081727453684
 20
-5.647197336444618
 10
11.22185752356706
 20
-5.640374624644461
 10
11.2229231744562
 20
-5.63358045861552
 10
11.22401381444006
 20
-5.626817191263878
 10
11.22512907838492
 20
-5.620086613735931
 10
11.22626891165585
 20
-5.613388497885655
 10
11.22743334397185
 20
-5.606722134559175
 10
11.22862215889433
 20
-5.600088215399156
 10
11.22983511506887
 20
-5.593487475376036
 10
11.23107222240181
 20
-5.586919238557229
 10
11.23233324454183
 20
-5.580384134545599
 10
11.23361792082216
 20
-5.573882838273283
 10
11.23492624253715
 20
-5.567414713532962
 10
11.23625795692505
 20
-5.560980333591676
 10
11.23761278700856
 20
-5.554580319146591
 10
11.23899070567034
 20
-5.548214081521008
 10
11.2403914464398
 20
-5.541882141848392
 10
11.24181471853085
 20
-5.535585072395153
 10
11.2432604752136
 20
-5.529322341520924
 10
11.2447284390104
 20
-5.523094420627456
 10
11.24621830672719
 20
-5.516901839854072
 10
11.24773000861935
 20
-5.510744139206305
 10
11.24926325880384
 20
-5.504621740354132
 10
11.25081774237923
 20
-5.498535138814657
 10
11.25239335908117
 20
-5.492483970154668
 10
11.25398965722069
 20
-5.486469201893391
 10
11.25560646408721
 20
-5.480490703447293
 10
11.25724413270662
 20
-5.474546457324966
 10
11.25890204448309
 20
-5.468638018021465
 10
11.26058021912912
 20
-5.462764612441914
 10
11.26228007235096
 20
-5.456920760678813
 10
11.26400233931909
 20
-5.451103639725311
 10
11.26574585388713
 20
-5.44531687880428
 10
11.2675091996485
 20
-5.439564671900143
 10
11.26929213935134
 20
-5.433847181116712
 10
11.27109431696772
 20
-5.428164927487411
 10
11.27291402000157
 20
-5.422522567993117
 10
11.27475083108579
 20
-5.416920536511497
 10
11.27660442991523
 20
-5.411358946114912
 10
11.27847313391304
 20
-5.405841889322838
 10
11.28035647447927
 20
-5.400369696646899
 10
11.28225406396574
 20
-5.394942443435284
 10
11.28416424060889
 20
-5.389563755708851
 10
11.28608650899153
 20
-5.384233822788827
 10
11.28802041092044
 20
-5.37895271632106
 10
11.28996425111054
 20
-5.373723799958548
 10
11.29191753294393
 20
-5.368547079204719
 10
11.2938797184763
 20
-5.363422660027481
 10
11.2958489653284
 20
-5.358353967318976
 10
11.29782477708243
 20
-5.353340834672722
 10
11.29980654264739
 20
-5.34838338076463
 10
11.30179216237923
 20
-5.343485357296091
 10
11.30378105130357
 20
-5.338646642689202
 10
11.30577261493992
 20
-5.33386713627965
 10
11.30776465287984
 20
-5.329150511818826
 10
11.30975623092544
 20
-5.324497301947594
 10
11.31174704107949
 20
-5.319906569666335
 10
11.31373576649921
 20
-5.315379699160985
 10
11.31572190176098
 20
-5.31091618440756
 10
11.31770472520304
 20
-5.306516013598588
 10
11.3196825598519
 20
-5.302181248653823
 10
11.32165562514803
 20
-5.297909763012171
 10
11.32362248036933
 20
-5.293703054132024
 10
11.32557885047941
 20
-5.289568496133344
 10
11.32752120461833
 20
-5.285511567923044
 10
11.32945167585136
 20
-5.281525865702203
 10
11.33137450659397
 20
-5.277600990014497
 10
11.3332857088936
 20
-5.273743517369299
 10
11.33518812516956
 20
-5.269946171709471
 10
11.33709664945508
 20
-5.266178323129818
 10
11.33901027590629
 20
-5.262441540134255
 10
11.3409295338621
 20
-5.258734372094282
 10
11.34287225923862
 20
-5.255022540869516
 10
11.34485733692352
 20
-5.25127128511033
 10
11.34686635493186
 20
-5.247516722734783
 10
11.34886082242688
 20
-5.243830336096278
 10
11.35083386460823
 20
-5.240223026472486
 10
11.35279117271872
 20
-5.236682618670392
 10
11.35471205281278
 20
-5.233244422690833
 10
11.356581265236
 20
-5.229932698461841
 10
11.35841226379977
 20
-5.226720689057085
 10
11.36022740541403
 20
-5.223567305176616
 10
11.36201519342009
 20
-5.220490998430831
 10
11.36378618187331
 20
-5.217472117341369
 10
11.36559693507869
 20
-5.214414397292316
 10
11.36744895839969
 20
-5.211316849350711
 10
11.36934154328293
 20
-5.208182232782633
 10
11.37132949650836
 20
-5.204922690653701
 10
11.37341391367725
 20
-5.201540809519479
 10
11.37559611093211
 20
-5.198039007227584
 10
11.37793289383229
 20
-5.194332392641803
 10
11.38043012042738
 20
-5.190419947810684
 10
11.38308643494959
 20
-5.186312538589087
 10
11.38594958566099
 20
-5.181946887375033
 10
11.38902815955792
 20
-5.177322770525367
 10
11.39232028684356
 20
-5.172456651878026
 10
11.3958595870367
 20
-5.167314214167731
 10
11.39965163330453
 20
-5.161904845203252
 10
11.40369932560323
 20
-5.156242886464054
 10
11.40803357611874
 20
-5.150305655031653
 10
11.41270243520649
 20
-5.144052140156266
 10
11.41766833251893
 20
-5.137558836799977
 10
11.42283181299807
 20
-5.130976042363259
 10
11.42828179415714
 20
-5.124210513363954
 10
11.43393466648035
 20
-5.117386742886196
 10
11.43942103703112
 20
-5.110948472554784
 10
11.44458997100085
 20
-5.105045727996247
 10
11.44957871963969
 20
-5.099496089349637
 10
11.45444366223421
 20
-5.094221359763511
 10
11.45919413305907
 20
-5.089199593491128
 10
11.46381384769102
 20
-5.084436579437768
 10
11.46832250533893
 20
-5.079901326867292
 10
11.47272080745179
 20
-5.075583760530813
 10
11.47700306438784
 20
-5.071480387692796
 10
11.48118011598532
 20
-5.067572356086442
 10
11.48526514808403
 20
-5.063840048655505
 10
11.48924139475269
 20
-5.060291712278613
 10
11.49307491636756
 20
-5.056949303909643
 10
11.49675329808231
 20
-5.053814330212983
 10
11.49887837727774
 20
-5.05203529050641
  0
LWPOLYLINE
  5
FA
330
70
100
AcDbEntity
  8
Layer 1
 62
     7
370
     5
100
AcDbPolyline
 90
        4
 70
     0
 43
0.0
 10
11.51967673854525
 20
-5.01594382020773
 10
11.52021904295701
 20
-5.011945171400181
 10
11.52044944072728
 20
-5.008915300476486
 10
11.52051890378835
 20
-5.006873971987247
  0
LWPOLYLINE
  5
FB
330
70
100
AcDbEntity
  8
Layer 1
 62
     7
370
     5
100
AcDbPolyline
 90
      152
 70
     0
 43
0.0
 10
8.952548420808044
 20
-5.057110741440649
 10
8.957898343222696
 20
-5.061801798236425
 10
8.963241789792403
 20
-5.066637457287533
 10
8.968552875448848
 20
-5.071593854018942
 10
8.973758561142201
 20
-5.076598371751111
 10
8.978848150425934
 20
-5.081632919404429
 10
8.98383109945261
 20
-5.086699175853545
 10
8.988666177231644
 20
-5.091746415330551
 10
8.993329052689469
 20
-5.096737982473414
 10
8.997845186422637
 20
-5.101690160504593
 10
9.002248362855386
 20
-5.10663153001758
 10
9.006546962451832
 20
-5.111564769826978
 10
9.010733327710681
 20
-5.116474478374761
 10
9.014816729966177
 20
-5.12136505007369
 10
9.018798837286023
 20
-5.126232475557444
 10
9.022679064595736
 20
-5.131070125082601
 10
9.026463195597266
 20
-5.135879530529564
 10
9.030155837739711
 20
-5.140661282076179
 10
9.033753667695892
 20
-5.145405886646218
 10
9.037250689828169
 20
-5.150099944262769
 10
9.04065342170832
 20
-5.154746759540949
 10
9.043957140113041
 20
-5.159334530226614
 10
9.047139586495454
 20
-5.163826104339919
 10
9.050191805823688
 20
-5.168201616165447
 10
9.053125746745649
 20
-5.172471168569712
 10
9.055950804074717
 20
-5.176642195410951
 10
9.05867134020309
 20
-5.180715415549204
 10
9.061285569287759
 20
-5.184682586708908
 10
9.063793544362573
 20
-5.18853824859506
 10
9.066192401294351
 20
-5.192272466348716
 10
9.068487659015632
 20
-5.195888477342009
 10
9.070691782904974
 20
-5.199401167202696
 10
9.072798880290809
 20
-5.202796659749171
 10
9.074817088781703
 20
-5.206083728697105
 10
9.076779267809872
 20
-5.209312678344745
 10
9.078680942210969
 20
-5.212473682202496
 10
9.08052782133936
 20
-5.215573817800392
 10
9.082366916185314
 20
-5.218690886736794
 10
9.084196846565406
 20
-5.221822554817612
 10
9.086018863480274
 20
-5.224970968516749
 10
9.087882541361055
 20
-5.228223094398786
 10
9.089810387413825
 20
-5.231621460584556
 10
9.091777935078312
 20
-5.235126308425833
 10
9.093763909136908
 20
-5.238701980599557
 10
9.095780993508304
 20
-5.242373407863005
 10
9.09781520754379
 20
-5.246117286200083
 10
9.099806745463675
 20
-5.249823489322466
 10
9.101731675249828
 20
-5.253444853942444
 10
9.103615195130789
 20
-5.257026197246028
 10
9.10547203233308
 20
-5.260594133868431
 10
9.10729603161682
 20
-5.264135696109418
 10
9.109093812819208
 20
-5.267662599767933
 10
9.110898392272954
 20
-5.271239677441244
 10
9.112714275661952
 20
-5.27487709383542
 10
9.114536035412243
 20
-5.278565227291992
 10
9.116380821701113
 20
-5.282340487115334
 10
9.11825535142778
 20
-5.286219189348937
 10
9.120151164477242
 20
-5.290186462573956
 10
9.122062389791569
 20
-5.294232265663405
 10
9.123988993549206
 20
-5.298358660337044
 10
9.125929492500656
 20
-5.302564644153082
 10
9.127876113270531
 20
-5.306835279650613
 10
9.129826024546533
 20
-5.311165924958522
 10
9.131780865677948
 20
-5.31556181372668
 10
9.133739738890199
 20
-5.320022624849571
 10
9.135702352196377
 20
-5.324549418805948
 10
9.137667725268947
 20
-5.329141685169171
 10
9.139633958091874
 20
-5.333796687187448
 10
9.14160059337237
 20
-5.338515015538872
 10
9.14356684220551
 20
-5.343296473997889
 10
9.145530383105411
 20
-5.348137041991031
 10
9.147490596475423
 20
-5.353036748236692
 10
9.149446924858844
 20
-5.357995773450511
 10
9.151397232588616
 20
-5.363010212633057
 10
9.153340926485068
 20
-5.3680799773277
 10
9.155277498222819
 20
-5.373205191313647
 10
9.157205030674845
 20
-5.37838216572983
 10
9.159123009411889
 20
-5.383610832832838
 10
9.161030927709488
 20
-5.388891134285358
 10
9.162926972807465
 20
-5.394219301875422
 10
9.16481070842653
 20
-5.399595282268996
 10
9.166681642251621
 20
-5.405018848720853
 10
9.16853797833312
 20
-5.410485882294614
 10
9.170379351337233
 20
-5.415996306341222
 10
9.172205309774968
 20
-5.421549768435144
 10
9.174014041386373
 20
-5.427141646718028
 10
9.175805252283312
 20
-5.432771814408763
 10
9.177578553216664
 20
-5.438439826122261
 10
9.179332119318384
 20
-5.444140493937829
 10
9.181065447166247
 20
-5.449872675424317
 10
9.182778521750618
 20
-5.455636802558211
 10
9.18447035633998
 20
-5.46142998288811
 10
9.186139879548527
 20
-5.467248815537295
 10
9.187787763106193
 20
-5.473095895766795
 10
9.189415589826163
 20
-5.478977332686932
 10
9.191023537422122
 20
-5.484894472859561
 10
9.192610841504839
 20
-5.490845195827469
 10
9.194177573820221
 20
-5.496830436088846
 10
9.195723482206831
 20
-5.502849924571389
 10
9.197248245759357
 20
-5.508903088608563
 10
9.198751811143576
 20
-5.51499039840136
 10
9.200233887373288
 20
-5.521111363435807
 10
9.201694209679013
 20
-5.527265558839935
 10
9.203132748942088
 20
-5.533453539368868
 10
9.204549224282748
 20
-5.539674780987145
 10
9.205943378236243
 20
-5.545928812893483
 10
9.207315200095674
 20
-5.552216254484215
 10
9.208664419487933
 20
-5.558536541098027
 10
9.209990788954717
 20
-5.564889155403799
 10
9.211294313399131
 20
-5.571274768931301
 10
9.212574734655932
 20
-5.577692770389262
 10
9.21383181797484
 20
-5.584142593115049
 10
9.215065582568209
 20
-5.590624952366409
 10
9.216275785380426
 20
-5.597139184718697
 10
9.21746220657077
 20
-5.603684669674786
 10
9.218624880761428
 20
-5.610262159316081
 10
9.219763582608152
 20
-5.616870932781125
 10
9.220878110782058
 20
-5.623510309634462
 10
9.22196851611573
 20
-5.630181070875917
 10
9.223034810116523
 20
-5.636883804181656
 10
9.224076586524359
 20
-5.643616388193852
 10
9.225093304292967
 20
-5.650375510892684
 10
9.226084730673379
 20
-5.657159565349502
 10
9.227050883777122
 20
-5.663968506435467
 10
9.227991659437646
 20
-5.670801338513316
 10
9.22890677257236
 20
-5.677655518855456
 10
9.229796407699419
 20
-5.684531812751843
 10
9.230661131181324
 20
-5.691434133807306
 10
9.231500858463972
 20
-5.698361406433542
 10
9.232315552123395
 20
-5.705312741961657
 10
9.233105753706201
 20
-5.712292247920723
 10
9.233871381259973
 20
-5.719298736250392
 10
9.234612401463373
 20
-5.726331203808513
 10
9.235329334049044
 20
-5.73339392693227
 10
9.236022109172292
 20
-5.740485580573527
 10
9.236690708121159
 20
-5.747605021400456
 10
9.237335635018313
 20
-5.754756661637189
 10
9.237956845135082
 20
-5.761939011530229
 10
9.238554348377835
 20
-5.769150756838345
 10
9.239128643365738
 20
-5.776396405847107
 10
9.239679727997453
 20
-5.783674270876316
 10
9.240207658408849
 20
-5.790982831052511
 10
9.240712944426313
 20
-5.798326642091688
 10
9.241195647989469
 20
-5.805703779361906
 10
9.241655896079565
 20
-5.813112474431236
 10
9.24209423184431
 20
-5.820557270607764
 10
9.242510810082736
 20
-5.828035961779404
 10
9.242905859141059
 20
-5.83554648282432
 10
9.243279987208476
 20
-5.843093294897938
 10
9.243633478567035
 20
-5.850673856773785
 10
9.243966702052778
 20
-5.858285750404029
 10
9.244280373123627
 20
-5.865933271238165
  0
LINE
  5
FC
330
70
100
AcDbEntity
  8
Layer 1
 62
     7
370
     5
100
AcDbLine
 10
11.52406552947032
 20
-4.708627075163525
 30
0.0
 11
11.52754490160542
 21
-4.509293977907266
 31
0.0
  0
LINE
  5
FD
330
70
100
AcDbEntity
  8
Layer 1
 62
     7
370
     5
100
AcDbLine
 10
11.52052158130215
 20
-5.006720573101498
 30
0.0
 11
11.52051899774852
 21
-5.006868587140577
 31
0.0
  0
LINE
  5
FE
330
70
100
AcDbEntity
  8
Layer 1
 62
     7
370
     5
100
AcDbLine
 10
11.52053535311704
 20
-5.005931590398845
 30
0.0
 11
11.52328412091563
 21
-4.84845478832181
 31
0.0
  0
LINE
  5
FF
330
70
100
AcDbEntity
  8
Layer 1
 62
     7
370
     5
100
AcDbLine
 10
11.76494968543363
 20
-4.278322665438887
 30
0.0
 11
11.76510666721263
 21
-4.27335325057494
 31
0.0
  0
LWPOLYLINE
  5
100
330
70
100
AcDbEntity
  8
Layer 1
 62
     7
370
     5
100
AcDbPolyline
 90
        3
 70
     0
 43
0.0
 10
8.946557758576254
 20
-5.052035294408924
 10
8.947169907693401
 20
-5.052545356983714
 10
8.952548420808044
 20
-5.057110741440649
  0
LWPOLYLINE
  5
101
330
70
100
AcDbEntity
  8
Layer 1
 62
     7
370
     5
100
AcDbPolyline
 90
       12
 70
     0
 43
0.0
 10
11.49887822658132
 20
-5.052035126101208
 10
11.49887694916362
 20
-5.052031435238783
 10
11.49886822407903
 20
-5.052027711955651
 10
11.49885526878673
 20
-5.052020749899447
 10
11.49883906771694
 20
-5.052009145571901
 10
11.49881235381824
 20
-5.051998145831311
 10
11.49878071906982
 20
-5.051982375136995
 10
11.49874515210455
 20
-5.051960077965291
 10
11.49869338897263
 20
-5.051939839711445
 10
11.49863582052491
 20
-5.05191168669157
 10
11.49857392570802
 20
-5.051872754472279
 10
11.49848620125836
 20
-5.051837805602631
  0
LWPOLYLINE
  5
102
330
70
100
AcDbEntity
  8
Layer 1
 62
     7
370
     5
100
AcDbPolyline
 90
        4
 70
     0
 43
0.0
 10
11.49848620125836
 20
-5.051837805602631
 10
11.49837396451925
 20
-5.051802594365059
 10
11.49825896811367
 20
-5.051746194765478
 10
11.49814954357454
 20
-5.051655288779443
  0
LINE
  5
103
330
70
100
AcDbEntity
  8
Layer 1
 62
     7
370
     5
100
AcDbLine
 10
11.49848620125836
 20
-5.051837805602631
 30
0.0
 11
11.49814954357454
 21
-5.051655288779443
 31
0.0
  0
LINE
  5
104
330
70
100
AcDbEntity
  8
Layer 1
 62
     7
370
     5
100
AcDbLine
 10
13.72495973863859
 20
-3.917597189970188
 30
0.0
 11
13.72008093547232
 21
-4.197103636729707
 31
0.0
  0
LINE
  5
105
330
70
100
AcDbEntity
  8
Layer 1
 62
     7
370
     5
100
AcDbLine
 10
8.937159331242783
 20
-4.833183227382846
 30
0.0
 11
11.50827679980815
 21
-4.833183227382846
 31
0.0
  0
LINE
  5
106
330
70
100
AcDbEntity
  8
Layer 1
 62
     7
370
     5
100
AcDbLine
 10
11.4940508872554
 20
-4.738122381968423
 30
0.0
 11
8.951385243795508
 21
-4.738122381968423
 31
0.0
  0
LINE
  5
107
330
70
100
AcDbEntity
  8
Layer 1
 62
     7
370
     5
100
AcDbLine
 10
6.720476392312295
 20
-3.917597189970188
 30
0.0
 11
13.72495973863859
 21
-3.917597189970188
 31
0.0
  0
LINE
  5
108
330
70
100
AcDbEntity
  8
Layer 1
 62
     7
370
     5
100
AcDbLine
 10
22.26367305367141
 20
-16.71090787049244
 30
0.0
 11
22.26367305367141
 21
-19.67280368551044
 31
0.0
  0
LINE
  5
109
330
70
100
AcDbEntity
  8
Layer 1
 62
     7
370
     5
100
AcDbLine
 10
22.61389722098771
 20
-16.73262123182235
 30
0.0
 11
22.61389722098771
 21
-17.7498734157919
 31
0.0
  0
LINE
  5
10A
330
70
100
AcDbEntity
  8
Layer 1
 62
     7
370
     5
100
AcDbLine
 10
22.99414060264545
 20
-16.69648425919897
 30
0.0
 11
22.99414060264545
 21
-16.69089506093147
 31
0.0
  0
LINE
  5
10B
330
70
100
AcDbEntity
  8
Layer 1
 62
     7
370
     5
100
AcDbLine
 10
23.01415341220634
 20
-19.67280368551044
 30
0.0
 11
23.01415341220634
 21
-17.78635971340701
 31
0.0
  0
LWPOLYLINE
  5
10C
330
70
100
AcDbEntity
  8
Layer 1
 62
     7
370
     5
100
AcDbPolyline
 90
        3
 70
     0
 43
0.0
 10
27.14508550324894
 20
-15.96508701695795
 10
27.14457544077419
 20
-15.96569916607505
 10
27.1400100562172
 20
-15.97107767908965
  0
LWPOLYLINE
  5
10D
330
70
100
AcDbEntity
  8
Layer 1
 62
     7
370
     5
100
AcDbPolyline
 90
      152
 70
     0
 43
0.0
 10
27.1400100562172
 20
-15.97107767908965
 10
27.13531899942139
 20
-15.97642760160443
 10
27.13048334037032
 20
-15.98177104817409
 10
27.12552694363891
 20
-15.98708213383055
 10
27.12052242590676
 20
-15.9922878195239
 10
27.11548787825344
 20
-15.99737740870758
 10
27.11042162180433
 20
-16.00236035783435
 10
27.10537438242737
 20
-16.00719543551331
 10
27.10038281528447
 20
-16.01185831107121
 10
27.09543063715331
 20
-16.01637444470425
 10
27.0904892676403
 20
-16.02077762123708
 10
27.08555602783089
 20
-16.02507622083357
 10
27.08064631938315
 20
-16.02926258609242
 10
27.07575574768422
 20
-16.03334598824785
 10
27.07088832210037
 20
-16.03732809556769
 10
27.06605067257528
 20
-16.04120832287743
 10
27.06124126722835
 20
-16.04499245387892
 10
27.05645951558166
 20
-16.04868509602139
 10
27.05171491101166
 20
-16.0522829260776
 10
27.04702085339507
 20
-16.05577994810985
 10
27.04237403821702
 20
-16.05918267998996
 10
27.03778626753132
 20
-16.06248639839474
 10
27.03329469331798
 20
-16.06566884477709
 10
27.02891918149241
 20
-16.06872106410532
 10
27.02464962918824
 20
-16.07165500512734
 10
27.02047860234698
 20
-16.07448006245646
 10
27.01640538220876
 20
-16.07720059858482
 10
27.01243821094901
 20
-16.07981482766942
 10
27.00858254906285
 20
-16.08232280264426
 10
27.00484833130918
 20
-16.08472165957596
 10
27.00123232031587
 20
-16.08701691729728
 10
26.99771963045515
 20
-16.08922104118667
 10
26.99432413800872
 20
-16.09132813857248
 10
26.99103706896075
 20
-16.09334634716343
 10
26.98780811941315
 20
-16.0953085260915
 10
26.98464711555544
 20
-16.09721020049268
 10
26.98154697985744
 20
-16.09905707962103
 10
26.9784299109211
 20
-16.10089617456704
 10
26.97529824294032
 20
-16.10272610484708
 10
26.97214982924121
 20
-16.10454812176193
 10
26.96889770335914
 20
-16.10641179974269
 10
26.96549933717339
 20
-16.10833964579551
 10
26.96199448933205
 20
-16.11030719345998
 10
26.95841881715836
 20
-16.11229316751865
 10
26.95474738979485
 20
-16.11431025189002
 10
26.95100351145776
 20
-16.11634446582543
 10
26.94729730843548
 20
-16.11833600374532
 10
26.94367594371541
 20
-16.12026093363154
 10
26.94009460051186
 20
-16.12214445351257
 10
26.93652666378941
 20
-16.12400129061476
 10
26.93298510154841
 20
-16.12582528989845
 10
26.92945819788992
 20
-16.12762307120094
 10
26.92588112021665
 20
-16.12942765055461
 10
26.92224370382249
 20
-16.13124353394364
 10
26.91855557036595
 20
-16.13306529379396
 10
26.91478031054248
 20
-16.13491008008282
 10
26.91090160830891
 20
-16.13678460970941
 10
26.90693433518398
 20
-16.13868042285895
 10
26.90288853209444
 20
-16.14059164807327
 10
26.89876213742092
 20
-16.14251825193092
 10
26.89455615350476
 20
-16.1444587507823
 10
26.89028551800723
 20
-16.14640537155217
 10
26.88595487269938
 20
-16.14835528282818
 10
26.88155898393123
 20
-16.15031012405964
 10
26.87709817290837
 20
-16.15226899727195
 10
26.87257137895196
 20
-16.15423161057811
 10
26.86797911248871
 20
-16.15619698355062
 10
26.86332411057048
 20
-16.15816321647361
 10
26.85860578211901
 20
-16.16012985175411
 10
26.85382432365994
 20
-16.16209610058717
 10
26.84898375576692
 20
-16.16405964138703
 10
26.84408404942117
 20
-16.16601985475712
 10
26.83912502420738
 20
-16.1679761832406
 10
26.83411058502482
 20
-16.16992649087021
 10
26.82904082033017
 20
-16.17187018476668
 10
26.8239156063442
 20
-16.17380675650452
 10
26.81873863192802
 20
-16.17573428895657
 10
26.81350996482504
 20
-16.1776522676935
 10
26.80822966337251
 20
-16.17956018609124
 10
26.8029014958825
 20
-16.18145623118923
 10
26.79752551548892
 20
-16.18333996670827
 10
26.79210194893706
 20
-16.18521090063339
 10
26.78663491536326
 20
-16.18706723661471
 10
26.78112449131658
 20
-16.18890860971894
 10
26.77557102932284
 20
-16.19073456805661
 10
26.76997915093984
 20
-16.19254329976807
 10
26.76434898324909
 20
-16.194334510665
 10
26.75868097163569
 20
-16.19610781159834
 10
26.75298030372005
 20
-16.19786137759999
 10
26.74724812223354
 20
-16.199594705548
 10
26.74148399519974
 20
-16.20130778003229
 10
26.73569081486979
 20
-16.20299961472172
 10
26.72987198212064
 20
-16.20466913783015
 10
26.72402490189112
 20
-16.20631702148797
 10
26.71814346497094
 20
-16.20794484820784
 10
26.71222632479829
 20
-16.2095527957038
 10
26.70627560183033
 20
-16.2111400998866
 10
26.70029036156903
 20
-16.21270683210183
 10
26.6942708730865
 20
-16.21425274048849
 10
26.68821770904929
 20
-16.21577750404104
 10
26.6821303992565
 20
-16.21728106952532
 10
26.6760094342221
 20
-16.21876314565492
 10
26.66985523891799
 20
-16.22022346796059
 10
26.66366725828903
 20
-16.22166200732378
 10
26.65744601677079
 20
-16.22307848256441
 10
26.65119198476441
 20
-16.22447263661792
 10
26.64490454317365
 20
-16.22584445837727
 10
26.63858425655977
 20
-16.22719367776956
 10
26.6322316422541
 20
-16.22852004733641
 10
26.62584602882665
 20
-16.22982357168078
 10
26.61942802736863
 20
-16.2311039930377
 10
26.61297820454284
 20
-16.23236107625651
 10
26.60649584539154
 20
-16.23359484084987
 10
26.59998161303921
 20
-16.23480504366208
 10
26.59343612808316
 20
-16.23599146485243
 10
26.58685863834181
 20
-16.23715413904311
 10
26.5802498648767
 20
-16.23829284098986
 10
26.57361048802341
 20
-16.23940736916375
 10
26.56693972678199
 20
-16.2404977743974
 10
26.56023699357623
 20
-16.24156406849819
 10
26.55350440956403
 20
-16.24260584480604
 10
26.54674528676519
 20
-16.24362256267469
 10
26.53996123230834
 20
-16.24461398905507
 10
26.53315229122235
 20
-16.24558014215886
 10
26.52631945914456
 20
-16.24652091771923
 10
26.51946527880242
 20
-16.24743603085403
 10
26.51258898490606
 20
-16.24832566598105
 10
26.50568666395066
 20
-16.24919038946298
 10
26.49875939122436
 20
-16.25003011674559
 10
26.4918080557963
 20
-16.25084481050516
 10
26.48482854983722
 20
-16.25163501208799
 10
26.47782206150757
 20
-16.25240063964169
 10
26.47078959384938
 20
-16.25314165984509
 10
26.46372687072562
 20
-16.25385859233072
 10
26.45663521708437
 20
-16.25455136745396
 10
26.44951577635746
 20
-16.25521996650291
 10
26.44236413602069
 20
-16.25586489329991
 10
26.43518178612764
 20
-16.25648610351681
 10
26.42797004081955
 20
-16.25708360665948
 10
26.42072439181078
 20
-16.25765790174745
 10
26.41344652678155
 20
-16.25820898627911
 10
26.4061379666053
 20
-16.25873691669047
 10
26.39879415556617
 20
-16.25924220280805
 10
26.39141701829602
 20
-16.25972490637122
 10
26.38400832332673
 20
-16.26018515436122
 10
26.37656352705012
 20
-16.26062349012598
 10
26.36908483587846
 20
-16.26104006846443
 10
26.36157431483356
 20
-16.26143511752275
 10
26.35402750275994
 20
-16.26180924559021
 10
26.34644694088408
 20
-16.26216273694877
 10
26.33883504725377
 20
-16.26249596043448
 10
26.3311875264197
 20
-16.2628096315053
  0
LWPOLYLINE
  5
10E
330
70
100
AcDbEntity
  8
Layer 1
 62
     7
370
     5
100
AcDbPolyline
 90
       12
 70
     0
 43
0.0
 10
27.14508567165679
 20
-18.51740748496303
 10
27.14508936251915
 20
-18.51740620744534
 10
27.14509308570223
 20
-18.51739748246069
 10
27.14510004775838
 20
-18.51738452706839
 10
27.14511165218601
 20
-18.51736832599855
 10
27.14512265182654
 20
-18.51734161209987
 10
27.14513842262093
 20
-18.51730997735146
 10
27.14516071969259
 20
-18.5172744104863
 10
27.14518095794645
 20
-18.5172226473544
 10
27.14520911106638
 20
-18.51716507880658
 10
27.14524804318557
 20
-18.51710318398967
 10
27.1452829920552
 20
-18.51701545953998
  0
LINE
  5
10F
330
70
100
AcDbEntity
  8
Layer 1
 62
     7
370
     5
100
AcDbLine
 10
23.3143455556204
 20
-17.77123440377881
 30
0.0
 11
23.3143455556204
 21
-16.71126024383536
 31
0.0
  0
LINE
  5
110
330
70
100
AcDbEntity
  8
Layer 1
 62
     7
370
     5
100
AcDbLine
 10
23.33435836518129
 20
-16.89752731964818
 30
0.0
 11
23.33435836518129
 21
-17.21438210869001
 31
0.0
  0
LINE
  5
111
330
70
100
AcDbEntity
  8
Layer 1
 62
     7
370
     5
100
AcDbLine
 10
23.33435836518129
 20
-17.2673403775884
 30
0.0
 11
23.33435836518129
 21
-17.58496732806614
 31
0.0
  0
LINE
  5
112
330
70
100
AcDbEntity
  8
Layer 1
 62
     7
370
     5
100
AcDbLine
 10
23.50646852740531
 20
-18.22910914679432
 30
0.0
 11
23.50646852740531
 21
-21.45049656020584
 31
0.0
  0
LINE
  5
113
330
70
100
AcDbEntity
  8
Layer 1
 62
     7
370
     5
100
AcDbLine
 10
24.45707698154961
 20
-16.30597475962675
 30
0.0
 11
24.45707698154961
 21
-18.17651988808757
 31
0.0
  0
LINE
  5
114
330
70
100
AcDbEntity
  8
Layer 1
 62
     7
370
     5
100
AcDbLine
 10
24.49209939828117
 20
-18.15720237136138
 30
0.0
 11
24.49209939828117
 21
-16.32529227635291
 31
0.0
  0
LINE
  5
115
330
70
100
AcDbEntity
  8
Layer 1
 62
     7
370
     5
100
AcDbLine
 10
27.1452829920552
 20
-18.51701545953998
 30
0.0
 11
27.1454655089785
 21
-18.51667880195623
 31
0.0
  0
LINE
  5
116
330
70
100
AcDbEntity
  8
Layer 1
 62
     7
370
     5
100
AcDbLine
 10
23.53596383431025
 20
-21.48051120242076
 30
0.0
 11
24.27643778806477
 21
-21.49343622341442
 31
0.0
  0
LWPOLYLINE
  5
117
330
70
100
AcDbEntity
  8
Layer 1
 62
     7
370
     5
100
AcDbPolyline
 90
        4
 70
     0
 43
0.0
 10
27.1452829920552
 20
-18.51701545953998
 10
27.14531820329282
 20
-18.51690322290086
 10
27.14537460299244
 20
-18.51678822649538
 10
27.1454655089785
 20
-18.51667880195623
  0
LINE
  5
118
330
70
100
AcDbEntity
  8
Layer 1
 62
     7
370
     5
100
AcDbLine
 10
28.27952360768768
 20
-20.74348899702027
 30
0.0
 11
28.00003034436645
 21
-20.73861042400138
 31
0.0
  0
LINE
  5
119
330
70
100
AcDbEntity
  8
Layer 1
 62
     7
370
     5
100
AcDbLine
 10
27.36393757027503
 20
-15.95568858962444
 30
0.0
 11
27.36393757027503
 21
-18.52680605808981
 31
0.0
  0
LINE
  5
11A
330
70
100
AcDbEntity
  8
Layer 1
 62
     7
370
     5
100
AcDbLine
 10
27.45899841568949
 20
-18.51258014553706
 30
0.0
 11
27.45899841568949
 21
-15.96991450217726
 31
0.0
  0
LINE
  5
11B
330
70
100
AcDbEntity
  8
Layer 1
 62
     7
370
     5
100
AcDbLine
 10
22.99414060264545
 20
-19.69281649507136
 30
0.0
 11
22.28368586323232
 21
-19.69281649507136
 31
0.0
  0
LINE
  5
11C
330
70
100
AcDbEntity
  8
Layer 1
 62
     7
370
     5
100
AcDbLine
 10
28.27952360768768
 20
-20.74348899702027
 30
0.0
 11
28.27952360768768
 21
-13.73900565069395
 31
0.0
  0
LINE
  5
11D
330
70
100
AcDbEntity
  8
Layer 1
 62
     7
370
     5
100
AcDbLine
 10
27.36393757027503
 20
-18.28341438174271
 30
0.0
 11
27.45899841568949
 21
-18.28175508848201
 31
0.0
  0
LINE
  5
11E
330
70
100
AcDbEntity
  8
Layer 1
 62
     7
370
     5
100
AcDbLine
 10
27.19040022455634
 20
-18.53905083968382
 30
0.0
 11
27.19025221051733
 21
-18.53904825603015
 31
0.0
  0
LINE
  5
11F
330
70
100
AcDbEntity
  8
Layer 1
 62
     7
370
     5
100
AcDbLine
 10
27.1911892073591
 20
-18.53906461139877
 30
0.0
 11
27.34866600933608
 21
-18.54181337919726
 31
0.0
  0
LINE
  5
120
330
70
100
AcDbEntity
  8
Layer 1
 62
     7
370
     5
100
AcDbLine
 10
27.48849372259436
 20
-18.54259478785207
 30
0.0
 11
27.68782681975058
 21
-18.54607415998708
 31
0.0
  0
LWPOLYLINE
  5
121
330
70
100
AcDbEntity
  8
Layer 1
 62
     7
370
     5
100
AcDbPolyline
 90
        4
 70
     0
 43
0.0
 10
27.18117697755017
 20
-18.53820599692701
 10
27.18517562635776
 20
-18.53874830123868
 10
27.18820549728147
 20
-18.53897869900899
 10
27.19024682577068
 20
-18.53904816207007
  0
LINE
  5
122
330
70
100
AcDbEntity
  8
Layer 1
 62
     7
370
     5
100
AcDbLine
 10
24.49209939828117
 20
-17.95670526566053
 30
0.0
 11
24.45707698154961
 21
-17.95670526566053
 31
0.0
  0
LINE
  5
123
330
70
100
AcDbEntity
  8
Layer 1
 62
     7
370
     5
100
AcDbLine
 10
23.33709705983241
 20
-17.58496732806614
 30
0.0
 11
23.33435836518129
 21
-17.58496732806614
 31
0.0
  0
LINE
  5
124
330
70
100
AcDbEntity
  8
Layer 1
 62
     7
370
     5
100
AcDbLine
 10
23.38262341860223
 20
-18.16794782278202
 30
0.0
 11
24.44689594099032
 21
-18.18652476879257
 31
0.0
  0
LINE
  5
125
330
70
100
AcDbEntity
  8
Layer 1
 62
     7
370
     5
100
AcDbLine
 10
26.22051320171532
 20
-18.21687178995259
 30
0.0
 11
26.22150587399318
 21
-18.21688908432222
 31
0.0
  0
LINE
  5
126
330
70
100
AcDbEntity
  8
Layer 1
 62
     7
370
     5
100
AcDbLine
 10
26.22051320281606
 20
-18.21687174632471
 30
0.0
 11
24.52159470518619
 21
-18.18721701367634
 31
0.0
  0
LINE
  5
127
330
70
100
AcDbEntity
  8
Layer 1
 62
     7
370
     5
100
AcDbLine
 10
22.6433925278927
 20
-17.77988805810691
 30
0.0
 11
23.29398347440176
 21
-17.79124416528884
 31
0.0
  0
LINE
  5
128
330
70
100
AcDbEntity
  8
Layer 1
 62
     7
370
     5
100
AcDbLine
 10
26.22150587399318
 20
-18.21688908432222
 30
0.0
 11
26.24577001019265
 21
-18.21732453934297
 31
0.0
  0
LINE
  5
129
330
70
100
AcDbEntity
  8
Layer 1
 62
     7
370
     5
100
AcDbLine
 10
26.24577001019265
 20
-18.21732453934297
 30
0.0
 11
26.26140398400053
 21
-18.21763616110221
 31
0.0
  0
LWPOLYLINE
  5
12A
330
70
100
AcDbEntity
  8
Layer 1
 62
     7
370
     5
100
AcDbPolyline
 90
        8
 70
     0
 43
0.0
 10
26.26140398400053
 20
-18.21763616110221
 10
26.26934525745633
 20
-18.21780939658472
 10
26.27731671393132
 20
-18.21799561867947
 10
26.28526600401832
 20
-18.2181951444896
 10
26.29317000201518
 20
-18.21840862433125
 10
26.30104348147822
 20
-18.21863754305486
 10
26.30889005692087
 20
-18.21888303888891
 10
26.31670632496467
 20
-18.21914594476657
  0
LWPOLYLINE
  5
12B
330
70
100
AcDbEntity
  8
Layer 1
 62
     7
370
     5
100
AcDbPolyline
 90
        3
 70
     0
 43
0.0
 10
26.31670632496467
 20
-18.21914594476657
 10
26.32448882439426
 20
-18.21942697364415
 10
26.33224158068623
 20
-18.2197270231963
  0
LWPOLYLINE
  5
12C
330
70
100
AcDbEntity
  8
Layer 1
 62
     7
370
     5
100
AcDbPolyline
 90
      150
 70
     0
 43
0.0
 10
26.33224158068623
 20
-18.2197270231963
 10
26.33996170048858
 20
-18.22004666648978
 10
26.34764619628923
 20
-18.22038637552671
 10
26.35529937464454
 20
-18.22074688137496
 10
26.36291877027659
 20
-18.22112856207667
 10
26.37050179893132
 20
-18.22153170881799
 10
26.37805294517908
 20
-18.2219569436973
 10
26.38557010397267
 20
-18.22240450036398
 10
26.39305103127549
 20
-18.22287453781999
 10
26.40050030231623
 20
-18.22336761172088
 10
26.407916114441
 20
-18.22388385225
 10
26.41529650989673
 20
-18.2244233232481
 10
26.42264607982194
 20
-18.22498654634922
 10
26.42996327492508
 20
-18.22557357969061
 10
26.43724637710645
 20
-18.22618442117073
 10
26.44449993107492
 20
-18.22681958171675
 10
26.4517225981737
 20
-18.22747907183533
 10
26.45891286073139
 20
-18.22816284609742
 10
26.46607516469362
 20
-18.22887142073346
 10
26.47320834541511
 20
-18.22960477713142
 10
26.48031105223112
 20
-18.23036284424605
 10
26.4873875888965
 20
-18.23114615371746
 10
26.49443693405738
 20
-18.23195467212425
 10
26.50145787493764
 20
-18.23278831601318
 10
26.5084545384788
 20
-18.2336476381378
 10
26.51542604751929
 20
-18.23453260477671
 10
26.52237127483775
 20
-18.23544312587228
 10
26.52929405819057
 20
-18.23637976678621
 10
26.53619564897862
 20
-18.23734278458328
 10
26.54307298063915
 20
-18.23833182153417
 10
26.54992346131333
 20
-18.23934653281849
 10
26.55674617301341
 20
-18.2403867818487
 10
26.56354033914239
 20
-18.24145243273786
 10
26.57030360649408
 20
-18.24254307282179
 10
26.57703418392197
 20
-18.24365833666661
 10
26.58373229987228
 20
-18.24479817003756
 10
26.59039866309872
 20
-18.24596260235347
 10
26.59703258235876
 20
-18.24715141727602
 10
26.60363332228177
 20
-18.24836437335054
 10
26.61020155910069
 20
-18.24960148068349
 10
26.61673666311223
 20
-18.25086250282349
 10
26.62323795948464
 20
-18.25214717910378
 10
26.62970608422494
 20
-18.25345550091881
 10
26.6361404641663
 20
-18.25478721530678
 10
26.64254047861133
 20
-18.25614204529018
 10
26.64890671613686
 20
-18.25751996395196
 10
26.65523865590949
 20
-18.25892070482155
 10
26.66153572536281
 20
-18.26034397691258
 10
26.66779845613695
 20
-18.2617897334952
 10
26.67402637713043
 20
-18.26325769729202
 10
26.68021895780382
 20
-18.26474756510886
 10
26.68637665845151
 20
-18.26625926700103
 10
26.69249905740384
 20
-18.26779251708548
 10
26.69858565884319
 20
-18.26934700076087
 10
26.70463682760323
 20
-18.27092261736278
 10
26.71065159576443
 20
-18.27251891550233
 10
26.71663009431066
 20
-18.27413572236883
 10
26.72257434043298
 20
-18.2757733909883
 10
26.72848277963638
 20
-18.27743130286484
 10
26.73435618531602
 20
-18.2791094775109
 10
26.74020003707912
 20
-18.28080933063259
 10
26.74601715803263
 20
-18.28253159760076
 10
26.75180391895363
 20
-18.28427511226881
 10
26.75755612585777
 20
-18.28603845803026
 10
26.7632736165412
 20
-18.28782139763297
 10
26.76895587017048
 20
-18.28962357534945
 10
26.77459822976486
 20
-18.29144327838331
 10
26.78020026124646
 20
-18.29328008946744
 10
26.78576185154295
 20
-18.295133688297
 10
26.79127890843508
 20
-18.29700239219472
 10
26.79675110111104
 20
-18.29888573276091
 10
26.80217835422264
 20
-18.30078332234746
 10
26.80755704204911
 20
-18.30269349889052
 10
26.81288697496906
 20
-18.30461576737328
 10
26.81816808143685
 20
-18.30654966930221
 10
26.82339699769935
 20
-18.30849350939219
 10
26.8285737184531
 20
-18.3104467913257
 10
26.83369813763036
 20
-18.31240897675795
 10
26.83876683043895
 20
-18.31437822371011
 10
26.84377996308518
 20
-18.31635403536413
 10
26.84873741689327
 20
-18.31833580102908
 10
26.85363544046183
 20
-18.32032142076094
 10
26.85847415496861
 20
-18.32231030968528
 10
26.86325366137824
 20
-18.32430187332157
 10
26.86797028593911
 20
-18.32629391116153
 10
26.87262349571023
 20
-18.32828548930718
 10
26.87721422799155
 20
-18.33027629946117
 10
26.88174109859705
 20
-18.33226502488092
 10
26.88620461325033
 20
-18.33425116004274
 10
26.89060478415937
 20
-18.33623398348464
 10
26.89493954910409
 20
-18.33821181813356
 10
26.89921103474575
 20
-18.34018488342968
 10
26.9034177436259
 20
-18.34215173875102
 10
26.90755230152455
 20
-18.34410810886104
 10
26.91160922983489
 20
-18.34605046300006
 10
26.91559493195569
 20
-18.34798093423306
 10
26.91951980774343
 20
-18.3499037649757
 10
26.9233772802886
 20
-18.3518149672753
 10
26.92717462594834
 20
-18.35371738345118
 10
26.93094247462808
 20
-18.35562590783678
 10
26.93467925752364
 20
-18.35753953418801
 10
26.93838642556362
 20
-18.35945879224391
 10
26.94209825688843
 20
-18.3614015176204
 10
26.94584951254754
 20
-18.36338659530525
 10
26.94960407502316
 20
-18.36539561321357
 10
26.95329046156154
 20
-18.36739008080864
 10
26.95689777128541
 20
-18.36936312298995
 10
26.96043817898746
 20
-18.37132043100039
 10
26.96387637506708
 20
-18.37324131109446
 10
26.96718809919604
 20
-18.37511052351768
 10
26.97040010870084
 20
-18.37694152208142
 10
26.97355349248124
 20
-18.37875666369566
 10
26.97662979932708
 20
-18.38054445170173
 10
26.97964868041658
 20
-18.38231544015492
 10
26.98270640046561
 20
-18.38412619336029
 10
26.98580394840721
 20
-18.38597821678149
 10
26.98893856497529
 20
-18.38787080156458
 10
26.99219810710423
 20
-18.38985875489013
 10
26.99557998813836
 20
-18.39194317205899
 10
26.99908179043033
 20
-18.39412536931379
 10
27.00278840501602
 20
-18.39646215211397
 10
27.00670084984714
 20
-18.39895937880912
 10
27.01080825916887
 20
-18.40161569323128
 10
27.01517391028286
 20
-18.40447884394264
 10
27.01979802723258
 20
-18.40755741793959
 10
27.0246641457798
 20
-18.41084954522529
 10
27.02980658349015
 20
-18.41438884531842
 10
27.03521595255474
 20
-18.41818089158624
 10
27.04087791129385
 20
-18.42222858398498
 10
27.04681514262623
 20
-18.42656283450045
 10
27.05306865760162
 20
-18.43123169358818
 10
27.05956196085789
 20
-18.43619759090064
 10
27.06614475529465
 20
-18.44136107127972
 10
27.07291028429389
 20
-18.44681105243876
 10
27.07973405487175
 20
-18.45246392476196
 10
27.08617232520315
 20
-18.45795029531271
 10
27.09207506966155
 20
-18.46311922938255
 10
27.09762470840825
 20
-18.46810797792136
 10
27.10289943789439
 20
-18.47297292061595
 10
27.10792120426686
 20
-18.47772339144075
 10
27.11268421832013
 20
-18.4823431060727
 10
27.11721947079054
 20
-18.4868517637207
 10
27.12153703712698
 20
-18.49125006573343
 10
27.12564040996504
 20
-18.4955323227696
 10
27.12954844167148
 20
-18.49970937426701
 10
27.13328074900235
 20
-18.50379440636564
 10
27.13682908537928
 20
-18.50777065303431
 10
27.14017149374826
 20
-18.51160417474921
 10
27.14330646754494
 20
-18.51528255646404
 10
27.14508550715138
 20
-18.51740763565948
  0
LWPOLYLINE
  5
12D
330
70
100
AcDbEntity
  8
Layer 1
 62
     7
370
     5
100
AcDbPolyline
 90
        6
 70
     0
 43
0.0
 10
27.14511880226251
 20
-15.96517044115515
 10
27.14510253945329
 20
-15.96513017137974
 10
27.14509527910609
 20
-15.9651157812691
 10
27.14509021286343
 20
-15.96510345187744
 10
27.14508771416407
 20
-15.96509330948561
 10
27.14508546832657
 20
-15.96508856915157
  0
LINE
  5
12E
330
70
100
AcDbEntity
  8
Layer 1
 62
     7
370
     5
100
AcDbLine
 10
22.6433925278927
 20
-16.70260658960736
 30
0.0
 11
23.29398347440176
 21
-16.69125048232538
 31
0.0
  0
LINE
  5
12F
330
70
100
AcDbEntity
  8
Layer 1
 62
     7
370
     5
100
AcDbLine
 10
23.33709747349717
 20
-16.89752731964818
 30
0.0
 11
23.33435836518129
 21
-16.89752731964818
 31
0.0
  0
LINE
  5
130
330
70
100
AcDbEntity
  8
Layer 1
 62
     7
370
     5
100
AcDbLine
 10
22.99414060264545
 20
-16.69089506093147
 30
0.0
 11
22.28368586323232
 21
-16.69089506093147
 31
0.0
  0
LINE
  5
131
330
70
100
AcDbEntity
  8
Layer 1
 62
     7
370
     5
100
AcDbLine
 10
24.49209939828117
 20
-16.52578938205379
 30
0.0
 11
24.45707698154961
 21
-16.52578938205379
 31
0.0
  0
LWPOLYLINE
  5
132
330
70
100
AcDbEntity
  8
Layer 1
 62
     7
370
     5
100
AcDbPolyline
 90
       13
 70
     0
 43
0.0
 10
27.14546743951415
 20
-15.96582476356603
 10
27.1453988070847
 20
-15.96573699638907
 10
27.14534986916111
 20
-15.96564603636845
 10
27.14531292361345
 20
-15.9655591535575
 10
27.14527755647611
 20
-15.96548682356143
 10
27.14524262061473
 20
-15.96542873247919
 10
27.14521588770385
 20
-15.96537418976812
 10
27.14519491077719
 20
-15.96532523733521
 10
27.1451736208502
 20
-15.96528709992468
 10
27.14515635339785
 20
-15.96525210672666
 10
27.14514333736669
 20
-15.96521949345194
 10
27.14513047293263
 20
-15.96519332089977
 10
27.14511880226251
 20
-15.96517044115515
  0
LINE
  5
133
330
70
100
AcDbEntity
  8
Layer 1
 62
     7
370
     5
100
AcDbLine
 10
27.14546743951415
 20
-15.96582476356603
 30
0.0
 11
27.14508558069848
 21
-15.96508695962128
 31
0.0
  0
LINE
  5
134
330
70
100
AcDbEntity
  8
Layer 1
 62
     7
370
     5
100
AcDbLine
 10
27.18517536178837
 20
-15.94374635107859
 30
0.0
 11
27.18117697755017
 21
-15.94428865078733
 31
0.0
  0
LINE
  5
135
330
70
100
AcDbEntity
  8
Layer 1
 62
     7
370
     5
100
AcDbLine
 10
27.18820454427148
 20
-15.94351596531596
 30
0.0
 11
27.18517536178837
 21
-15.94374635107859
 31
0.0
  0
LWPOLYLINE
  5
136
330
70
100
AcDbEntity
  8
Layer 1
 62
     7
370
     5
100
AcDbPolyline
 90
        8
 70
     0
 43
0.0
 10
26.3311875264197
 20
-16.2628096315053
 10
26.3235073165624
 20
-16.26310421035585
 10
26.31579725489792
 20
-16.26338025654425
 10
26.30805331064625
 20
-16.26363864833257
 10
26.30027888788623
 20
-16.26388008096584
 10
26.29247732375395
 20
-16.26410536756457
 10
26.2846449782195
 20
-16.26431562124131
 10
26.27676291606293
 20
-16.2645123978918
  0
LINE
  5
137
330
70
100
AcDbEntity
  8
Layer 1
 62
     7
370
     5
100
AcDbLine
 10
27.19024491014455
 20
-15.94344651906564
 30
0.0
 11
27.18820454427148
 21
-15.94351596531596
 31
0.0
  0
LINE
  5
138
330
70
100
AcDbEntity
  8
Layer 1
 62
     7
370
     5
100
AcDbLine
 10
27.92376754708297
 20
-15.69885872211992
 30
0.0
 11
27.91879813261929
 21
-15.6990157037989
 31
0.0
  0
LINE
  5
139
330
70
100
AcDbEntity
  8
Layer 1
 62
     7
370
     5
100
AcDbLine
 10
27.19030797521049
 20
-15.94345202679094
 30
0.0
 11
27.19119843846761
 21
-15.94342987511246
 31
0.0
  0
LINE
  5
13A
330
70
100
AcDbEntity
  8
Layer 1
 62
     7
370
     5
100
AcDbLine
 10
26.27676291606293
 20
-16.2645123978918
 30
0.0
 11
26.26099565634301
 21
-16.26486709222028
 31
0.0
  0
LINE
  5
13B
330
70
100
AcDbEntity
  8
Layer 1
 62
     7
370
     5
100
AcDbLine
 10
26.26099565634301
 20
-16.26486709222028
 30
0.0
 11
26.24558390617343
 21
-16.26517362412156
 31
0.0
  0
LINE
  5
13C
330
70
100
AcDbEntity
  8
Layer 1
 62
     7
370
     5
100
AcDbLine
 10
26.24558390617343
 20
-16.26517362412156
 30
0.0
 11
26.2205132020155
 21
-16.26562287667384
 31
0.0
  0
LINE
  5
13D
330
70
100
AcDbEntity
  8
Layer 1
 62
     7
370
     5
100
AcDbLine
 10
23.38262341860223
 20
-16.31454682483218
 30
0.0
 11
24.44689594099032
 21
-16.29596987892174
 31
0.0
  0
LINE
  5
13E
330
70
100
AcDbEntity
  8
Layer 1
 62
     7
370
     5
100
AcDbLine
 10
27.48849372259436
 20
-15.93989985986225
 30
0.0
 11
27.68782681975058
 21
-15.93642048772722
 31
0.0
  0
LINE
  5
13F
330
70
100
AcDbEntity
  8
Layer 1
 62
     7
370
     5
100
AcDbLine
 10
27.19040022465646
 20
-15.94344380803045
 30
0.0
 11
27.19025221051733
 21
-15.9434463915841
 31
0.0
  0
LINE
  5
140
330
70
100
AcDbEntity
  8
Layer 1
 62
     7
370
     5
100
AcDbLine
 10
27.19119843846761
 20
-15.94342987511246
 30
0.0
 11
27.34866600933608
 21
-15.940681268517
 31
0.0
  0
LINE
  5
141
330
70
100
AcDbEntity
  8
Layer 1
 62
     7
370
     5
100
AcDbLine
 10
24.52159470518619
 20
-16.2952776340379
 30
0.0
 11
26.24054740557002
 21
-16.26527583714487
 31
0.0
  0
LINE
  5
142
330
70
100
AcDbEntity
  8
Layer 1
 62
     7
370
     5
100
AcDbLine
 10
27.36393757027503
 20
-16.19908026597161
 30
0.0
 11
27.45899841568949
 21
-16.20073955923228
 31
0.0
  0
LWPOLYLINE
  5
143
330
70
100
AcDbEntity
  8
Layer 1
 62
     7
370
     5
100
AcDbPolyline
 90
       30
 70
     0
 43
0.0
 10
27.92376754708297
 20
-15.69885872211992
 10
27.92336170361551
 20
-15.69869705564242
 10
27.92298415455836
 20
-15.69874380096252
 10
27.9226339825245
 20
-15.69889076723098
 10
27.92231226830543
 20
-15.69895721546244
 10
27.9220162182132
 20
-15.69891303498384
 10
27.92173938412056
 20
-15.69891730051414
 10
27.9214813924883
 20
-15.69898255227963
 10
27.92124160520817
 20
-15.6989752892308
 10
27.92101359866843
 20
-15.69893979731354
 10
27.92079549236559
 20
-15.69895972867097
 10
27.92058866618269
 20
-15.69898582017132
 10
27.9203918119826
 20
-15.69895988316989
 10
27.92020348534073
 20
-15.69893621201878
 10
27.92002473522845
 20
-15.69896361315737
 10
27.91985797128824
 20
-15.69897781935027
 10
27.91970316560203
 20
-15.69895360685255
 10
27.91955986928261
 20
-15.69895819138699
 10
27.91942978011677
 20
-15.69899273049441
 10
27.91931329115581
 20
-15.69898871872659
 10
27.91920956276257
 20
-15.69897081816907
 10
27.91911843553498
 20
-15.69900389904309
 10
27.91904018364845
 20
-15.69902599888845
 10
27.9189742223287
 20
-15.69900241869552
 10
27.91891914887788
 20
-15.69901120451908
 10
27.91887473805198
 20
-15.69903915520942
 10
27.91884105329147
 20
-15.69902803128937
 10
27.91881716870373
 20
-15.69901499294385
 10
27.918802628597
 20
-15.69903415350798
 10
27.91879782992555
 20
-15.69904335289619
  0
LINE
  5
144
330
70
100
AcDbEntity
  8
Layer 1
 62
     7
370
     5
100
AcDbLine
 10
28.27952360768768
 20
-13.73900565069395
 30
0.0
 11
28.00003034436645
 21
-13.74388422371296
 31
0.0
  0
SPLINE
  5
145
330
70
100
AcDbEntity
  8
Layer 1
 62
     7
370
     5
100
AcDbSpline
210
0.0
220
0.0
230
1.0
 70
     8
 71
     3
 72
     8
 73
     4
 74
     0
 42
0.0000000001
 43
0.0000000001
 40
0.0
 40
0.0
 40
0.0
 40
0.0
 40
1.0
 40
1.0
 40
1.0
 40
1.0
 10
9.684077350386612
 20
-17.71985877351623
 30
0.0
 10
9.684082587322778
 20
-17.75300982214099
 30
0.0
 10
9.710955567142933
 20
-17.77988271965523
 30
0.0
 10
9.744106615783518
 20
-17.77988785505709
 30
0.0
  0
SPLINE
  5
146
330
70
100
AcDbEntity
  8
Layer 1
 62
     7
370
     5
100
AcDbSpline
210
0.0
220
0.0
230
1.0
 70
     8
 71
     3
 72
     8
 73
     4
 74
     0
 42
0.0000000001
 43
0.0000000001
 40
0.0
 40
0.0
 40
0.0
 40
0.0
 40
1.0
 40
1.0
 40
1.0
 40
1.0
 10
9.672721469118869
 20
-17.73121488068012
 30
0.0
 10
9.672724296821684
 20
-17.76436675817033
 30
0.0
 10
9.699598631305207
 20
-17.79124088693164
 30
0.0
 10
9.732750508815961
 20
-17.79124346085715
 30
0.0
  0
SPLINE
  5
147
330
70
100
AcDbEntity
  8
Layer 1
 62
     7
370
     5
100
AcDbSpline
210
0.0
220
0.0
230
1.0
 70
     8
 71
     3
 72
     8
 73
     4
 74
     0
 42
0.0000000001
 43
0.0000000001
 40
0.0
 40
0.0
 40
0.0
 40
0.0
 40
1.0
 40
1.0
 40
1.0
 40
1.0
 10
9.323697391984927
 20
-18.186384564502
 30
0.0
 10
9.326886388963329
 20
-18.18693658866467
 30
0.0
 10
9.330116726926576
 20
-18.18721508492235
 30
0.0
 10
9.333353149130818
 20
-18.18721701369466
 30
0.0
  0
SPLINE
  5
148
330
70
100
AcDbEntity
  8
Layer 1
 62
     7
370
     5
100
AcDbSpline
210
0.0
220
0.0
230
1.0
 70
     8
 71
     3
 72
     8
 73
     4
 74
     0
 42
0.0000000001
 43
0.0000000001
 40
0.0
 40
0.0
 40
0.0
 40
0.0
 40
1.0
 40
1.0
 40
1.0
 40
1.0
 10
9.276748376049352
 20
-18.13061223995873
 30
0.0
 10
9.276750312917796
 20
-18.13448238616327
 30
0.0
 10
9.277148665809072
 20
-18.1383421560091
 30
0.0
 10
9.277937198069757
 20
-18.14213112054709
 30
0.0
  0
SPLINE
  5
149
330
70
100
AcDbEntity
  8
Layer 1
 62
     7
370
     5
100
AcDbSpline
210
0.0
220
0.0
230
1.0
 70
     8
 71
     3
 72
     8
 73
     4
 74
     0
 42
0.0000000001
 43
0.0000000001
 40
0.0
 40
0.0
 40
0.0
 40
0.0
 40
1.0
 40
1.0
 40
1.0
 40
1.0
 10
9.277936385689271
 20
-18.14213128945347
 30
0.0
 10
9.282664614159745
 20
-18.16487477599094
 30
0.0
 10
9.300808296732926
 20
-18.18242077321863
 30
0.0
 10
9.323697350201339
 20
-18.18638480597218
 30
0.0
  0
SPLINE
  5
14A
330
70
100
AcDbEntity
  8
Layer 1
 62
     7
370
     5
100
AcDbSpline
210
0.0
220
0.0
230
1.0
 70
     8
 71
     3
 72
     8
 73
     4
 74
     0
 42
0.0000000001
 43
0.0000000001
 40
0.0
 40
0.0
 40
0.0
 40
0.0
 40
1.0
 40
1.0
 40
1.0
 40
1.0
 10
9.277440962061492
 20
-18.12991995484392
 30
0.0
 10
9.277441274239068
 20
-18.16118145803686
 30
0.0
 10
9.302783931361355
 20
-18.18652368773653
 30
0.0
 10
9.334045434555024
 20
-18.18652347266154
 30
0.0
  0
SPLINE
  5
14B
330
70
100
AcDbEntity
  8
Layer 1
 62
     7
370
     5
100
AcDbSpline
210
0.0
220
0.0
230
1.0
 70
     8
 71
     3
 72
     8
 73
     4
 74
     0
 42
0.0000000001
 43
0.0000000001
 40
0.0
 40
0.0
 40
0.0
 40
0.0
 40
1.0
 40
1.0
 40
1.0
 40
1.0
 10
10.02612929126819
 20
-17.77988764097449
 30
0.0
 10
10.04270321381457
 20
-17.77988164212678
 30
0.0
 10
10.05613754286048
 20
-17.76644733825946
 30
0.0
 10
10.05614357277099
 20
-17.74987341572432
 30
0.0
  0
SPLINE
  5
14C
330
70
100
AcDbEntity
  8
Layer 1
 62
     7
370
     5
100
AcDbSpline
210
0.0
220
0.0
230
1.0
 70
     8
 71
     3
 72
     8
 73
     4
 74
     0
 42
0.0000000001
 43
0.0000000001
 40
0.0
 40
0.0
 40
0.0
 40
0.0
 40
1.0
 40
1.0
 40
1.0
 40
1.0
 10
10.04813454193173
 20
-21.46342158109941
 30
0.0
 10
10.04813454193173
 20
-21.48000073538206
 30
0.0
 10
10.06157460199046
 20
-21.49344079544079
 30
0.0
 10
10.07815375627314
 20
-21.49344079544079
 30
0.0
  0
SPLINE
  5
14D
330
70
100
AcDbEntity
  8
Layer 1
 62
     7
370
     5
100
AcDbSpline
210
0.0
220
0.0
230
1.0
 70
     8
 71
     3
 72
     8
 73
     4
 74
     0
 42
0.0000000001
 43
0.0000000001
 40
0.0
 40
0.0
 40
0.0
 40
0.0
 40
1.0
 40
1.0
 40
1.0
 40
1.0
 10
10.07620498918493
 20
-21.49337160395945
 30
0.0
 10
10.07685369857546
 20
-21.49341441292712
 30
0.0
 10
10.0775036360108
 20
-21.49343596430984
 30
0.0
 10
10.07815375631804
 20
-21.49343622345049
 30
0.0
  0
SPLINE
  5
14E
330
70
100
AcDbEntity
  8
Layer 1
 62
     7
370
     5
100
AcDbSpline
210
0.0
220
0.0
230
1.0
 70
     8
 71
     3
 72
     8
 73
     4
 74
     0
 42
0.0000000001
 43
0.0000000001
 40
0.0
 40
0.0
 40
0.0
 40
0.0
 40
1.0
 40
1.0
 40
1.0
 40
1.0
 10
10.07262199376845
 20
-19.67280368551044
 30
0.0
 10
10.07262199376845
 20
-19.68385645503215
 30
0.0
 10
10.0815820338076
 20
-19.69281649507136
 30
0.0
 10
10.09263480332937
 20
-19.69281649507136
 30
0.0
  0
SPLINE
  5
14F
330
70
100
AcDbEntity
  8
Layer 1
 62
     7
370
     5
100
AcDbSpline
210
0.0
220
0.0
230
1.0
 70
     8
 71
     3
 72
     8
 73
     4
 74
     0
 42
0.0000000001
 43
0.0000000001
 40
0.0
 40
0.0
 40
0.0
 40
0.0
 40
1.0
 40
1.0
 40
1.0
 40
1.0
 10
9.744106615832011
 20
-16.70260660686676
 30
0.0
 10
9.710955565719434
 20
-16.70261184274472
 30
0.0
 10
9.68408266673086
 20
-16.72948482402835
 30
0.0
 10
9.684077532374038
 20
-16.76263587415691
 30
0.0
  0
SPLINE
  5
150
330
70
100
AcDbEntity
  8
Layer 1
 62
     7
370
     5
100
AcDbSpline
210
0.0
220
0.0
230
1.0
 70
     8
 71
     3
 72
     8
 73
     4
 74
     0
 42
0.0000000001
 43
0.0000000001
 40
0.0
 40
0.0
 40
0.0
 40
0.0
 40
1.0
 40
1.0
 40
1.0
 40
1.0
 10
9.732750508729736
 20
-16.69125058925932
 30
0.0
 10
9.6995986759451
 20
-16.69125370781151
 30
0.0
 10
9.672724656634246
 20
-16.71812793436187
 30
0.0
 10
9.672721793732105
 20
-16.75127976716963
 30
0.0
  0
SPLINE
  5
151
330
70
100
AcDbEntity
  8
Layer 1
 62
     7
370
     5
100
AcDbSpline
210
0.0
220
0.0
230
1.0
 70
     8
 71
     3
 72
     8
 73
     4
 74
     0
 42
0.0000000001
 43
0.0000000001
 40
0.0
 40
0.0
 40
0.0
 40
0.0
 40
1.0
 40
1.0
 40
1.0
 40
1.0
 10
9.327971375995906
 20
-16.29553660048077
 30
0.0
 10
9.32619139112579
 20
-16.29570753612627
 30
0.0
 10
9.324420436362363
 20
-16.29596214168095
 30
0.0
 10
9.322664388043778
 20
-16.29629957231898
 30
0.0
  0
SPLINE
  5
152
330
70
100
AcDbEntity
  8
Layer 1
 62
     7
370
     5
100
AcDbSpline
210
0.0
220
0.0
230
1.0
 70
     8
 71
     3
 72
     8
 73
     4
 74
     0
 42
0.0000000001
 43
0.0000000001
 40
0.0
 40
0.0
 40
0.0
 40
0.0
 40
1.0
 40
1.0
 40
1.0
 40
1.0
 10
9.277679888205915
 20
-16.34167322330735
 30
0.0
 10
9.277062462176418
 20
-16.34504127357278
 30
0.0
 10
9.276750689971764
 20
-16.34845823285342
 30
0.0
 10
9.276748375826741
 20
-16.35188240751848
 30
0.0
  0
SPLINE
  5
153
330
70
100
AcDbEntity
  8
Layer 1
 62
     7
370
     5
100
AcDbSpline
210
0.0
220
0.0
230
1.0
 70
     8
 71
     3
 72
     8
 73
     4
 74
     0
 42
0.0000000001
 43
0.0000000001
 40
0.0
 40
0.0
 40
0.0
 40
0.0
 40
1.0
 40
1.0
 40
1.0
 40
1.0
 10
9.322664319097182
 20
-16.2962992138539
 30
0.0
 10
9.299750660962823
 20
-16.30070645318859
 30
0.0
 10
9.28188924120324
 20
-16.31872238813955
 30
0.0
 10
9.277679528995058
 20
-16.34167315742456
 30
0.0
  0
SPLINE
  5
154
330
70
100
AcDbEntity
  8
Layer 1
 62
     7
370
     5
100
AcDbSpline
210
0.0
220
0.0
230
1.0
 70
     8
 71
     3
 72
     8
 73
     4
 74
     0
 42
0.0000000001
 43
0.0000000001
 40
0.0
 40
0.0
 40
0.0
 40
0.0
 40
1.0
 40
1.0
 40
1.0
 40
1.0
 10
9.334045434582233
 20
-16.29597022054329
 30
0.0
 10
9.302783931450587
 20
-16.29597053272444
 30
0.0
 10
9.277441701800979
 20
-16.32131318979547
 30
0.0
 10
9.277441916871149
 20
-16.35257469292787
 30
0.0
  0
SPLINE
  5
155
330
70
100
AcDbEntity
  8
Layer 1
 62
     7
370
     5
100
AcDbSpline
210
0.0
220
0.0
230
1.0
 70
     8
 71
     3
 72
     8
 73
     4
 74
     0
 42
0.0000000001
 43
0.0000000001
 40
0.0
 40
0.0
 40
0.0
 40
0.0
 40
1.0
 40
1.0
 40
1.0
 40
1.0
 10
9.333353149398298
 20
-16.29527763435317
 30
0.0
 10
9.331556122429004
 20
-16.29527811503256
 30
0.0
 10
9.329760146530235
 20
-16.29536453581495
 30
0.0
 10
9.327971376035419
 20
-16.29553660055927
 30
0.0
  0
SPLINE
  5
156
330
70
100
AcDbEntity
  8
Layer 1
 62
     7
370
     5
100
AcDbSpline
210
0.0
220
0.0
230
1.0
 70
     8
 71
     3
 72
     8
 73
     4
 74
     0
 42
0.0000000001
 43
0.0000000001
 40
0.0
 40
0.0
 40
0.0
 40
0.0
 40
1.0
 40
1.0
 40
1.0
 40
1.0
 10
10.05614355287548
 20
-16.73262123195589
 30
0.0
 10
10.05613754917266
 20
-16.71604730604559
 30
0.0
 10
10.04270321723942
 20
-16.70261298952166
 30
0.0
 10
10.0261292913223
 20
-16.70260700482931
 30
0.0
  0
SPLINE
  5
157
330
70
100
AcDbEntity
  8
Layer 1
 62
     7
370
     5
100
AcDbSpline
210
0.0
220
0.0
230
1.0
 70
     8
 71
     3
 72
     8
 73
     4
 74
     0
 42
0.0000000001
 43
0.0000000001
 40
0.0
 40
0.0
 40
0.0
 40
0.0
 40
1.0
 40
1.0
 40
1.0
 40
1.0
 10
10.09263480332937
 20
-16.69089506093147
 30
0.0
 10
10.0815820338076
 20
-16.69089506093147
 30
0.0
 10
10.07262199376845
 20
-16.69985510097065
 30
0.0
 10
10.07262199376845
 20
-16.71090787049244
 30
0.0
  0
SPLINE
  5
158
330
70
100
AcDbEntity
  8
Layer 1
 62
     7
370
     5
100
AcDbSpline
210
0.0
220
0.0
230
1.0
 70
     8
 71
     3
 72
     8
 73
     4
 74
     0
 42
0.0000000001
 43
0.0000000001
 40
0.0
 40
0.0
 40
0.0
 40
0.0
 40
1.0
 40
1.0
 40
1.0
 40
1.0
 10
10.70132951528524
 20
-17.77988804104772
 30
0.0
 10
10.73448056557933
 20
-17.77988280529888
 30
0.0
 10
10.7613534647478
 20
-17.75300982383656
 30
0.0
 10
10.7613585989771
 20
-17.71985877352659
 30
0.0
  0
SPLINE
  5
159
330
70
100
AcDbEntity
  8
Layer 1
 62
     7
370
     5
100
AcDbSpline
210
0.0
220
0.0
230
1.0
 70
     8
 71
     3
 72
     8
 73
     4
 74
     0
 42
0.0000000001
 43
0.0000000001
 40
0.0
 40
0.0
 40
0.0
 40
0.0
 40
1.0
 40
1.0
 40
1.0
 40
1.0
 10
10.71268562230486
 20
-17.79124406035619
 30
0.0
 10
10.74583745583929
 20
-17.791240941813
 30
0.0
 10
10.77271147546807
 20
-17.76436671409972
 30
0.0
 10
10.77271433731898
 20
-17.73121488054216
 30
0.0
  0
SPLINE
  5
15A
330
70
100
AcDbEntity
  8
Layer 1
 62
     7
370
     5
100
AcDbSpline
210
0.0
220
0.0
230
1.0
 70
     8
 71
     3
 72
     8
 73
     4
 74
     0
 42
0.0000000001
 43
0.0000000001
 40
0.0
 40
0.0
 40
0.0
 40
0.0
 40
1.0
 40
1.0
 40
1.0
 40
1.0
 10
11.16785530612024
 20
-18.14026799734761
 30
0.0
 10
11.16840733028296
 20
-18.13707900036924
 30
0.0
 10
11.1686858265406
 20
-18.133848662406
 30
0.0
 10
11.1686877553129
 20
-18.13061224020174
 30
0.0
  0
SPLINE
  5
15B
330
70
100
AcDbEntity
  8
Layer 1
 62
     7
370
     5
100
AcDbSpline
210
0.0
220
0.0
230
1.0
 70
     8
 71
     3
 72
     8
 73
     4
 74
     0
 42
0.0000000001
 43
0.0000000001
 40
0.0
 40
0.0
 40
0.0
 40
0.0
 40
1.0
 40
1.0
 40
1.0
 40
1.0
 10
11.11208298157703
 20
-18.18721701328319
 30
0.0
 10
11.11595312778155
 20
-18.18721507641478
 30
0.0
 10
11.11981289762742
 20
-18.1868167235235
 30
0.0
 10
11.12360186216539
 20
-18.18602819126282
 30
0.0
  0
SPLINE
  5
15C
330
70
100
AcDbEntity
  8
Layer 1
 62
     7
370
     5
100
AcDbSpline
210
0.0
220
0.0
230
1.0
 70
     8
 71
     3
 72
     8
 73
     4
 74
     0
 42
0.0000000001
 43
0.0000000001
 40
0.0
 40
0.0
 40
0.0
 40
0.0
 40
1.0
 40
1.0
 40
1.0
 40
1.0
 10
11.1236020310587
 20
-18.18602900352508
 30
0.0
 10
11.14634551752517
 20
-18.18130077503221
 30
0.0
 10
11.16389151469661
 20
-18.16315709251724
 30
0.0
 10
11.16785554747515
 20
-18.14026803911914
 30
0.0
  0
SPLINE
  5
15D
330
70
100
AcDbEntity
  8
Layer 1
 62
     7
370
     5
100
AcDbSpline
210
0.0
220
0.0
230
1.0
 70
     8
 71
     3
 72
     8
 73
     4
 74
     0
 42
0.0000000001
 43
0.0000000001
 40
0.0
 40
0.0
 40
0.0
 40
0.0
 40
1.0
 40
1.0
 40
1.0
 40
1.0
 10
11.11139069647065
 20
-18.186524427171
 30
0.0
 10
11.14265219960067
 20
-18.18652411498879
 30
0.0
 10
11.16799442924873
 20
-18.16118145791946
 30
0.0
 10
11.16799421417978
 20
-18.12991995478865
 30
0.0
  0
SPLINE
  5
15E
330
70
100
AcDbEntity
  8
Layer 1
 62
     7
370
     5
100
AcDbSpline
210
0.0
220
0.0
230
1.0
 70
     8
 71
     3
 72
     8
 73
     4
 74
     0
 42
0.0000000001
 43
0.0000000001
 40
0.0
 40
0.0
 40
0.0
 40
0.0
 40
1.0
 40
1.0
 40
1.0
 40
1.0
 10
10.38929257817543
 20
-17.74987341565861
 30
0.0
 10
10.38929858187835
 20
-17.76644734155886
 30
0.0
 10
10.40273291379607
 20
-17.77988165807851
 30
0.0
 10
10.41930683970323
 20
-17.77988764278489
 30
0.0
  0
SPLINE
  5
15F
330
70
100
AcDbEntity
  8
Layer 1
 62
     7
370
     5
100
AcDbSpline
210
0.0
220
0.0
230
1.0
 70
     8
 71
     3
 72
     8
 73
     4
 74
     0
 42
0.0000000001
 43
0.0000000001
 40
0.0
 40
0.0
 40
0.0
 40
0.0
 40
1.0
 40
1.0
 40
1.0
 40
1.0
 10
10.36728237477779
 20
-21.49344079544079
 30
0.0
 10
10.38386152906043
 20
-21.49344079544079
 30
0.0
 10
10.3973015891192
 20
-21.48000073538206
 30
0.0
 10
10.3973015891192
 20
-21.46342158109941
 30
0.0
  0
SPLINE
  5
160
330
70
100
AcDbEntity
  8
Layer 1
 62
     7
370
     5
100
AcDbSpline
210
0.0
220
0.0
230
1.0
 70
     8
 71
     3
 72
     8
 73
     4
 74
     0
 42
0.0000000001
 43
0.0000000001
 40
0.0
 40
0.0
 40
0.0
 40
0.0
 40
1.0
 40
1.0
 40
1.0
 40
1.0
 10
10.36728237473284
 20
-21.49343622345049
 30
0.0
 10
10.36793249503674
 20
-21.49343596430984
 30
0.0
 10
10.36858243246876
 20
-21.49341441292732
 30
0.0
 10
10.36923114185593
 20
-21.49337160396013
 30
0.0
  0
SPLINE
  5
161
330
70
100
AcDbEntity
  8
Layer 1
 62
     7
370
     5
100
AcDbSpline
210
0.0
220
0.0
230
1.0
 70
     8
 71
     3
 72
     8
 73
     4
 74
     0
 42
0.0000000001
 43
0.0000000001
 40
0.0
 40
0.0
 40
0.0
 40
0.0
 40
1.0
 40
1.0
 40
1.0
 40
1.0
 10
10.35280132762148
 20
-19.69281649507136
 30
0.0
 10
10.36385409714327
 20
-19.69281649507136
 30
0.0
 10
10.37281413718243
 20
-19.68385645503215
 30
0.0
 10
10.37281413718243
 20
-19.67280368551044
 30
0.0
  0
LINE
  5
162
330
70
100
AcDbEntity
  8
Layer 1
 62
     7
370
     5
100
AcDbLine
 10
11.50550559463968
 20
-15.99824553101024
 30
0.0
 11
11.50550559463968
 21
-15.99824553101024
 31
0.0
  0
SPLINE
  5
163
330
70
100
AcDbEntity
  8
Layer 1
 62
     7
370
     5
100
AcDbSpline
210
0.0
220
0.0
230
1.0
 70
     8
 71
     3
 72
     8
 73
     4
 74
     0
 42
0.0000000001
 43
0.0000000001
 40
0.0
 40
0.0
 40
0.0
 40
0.0
 40
1.0
 40
1.0
 40
1.0
 40
1.0
 10
10.76135878086453
 20
-16.76263587415582
 30
0.0
 10
10.76135354407075
 20
-16.7294848253309
 30
0.0
 10
10.73448056405361
 20
-16.70261192761821
 30
0.0
 10
10.70132951521282
 20
-16.70260679235699
 30
0.0
  0
SPLINE
  5
164
330
70
100
AcDbEntity
  8
Layer 1
 62
     7
370
     5
100
AcDbSpline
210
0.0
220
0.0
230
1.0
 70
     8
 71
     3
 72
     8
 73
     4
 74
     0
 42
0.0000000001
 43
0.0000000001
 40
0.0
 40
0.0
 40
0.0
 40
0.0
 40
1.0
 40
1.0
 40
1.0
 40
1.0
 10
10.7727148028759
 20
-16.75127976699594
 30
0.0
 10
10.77271168939841
 20
-16.7181279295468
 30
0.0
 10
10.74583745968363
 20
-16.69125390418995
 30
0.0
 10
10.71268562221178
 20
-16.69125104280768
 30
0.0
  0
SPLINE
  5
165
330
70
100
AcDbEntity
  8
Layer 1
 62
     7
370
     5
100
AcDbSpline
210
0.0
220
0.0
230
1.0
 70
     8
 71
     3
 72
     8
 73
     4
 74
     0
 42
0.0000000001
 43
0.0000000001
 40
0.0
 40
0.0
 40
0.0
 40
0.0
 40
1.0
 40
1.0
 40
1.0
 40
1.0
 10
11.16842878885187
 20
-16.34650063437764
 30
0.0
 10
11.16825785320631
 20
-16.34472064950748
 30
0.0
 10
11.16800324765165
 20
-16.34294969474404
 30
0.0
 10
11.1676658170136
 20
-16.34119364642533
 30
0.0
  0
SPLINE
  5
166
330
70
100
AcDbEntity
  8
Layer 1
 62
     7
370
     5
100
AcDbSpline
210
0.0
220
0.0
230
1.0
 70
     8
 71
     3
 72
     8
 73
     4
 74
     0
 42
0.0000000001
 43
0.0000000001
 40
0.0
 40
0.0
 40
0.0
 40
0.0
 40
1.0
 40
1.0
 40
1.0
 40
1.0
 10
11.12229216612511
 20
-16.29620914648747
 30
0.0
 10
11.11892411585983
 20
-16.29559172045808
 30
0.0
 10
11.11550715657915
 20
-16.29527994825339
 30
0.0
 10
11.11208298191419
 20
-16.29527763410839
 30
0.0
  0
SPLINE
  5
167
330
70
100
AcDbEntity
  8
Layer 1
 62
     7
370
     5
100
AcDbSpline
210
0.0
220
0.0
230
1.0
 70
     8
 71
     3
 72
     8
 73
     4
 74
     0
 42
0.0000000001
 43
0.0000000001
 40
0.0
 40
0.0
 40
0.0
 40
0.0
 40
1.0
 40
1.0
 40
1.0
 40
1.0
 10
11.16766617512854
 20
-16.34119357751931
 30
0.0
 10
11.16325893572328
 20
-16.31827991959529
 30
0.0
 10
11.14524300094338
 20
-16.30041850000536
 30
0.0
 10
11.12229223186814
 20
-16.29620878772468
 30
0.0
  0
SPLINE
  5
168
330
70
100
AcDbEntity
  8
Layer 1
 62
     7
370
     5
100
AcDbSpline
210
0.0
220
0.0
230
1.0
 70
     8
 71
     3
 72
     8
 73
     4
 74
     0
 42
0.0000000001
 43
0.0000000001
 40
0.0
 40
0.0
 40
0.0
 40
0.0
 40
1.0
 40
1.0
 40
1.0
 40
1.0
 10
11.1679951687893
 20
-16.35257469286193
 30
0.0
 10
11.16799485660705
 20
-16.32131318973218
 30
0.0
 10
11.14265219953822
 20
-16.29597096008436
 30
0.0
 10
11.1113906964077
 20
-16.29597117515275
 30
0.0
  0
SPLINE
  5
169
330
70
100
AcDbEntity
  8
Layer 1
 62
     7
370
     5
100
AcDbSpline
210
0.0
220
0.0
230
1.0
 70
     8
 71
     3
 72
     8
 73
     4
 74
     0
 42
0.0000000001
 43
0.0000000001
 40
0.0
 40
0.0
 40
0.0
 40
0.0
 40
1.0
 40
1.0
 40
1.0
 40
1.0
 10
11.16868775507942
 20
-16.35188240768
 30
0.0
 10
11.16868727440005
 20
-16.35008538071065
 30
0.0
 10
11.1686008536177
 20
-16.34828940481187
 30
0.0
 10
11.16842878887339
 20
-16.34650063431705
 30
0.0
  0
SPLINE
  5
16A
330
70
100
AcDbEntity
  8
Layer 1
 62
     7
370
     5
100
AcDbSpline
210
0.0
220
0.0
230
1.0
 70
     8
 71
     3
 72
     8
 73
     4
 74
     0
 42
0.0000000001
 43
0.0000000001
 40
0.0
 40
0.0
 40
0.0
 40
0.0
 40
1.0
 40
1.0
 40
1.0
 40
1.0
 10
10.41930683972469
 20
-16.70260700673975
 30
0.0
 10
10.40273291717581
 20
-16.70261300556429
 30
0.0
 10
10.3892985881101
 20
-16.7160473094166
 30
0.0
 10
10.38929255817989
 20
-16.73262123195423
 30
0.0
  0
SPLINE
  5
16B
330
70
100
AcDbEntity
  8
Layer 1
 62
     7
370
     5
100
AcDbSpline
210
0.0
220
0.0
230
1.0
 70
     8
 71
     3
 72
     8
 73
     4
 74
     0
 42
0.0000000001
 43
0.0000000001
 40
0.0
 40
0.0
 40
0.0
 40
0.0
 40
1.0
 40
1.0
 40
1.0
 40
1.0
 10
10.37281413718243
 20
-16.71090787049244
 30
0.0
 10
10.37281413718243
 20
-16.69985510097065
 30
0.0
 10
10.36385409714327
 20
-16.69089506093147
 30
0.0
 10
10.35280132762148
 20
-16.69089506093147
 30
0.0
  0
SPLINE
  5
16C
330
70
100
AcDbEntity
  8
Layer 1
 62
     7
370
     5
100
AcDbSpline
210
0.0
220
0.0
230
1.0
 70
     8
 71
     3
 72
     8
 73
     4
 74
     0
 42
0.0000000001
 43
0.0000000001
 40
0.0
 40
0.0
 40
0.0
 40
0.0
 40
1.0
 40
1.0
 40
1.0
 40
1.0
 10
10.56405147842819
 20
-8.862149372954906
 30
0.0
 10
10.45028273715043
 20
-8.860332830148346
 30
0.0
 10
10.3365013082542
 20
-8.859424428405594
 30
0.0
 10
10.22271806555277
 20
-8.859424254540309
 30
0.0
  0
SPLINE
  5
16D
330
70
100
AcDbEntity
  8
Layer 1
 62
     7
370
     5
100
AcDbSpline
210
0.0
220
0.0
230
1.0
 70
     8
 71
     3
 72
     8
 73
     4
 74
     0
 42
0.0000000001
 43
0.0000000001
 40
0.0
 40
0.0
 40
0.0
 40
0.0
 40
1.0
 40
1.0
 40
1.0
 40
1.0
 10
10.22271806553148
 20
-8.859424254634847
 30
0.0
 10
10.10806516579568
 20
-8.859424409088685
 30
0.0
 10
9.993414121601164
 20
-8.860346729125517
 30
0.0
 10
9.87877605802368
 20
-8.862191125248816
 30
0.0
  0
SPLINE
  5
16E
330
70
100
AcDbEntity
  8
Layer 1
 62
     7
370
     5
100
AcDbSpline
210
0.0
220
0.0
230
1.0
 70
     8
 71
     3
 72
     8
 73
     4
 74
     0
 42
0.0000000001
 43
0.0000000001
 40
0.0
 40
0.0
 40
0.0
 40
0.0
 40
1.0
 40
1.0
 40
1.0
 40
1.0
 10
8.917839829116637
 20
-4.509299617891037
 30
0.0
 10
8.912954356176909
 20
-4.381340901053223
 30
0.0
 10
8.808530739745707
 20
-4.279722595340394
 30
0.0
 10
8.680486445624739
 20
-4.278322665454689
 30
0.0
  0
SPLINE
  5
16F
330
70
100
AcDbEntity
  8
Layer 1
 62
     7
370
     5
100
AcDbSpline
210
0.0
220
0.0
230
1.0
 70
     8
 71
     3
 72
     8
 73
     4
 74
     0
 42
0.0000000001
 43
0.0000000001
 40
0.0
 40
0.0
 40
0.0
 40
0.0
 40
1.0
 40
1.0
 40
1.0
 40
1.0
 10
8.92575939244303
 20
-5.015943820173649
 30
0.0
 10
8.928162840573437
 20
-5.030070883865315
 30
0.0
 10
8.935539951954144
 20
-5.042872405103531
 30
0.0
 10
8.946557761094721
 20
-5.052035285284205
 30
0.0
  0
SPLINE
  5
170
330
70
100
AcDbEntity
  8
Layer 1
 62
     7
370
     5
100
AcDbSpline
210
0.0
220
0.0
230
1.0
 70
     8
 71
     3
 72
     8
 73
     4
 74
     0
 42
0.0000000001
 43
0.0000000001
 40
0.0
 40
0.0
 40
0.0
 40
0.0
 40
1.0
 40
1.0
 40
1.0
 40
1.0
 10
8.924923834012536
 20
-5.006812789358377
 30
0.0
 10
8.92548765919912
 20
-5.024306179789542
 30
0.0
 10
8.933658376392397
 20
-5.04068224495831
 30
0.0
 10
8.947296246216788
 20
-5.05165243703824
 30
0.0
  0
SPLINE
  5
171
330
70
100
AcDbEntity
  8
Layer 1
 62
     7
370
     5
100
AcDbSpline
210
0.0
220
0.0
230
1.0
 70
     8
 71
     3
 72
     8
 73
     4
 74
     0
 42
0.0000000001
 43
0.0000000001
 40
0.0
 40
0.0
 40
0.0
 40
0.0
 40
1.0
 40
1.0
 40
1.0
 40
1.0
 10
6.725355195520743
 20
-4.197103636751547
 30
0.0
 10
6.725823798184996
 20
-4.22394986540731
 30
0.0
 10
6.747399844642927
 20
-4.245639731223692
 30
0.0
 10
6.774243236236984
 20
-4.246249574828273
 30
0.0
  0
SPLINE
  5
172
330
70
100
AcDbEntity
  8
Layer 1
 62
     7
370
     5
100
AcDbSpline
210
0.0
220
0.0
230
1.0
 70
     8
 71
     3
 72
     8
 73
     4
 74
     0
 42
0.0000000001
 43
0.0000000001
 40
0.0
 40
0.0
 40
0.0
 40
0.0
 40
1.0
 40
1.0
 40
1.0
 40
1.0
 10
10.0921153887687
 20
-9.182967385451471
 30
0.0
 10
10.07574047565211
 20
-9.182967385451471
 30
0.0
 10
10.06238652813814
 20
-9.196090273125276
 30
0.0
 10
10.06210074649901
 20
-9.212462692263278
 30
0.0
  0
SPLINE
  5
173
330
70
100
AcDbEntity
  8
Layer 1
 62
     7
370
     5
100
AcDbSpline
210
0.0
220
0.0
230
1.0
 70
     8
 71
     3
 72
     8
 73
     4
 74
     0
 42
0.0000000001
 43
0.0000000001
 40
0.0
 40
0.0
 40
0.0
 40
0.0
 40
1.0
 40
1.0
 40
1.0
 40
1.0
 10
10.02612929147296
 20
-9.583223576670118
 30
0.0
 10
10.04250420458956
 20
-9.583223576670118
 30
0.0
 10
10.05585815210352
 20
-9.570100688996401
 30
0.0
 10
10.05614393374259
 20
-9.55372826985836
 30
0.0
  0
SPLINE
  5
174
330
70
100
AcDbEntity
  8
Layer 1
 62
     7
370
     5
100
AcDbSpline
210
0.0
220
0.0
230
1.0
 70
     8
 71
     3
 72
     8
 73
     4
 74
     0
 42
0.0000000001
 43
0.0000000001
 40
0.0
 40
0.0
 40
0.0
 40
0.0
 40
1.0
 40
1.0
 40
1.0
 40
1.0
 10
9.684077331271003
 20
-9.55372826985836
 30
0.0
 10
9.684363112910078
 20
-9.570100688996401
 30
0.0
 10
9.69771706042411
 20
-9.583223576670143
 30
0.0
 10
9.714091973540739
 20
-9.583223576670118
 30
0.0
  0
SPLINE
  5
175
330
70
100
AcDbEntity
  8
Layer 1
 62
     7
370
     5
100
AcDbSpline
210
0.0
220
0.0
230
1.0
 70
     8
 71
     3
 72
     8
 73
     4
 74
     0
 42
0.0000000001
 43
0.0000000001
 40
0.0
 40
0.0
 40
0.0
 40
0.0
 40
1.0
 40
1.0
 40
1.0
 40
1.0
 10
9.296345490289404
 20
-8.83328411563952
 30
0.0
 10
9.296631271928491
 20
-8.849656534778116
 30
0.0
 10
9.309985219443344
 20
-8.862779422452124
 30
0.0
 10
9.326360132560504
 20
-8.862779422451289
 30
0.0
  0
SPLINE
  5
176
330
70
100
AcDbEntity
  8
Layer 1
 62
     7
370
     5
100
AcDbSpline
210
0.0
220
0.0
230
1.0
 70
     8
 71
     3
 72
     8
 73
     4
 74
     0
 42
0.0000000001
 43
0.0000000001
 40
0.0
 40
0.0
 40
0.0
 40
0.0
 40
1.0
 40
1.0
 40
1.0
 40
1.0
 10
8.921370601525886
 20
-4.708627075156628
 30
0.0
 10
8.921656383164934
 20
-4.724999494294504
 30
0.0
 10
8.935010330678739
 20
-4.738122381968208
 30
0.0
 10
8.951385243795154
 20
-4.738122381968423
 30
0.0
  0
SPLINE
  5
177
330
70
100
AcDbEntity
  8
Layer 1
 62
     7
370
     5
100
AcDbSpline
210
0.0
220
0.0
230
1.0
 70
     8
 71
     3
 72
     8
 73
     4
 74
     0
 42
0.0000000001
 43
0.0000000001
 40
0.0
 40
0.0
 40
0.0
 40
0.0
 40
1.0
 40
1.0
 40
1.0
 40
1.0
 10
9.276748375701533
 20
-7.675526092564849
 30
0.0
 10
9.27703415734062
 20
-7.691898511702864
 30
0.0
 10
9.290388104854615
 20
-7.705021399376631
 30
0.0
 10
9.30676301797118
 20
-7.705021399376631
 30
0.0
  0
SPLINE
  5
178
330
70
100
AcDbEntity
  8
Layer 1
 62
     7
370
     5
100
AcDbSpline
210
0.0
220
0.0
230
1.0
 70
     8
 71
     3
 72
     8
 73
     4
 74
     0
 42
0.0000000001
 43
0.0000000001
 40
0.0
 40
0.0
 40
0.0
 40
0.0
 40
1.0
 40
1.0
 40
1.0
 40
1.0
 10
10.07262199376845
 20
-9.913434934425518
 30
0.0
 10
10.07262199376845
 20
-9.924487703947319
 30
0.0
 10
10.0815820338076
 20
-9.933447743986461
 30
0.0
 10
10.09263480332937
 20
-9.933447743986461
 30
0.0
  0
SPLINE
  5
179
330
70
100
AcDbEntity
  8
Layer 1
 62
     7
370
     5
100
AcDbSpline
210
0.0
220
0.0
230
1.0
 70
     8
 71
     3
 72
     8
 73
     4
 74
     0
 42
0.0000000001
 43
0.0000000001
 40
0.0
 40
0.0
 40
0.0
 40
0.0
 40
1.0
 40
1.0
 40
1.0
 40
1.0
 10
10.09263480332937
 20
-9.182967385451471
 30
0.0
 10
10.0815820338076
 20
-9.182967385451471
 30
0.0
 10
10.07262199376845
 20
-9.191927425490677
 30
0.0
 10
10.07262199376845
 20
-9.202980195012425
 30
0.0
  0
SPLINE
  5
17A
330
70
100
AcDbEntity
  8
Layer 1
 62
     7
370
     5
100
AcDbSpline
210
0.0
220
0.0
230
1.0
 70
     8
 71
     3
 72
     8
 73
     4
 74
     0
 42
0.0000000001
 43
0.0000000001
 40
0.0
 40
0.0
 40
0.0
 40
0.0
 40
1.0
 40
1.0
 40
1.0
 40
1.0
 10
9.858985251705474
 20
-8.882775242037533
 30
0.0
 10
9.870038021227236
 20
-8.882775242037533
 30
0.0
 10
9.878998061266454
 20
-8.873815201998354
 30
0.0
 10
9.878998061266454
 20
-8.862762432476566
 30
0.0
  0
SPLINE
  5
17B
330
70
100
AcDbEntity
  8
Layer 1
 62
     7
370
     5
100
AcDbSpline
210
0.0
220
0.0
230
1.0
 70
     8
 71
     3
 72
    11
 73
     7
 74
     0
 42
0.0000000001
 43
0.0000000001
 40
0.0
 40
0.0
 40
0.0
 40
0.0
 40
1.0
 40
1.0
 40
1.0
 40
2.0
 40
2.0
 40
2.0
 40
2.0
 10
9.69273098555373
 20
-8.882775242037533
 30
0.0
 10
9.681678216031968
 20
-8.882775242037533
 30
0.0
 10
9.672718175992775
 20
-8.891735282076663
 30
0.0
 10
9.672718175992775
 20
-8.902788051598411
 30
0.0
 10
9.672718175992775
 20
-8.902904482143803
 30
0.0
 10
9.672719192047425
 20
-8.903020910472415
 30
0.0
 10
9.672721224040653
 20
-8.903137323284845
 30
0.0
  0
SPLINE
  5
17C
330
70
100
AcDbEntity
  8
Layer 1
 62
     7
370
     5
100
AcDbSpline
210
0.0
220
0.0
230
1.0
 70
     8
 71
     3
 72
    11
 73
     7
 74
     0
 42
0.0000000001
 43
0.0000000001
 40
0.0
 40
0.0
 40
0.0
 40
0.0
 40
1.0
 40
1.0
 40
1.0
 40
2.0
 40
2.0
 40
2.0
 40
2.0
 10
8.937159331242783
 20
-4.833183227382846
 30
0.0
 10
8.928869754101457
 20
-4.833183227382846
 30
0.0
 10
8.922149724072053
 20
-4.839903257412225
 30
0.0
 10
8.922149724072053
 20
-4.848192834553552
 30
0.0
 10
8.922149724072053
 20
-4.848280157462593
 30
0.0
 10
8.922150486113055
 20
-4.848367478709039
 30
0.0
 10
8.922152010107941
 20
-4.848454788318374
 30
0.0
  0
SPLINE
  5
17D
330
70
100
AcDbEntity
  8
Layer 1
 62
     7
370
     5
100
AcDbSpline
210
0.0
220
0.0
230
1.0
 70
     8
 71
     3
 72
    11
 73
     7
 74
     0
 42
0.0000000001
 43
0.0000000001
 40
0.0
 40
0.0
 40
0.0
 40
0.0
 40
1.0
 40
1.0
 40
1.0
 40
2.0
 40
2.0
 40
2.0
 40
2.0
 10
9.28744550134508
 20
-7.740043816108267
 30
0.0
 10
9.2819191165842
 20
-7.740043816108267
 30
0.0
 10
9.277439096564622
 20
-7.744523836127856
 30
0.0
 10
9.277439096564622
 20
-7.750050220888763
 30
0.0
 10
9.277439096564622
 20
-7.750108436161452
 30
0.0
 10
9.277439604591942
 20
-7.750166650325708
 30
0.0
 10
9.277440620588537
 20
-7.750224856731947
 30
0.0
  0
SPLINE
  5
17E
330
70
100
AcDbEntity
  8
Layer 1
 62
     7
370
     5
100
AcDbSpline
210
0.0
220
0.0
230
1.0
 70
     8
 71
     3
 72
     8
 73
     4
 74
     0
 42
0.0000000001
 43
0.0000000001
 40
0.0
 40
0.0
 40
0.0
 40
0.0
 40
1.0
 40
1.0
 40
1.0
 40
1.0
 10
11.76494968543218
 20
-4.278322665490779
 30
0.0
 10
12.40042155640329
 20
-4.271374944236994
 30
0.0
 10
13.03584698510308
 20
-4.260683728502941
 30
0.0
 10
13.67119289469365
 20
-4.246249574815944
 30
0.0
  0
SPLINE
  5
17F
330
70
100
AcDbEntity
  8
Layer 1
 62
     7
370
     5
100
AcDbSpline
210
0.0
220
0.0
230
1.0
 70
     8
 71
     3
 72
     8
 73
     4
 74
     0
 42
0.0000000001
 43
0.0000000001
 40
0.0
 40
0.0
 40
0.0
 40
0.0
 40
1.0
 40
1.0
 40
1.0
 40
1.0
 10
10.3833353845519
 20
-9.212462692263278
 30
0.0
 10
10.38304960291279
 20
-9.196090273125276
 30
0.0
 10
10.36969565539881
 20
-9.182967385451471
 30
0.0
 10
10.35332074228226
 20
-9.182967385451471
 30
0.0
  0
SPLINE
  5
180
330
70
100
AcDbEntity
  8
Layer 1
 62
     7
370
     5
100
AcDbSpline
210
0.0
220
0.0
230
1.0
 70
     8
 71
     3
 72
     8
 73
     4
 74
     0
 42
0.0000000001
 43
0.0000000001
 40
0.0
 40
0.0
 40
0.0
 40
0.0
 40
1.0
 40
1.0
 40
1.0
 40
1.0
 10
10.38929219730832
 20
-9.55372826985836
 30
0.0
 10
10.38957797894738
 20
-9.570100688996401
 30
0.0
 10
10.40293192646138
 20
-9.583223576670118
 30
0.0
 10
10.41930683957795
 20
-9.583223576670118
 30
0.0
  0
SPLINE
  5
181
330
70
100
AcDbEntity
  8
Layer 1
 62
     7
370
     5
100
AcDbSpline
210
0.0
220
0.0
230
1.0
 70
     8
 71
     3
 72
     8
 73
     4
 74
     0
 42
0.0000000001
 43
0.0000000001
 40
0.0
 40
0.0
 40
0.0
 40
0.0
 40
1.0
 40
1.0
 40
1.0
 40
1.0
 10
10.73134415751026
 20
-9.583223576670118
 30
0.0
 10
10.74771907062687
 20
-9.583223576670118
 30
0.0
 10
10.76107301814088
 20
-9.570100688996337
 30
0.0
 10
10.76135879977993
 20
-9.553728269858284
 30
0.0
  0
SPLINE
  5
182
330
70
100
AcDbEntity
  8
Layer 1
 62
     7
370
     5
100
AcDbSpline
210
0.0
220
0.0
230
1.0
 70
     8
 71
     3
 72
     8
 73
     4
 74
     0
 42
0.0000000001
 43
0.0000000001
 40
0.0
 40
0.0
 40
0.0
 40
0.0
 40
1.0
 40
1.0
 40
1.0
 40
1.0
 10
11.11907599849186
 20
-8.862779422451289
 30
0.0
 10
11.13545091160906
 20
-8.862779422451289
 30
0.0
 10
11.14880485912327
 20
-8.849656534776675
 30
0.0
 10
11.14909064076158
 20
-8.833284115638081
 30
0.0
  0
SPLINE
  5
183
330
70
100
AcDbEntity
  8
Layer 1
 62
     7
370
     5
100
AcDbSpline
210
0.0
220
0.0
230
1.0
 70
     8
 71
     3
 72
     8
 73
     4
 74
     0
 42
0.0000000001
 43
0.0000000001
 40
0.0
 40
0.0
 40
0.0
 40
0.0
 40
1.0
 40
1.0
 40
1.0
 40
1.0
 10
11.13867311307972
 20
-7.705021399376631
 30
0.0
 10
11.15504802619651
 20
-7.705021399376631
 30
0.0
 10
11.16840197371056
 20
-7.691898511702573
 30
0.0
 10
11.1686877553494
 20
-7.675526092564369
 30
0.0
  0
SPLINE
  5
184
330
70
100
AcDbEntity
  8
Layer 1
 62
     7
370
     5
100
AcDbSpline
210
0.0
220
0.0
230
1.0
 70
     8
 71
     3
 72
     8
 73
     4
 74
     0
 42
0.0000000001
 43
0.0000000001
 40
0.0
 40
0.0
 40
0.0
 40
0.0
 40
1.0
 40
1.0
 40
1.0
 40
1.0
 10
10.35280132762148
 20
-9.933447743986461
 30
0.0
 10
10.36385409714327
 20
-9.933447743986461
 30
0.0
 10
10.37281413718243
 20
-9.924487703947319
 30
0.0
 10
10.37281413718243
 20
-9.913434934425518
 30
0.0
  0
SPLINE
  5
185
330
70
100
AcDbEntity
  8
Layer 1
 62
     7
370
     5
100
AcDbSpline
210
0.0
220
0.0
230
1.0
 70
     8
 71
     3
 72
     8
 73
     4
 74
     0
 42
0.0000000001
 43
0.0000000001
 40
0.0
 40
0.0
 40
0.0
 40
0.0
 40
1.0
 40
1.0
 40
1.0
 40
1.0
 10
10.37281413718243
 20
-9.202980195012425
 30
0.0
 10
10.37281413718243
 20
-9.191927425490677
 30
0.0
 10
10.36385409714327
 20
-9.182967385451471
 30
0.0
 10
10.35280132762148
 20
-9.182967385451471
 30
0.0
  0
SPLINE
  5
186
330
70
100
AcDbEntity
  8
Layer 1
 62
     7
370
     5
100
AcDbSpline
210
0.0
220
0.0
230
1.0
 70
     8
 71
     3
 72
     8
 73
     4
 74
     0
 42
0.0000000001
 43
0.0000000001
 40
0.0
 40
0.0
 40
0.0
 40
0.0
 40
1.0
 40
1.0
 40
1.0
 40
1.0
 10
10.56643806968446
 20
-8.862762432476566
 30
0.0
 10
10.56643806968446
 20
-8.873815201998354
 30
0.0
 10
10.57539810972361
 20
-8.882775242037533
 30
0.0
 10
10.58645087924541
 20
-8.882775242037533
 30
0.0
  0
SPLINE
  5
187
330
70
100
AcDbEntity
  8
Layer 1
 62
     7
370
     5
100
AcDbSpline
210
0.0
220
0.0
230
1.0
 70
     8
 71
     3
 72
    11
 73
     7
 74
     0
 42
0.0000000001
 43
0.0000000001
 40
0.0
 40
0.0
 40
0.0
 40
0.0
 40
1.0
 40
1.0
 40
1.0
 40
2.0
 40
2.0
 40
2.0
 40
2.0
 10
10.77271490701029
 20
-8.903137323284845
 30
0.0
 10
10.77290780443626
 20
-8.892086237153408
 30
0.0
 10
10.76410550331503
 20
-8.882971187511303
 30
0.0
 10
10.75305441718361
 20
-8.882778290085322
 30
0.0
 10
10.75293800437119
 20
-8.882776258092121
 30
0.0
 10
10.75282157604253
 20
-8.882775242037533
 30
0.0
 10
10.75270514549719
 20
-8.882775242037533
 30
0.0
  0
SPLINE
  5
188
330
70
100
AcDbEntity
  8
Layer 1
 62
     7
370
     5
100
AcDbSpline
210
0.0
220
0.0
230
1.0
 70
     8
 71
     3
 72
    11
 73
     7
 74
     0
 42
0.0000000001
 43
0.0000000001
 40
0.0
 40
0.0
 40
0.0
 40
0.0
 40
1.0
 40
1.0
 40
1.0
 40
2.0
 40
2.0
 40
2.0
 40
2.0
 10
11.16799551046237
 20
-7.750224856731947
 30
0.0
 10
11.16809195917539
 20
-7.744699313666223
 30
0.0
 10
11.16369080861477
 20
-7.740141788845157
 30
0.0
 10
11.15816526554903
 20
-7.740045340132205
 30
0.0
 10
11.15810705914284
 20
-7.740044324135598
 30
0.0
 10
11.15804884497851
 20
-7.740043816108267
 30
0.0
 10
11.15799062970585
 20
-7.740043816108267
 30
0.0
  0
SPLINE
  5
189
330
70
100
AcDbEntity
  8
Layer 1
 62
     7
370
     5
100
AcDbSpline
210
0.0
220
0.0
230
1.0
 70
     8
 71
     3
 72
     8
 73
     4
 74
     0
 42
0.0000000001
 43
0.0000000001
 40
0.0
 40
0.0
 40
0.0
 40
0.0
 40
1.0
 40
1.0
 40
1.0
 40
1.0
 10
11.76494968542617
 20
-4.278322665454689
 30
0.0
 10
11.63690539130521
 20
-4.279722595340394
 30
0.0
 10
11.53248177487403
 20
-4.381340901053223
 30
0.0
 10
11.52759630193431
 20
-4.509299617891037
 30
0.0
  0
SPLINE
  5
18A
330
70
100
AcDbEntity
  8
Layer 1
 62
     7
370
     5
100
AcDbSpline
210
0.0
220
0.0
230
1.0
 70
     8
 71
     3
 72
     8
 73
     4
 74
     0
 42
0.0000000001
 43
0.0000000001
 40
0.0
 40
0.0
 40
0.0
 40
0.0
 40
1.0
 40
1.0
 40
1.0
 40
1.0
 10
11.49887836995618
 20
-5.052035285284205
 30
0.0
 10
11.50989617909677
 20
-5.042872405103531
 30
0.0
 10
11.51727329047749
 20
-5.030070883865315
 30
0.0
 10
11.51967673860792
 20
-5.015943820173649
 30
0.0
  0
SPLINE
  5
18B
330
70
100
AcDbEntity
  8
Layer 1
 62
     7
370
     5
100
AcDbSpline
210
0.0
220
0.0
230
1.0
 70
     8
 71
     3
 72
     8
 73
     4
 74
     0
 42
0.0000000001
 43
0.0000000001
 40
0.0
 40
0.0
 40
0.0
 40
0.0
 40
1.0
 40
1.0
 40
1.0
 40
1.0
 10
11.50419858589286
 20
-5.046057855417719
 30
0.0
 10
11.51445078687187
 20
-5.035183467569923
 30
0.0
 10
11.52027589983941
 20
-5.020874569466664
 30
0.0
 10
11.52053388803166
 20
-5.005931565147926
 30
0.0
  0
SPLINE
  5
18C
330
70
100
AcDbEntity
  8
Layer 1
 62
     7
370
     5
100
AcDbSpline
210
0.0
220
0.0
230
1.0
 70
     8
 71
     3
 72
     8
 73
     4
 74
     0
 42
0.0000000001
 43
0.0000000001
 40
0.0
 40
0.0
 40
0.0
 40
0.0
 40
1.0
 40
1.0
 40
1.0
 40
1.0
 10
11.49814954356936
 20
-5.051655288764688
 30
0.0
 10
11.50029190004015
 20
-5.049930452715973
 30
0.0
 10
11.50231287984268
 20
-5.048060069471337
 30
0.0
 10
11.50419812832634
 20
-5.046057424021455
 30
0.0
  0
SPLINE
  5
18D
330
70
100
AcDbEntity
  8
Layer 1
 62
     7
370
     5
100
AcDbSpline
210
0.0
220
0.0
230
1.0
 70
     8
 71
     3
 72
     8
 73
     4
 74
     0
 42
0.0000000001
 43
0.0000000001
 40
0.0
 40
0.0
 40
0.0
 40
0.0
 40
1.0
 40
1.0
 40
1.0
 40
1.0
 10
13.67119289481431
 20
-4.246249574828273
 30
0.0
 10
13.69803628640821
 20
-4.245639731223503
 30
0.0
 10
13.71961233286592
 20
-4.223949865407158
 30
0.0
 10
13.72008093553019
 20
-4.197103636751547
 30
0.0
  0
SPLINE
  5
18E
330
70
100
AcDbEntity
  8
Layer 1
 62
     7
370
     5
100
AcDbSpline
210
0.0
220
0.0
230
1.0
 70
     8
 71
     3
 72
     8
 73
     4
 74
     0
 42
0.0000000001
 43
0.0000000001
 40
0.0
 40
0.0
 40
0.0
 40
0.0
 40
1.0
 40
1.0
 40
1.0
 40
1.0
 10
11.4940508872554
 20
-4.738122381968423
 30
0.0
 10
11.51042580037185
 20
-4.738122381968423
 30
0.0
 10
11.52377974788574
 20
-4.724999494294871
 30
0.0
 10
11.52406552952506
 20
-4.708627075156995
 30
0.0
  0
SPLINE
  5
18F
330
70
100
AcDbEntity
  8
Layer 1
 62
     7
370
     5
100
AcDbSpline
210
0.0
220
0.0
230
1.0
 70
     8
 71
     3
 72
    11
 73
     7
 74
     0
 42
0.0000000001
 43
0.0000000001
 40
0.0
 40
0.0
 40
0.0
 40
0.0
 40
1.0
 40
1.0
 40
1.0
 40
2.0
 40
2.0
 40
2.0
 40
2.0
 10
11.52328412094299
 20
-4.848454788318374
 30
0.0
 10
11.52342879401246
 20
-4.84016647371978
 30
0.0
 10
11.51682706817155
 20
-4.833330186488195
 30
0.0
 10
11.50853875357297
 20
-4.833185513418735
 30
0.0
 10
11.50845144396367
 20
-4.833183989423799
 30
0.0
 10
11.50836412271722
 20
-4.833183227382846
 30
0.0
 10
11.50827679980822
 20
-4.833183227382846
 30
0.0
  0
SPLINE
  5
190
330
70
100
AcDbEntity
  8
Layer 1
 62
     7
370
     5
100
AcDbSpline
210
0.0
220
0.0
230
1.0
 70
     8
 71
     3
 72
     8
 73
     4
 74
     0
 42
0.0000000001
 43
0.0000000001
 40
0.0
 40
0.0
 40
0.0
 40
0.0
 40
1.0
 40
1.0
 40
1.0
 40
1.0
 10
6.774243236357228
 20
-4.246249574815944
 30
0.0
 10
7.409589145947771
 20
-4.260683728502941
 30
0.0
 10
8.045014574647602
 20
-4.271374944236994
 30
0.0
 10
8.680486445618662
 20
-4.278322665490779
 30
0.0
  0
SPLINE
  5
191
330
70
100
AcDbEntity
  8
Layer 1
 62
     7
370
     5
100
AcDbSpline
210
0.0
220
0.0
230
1.0
 70
     8
 71
     3
 72
     8
 73
     4
 74
     0
 42
0.0000000001
 43
0.0000000001
 40
0.0
 40
0.0
 40
0.0
 40
0.0
 40
1.0
 40
1.0
 40
1.0
 40
1.0
 10
26.26721179376179
 20
-18.21770449543573
 30
0.0
 10
26.25164647838273
 20
-18.21737947494062
 30
0.0
 10
26.23608020848221
 20
-18.21710189882904
 30
0.0
 10
26.22051320098752
 20
-18.21687177096909
 30
0.0
  0
SPLINE
  5
192
330
70
100
AcDbEntity
  8
Layer 1
 62
     7
370
     5
100
AcDbSpline
210
0.0
220
0.0
230
1.0
 70
     8
 71
     3
 72
     8
 73
     4
 74
     0
 42
0.0000000001
 43
0.0000000001
 40
0.0
 40
0.0
 40
0.0
 40
0.0
 40
1.0
 40
1.0
 40
1.0
 40
1.0
 10
27.95087123633832
 20
-20.68972215339773
 30
0.0
 10
27.95148107994388
 20
-20.71656554499098
 30
0.0
 10
27.97317094575995
 20
-20.73814159144783
 30
0.0
 10
28.00001717441496
 20
-20.73861019411205
 30
0.0
  0
SPLINE
  5
193
330
70
100
AcDbEntity
  8
Layer 1
 62
     7
370
     5
100
AcDbSpline
210
0.0
220
0.0
230
1.0
 70
     8
 71
     3
 72
     8
 73
     4
 74
     0
 42
0.0000000001
 43
0.0000000001
 40
0.0
 40
0.0
 40
0.0
 40
0.0
 40
1.0
 40
1.0
 40
1.0
 40
1.0
 10
23.50646852740531
 20
-21.45049656020584
 30
0.0
 10
23.50646852740531
 20
-21.46687147332245
 30
0.0
 10
23.51959141507912
 20
-21.4802254208365
 30
0.0
 10
23.53596383421713
 20
-21.48051120247556
 30
0.0
  0
SPLINE
  5
194
330
70
100
AcDbEntity
  8
Layer 1
 62
     7
370
     5
100
AcDbSpline
210
0.0
220
0.0
230
1.0
 70
     8
 71
     3
 72
    11
 73
     7
 74
     0
 42
0.0000000001
 43
0.0000000001
 40
0.0
 40
0.0
 40
0.0
 40
0.0
 40
1.0
 40
1.0
 40
1.0
 40
2.0
 40
2.0
 40
2.0
 40
2.0
 10
24.27643778797154
 20
-21.49343622336904
 30
0.0
 10
24.29301441716873
 20
-21.49372556950796
 30
0.0
 10
24.30668699163192
 20
-21.48052211782621
 30
0.0
 10
24.30697633777087
 20
-21.463945488629
 30
0.0
 10
24.30697938576069
 20
-21.46377086941036
 30
0.0
 10
24.30698090984257
 20
-21.46359622691746
 30
0.0
 10
24.30698090984257
 20
-21.46342158109941
 30
0.0
  0
SPLINE
  5
195
330
70
100
AcDbEntity
  8
Layer 1
 62
     7
370
     5
100
AcDbSpline
210
0.0
220
0.0
230
1.0
 70
     8
 71
     3
 72
     8
 73
     4
 74
     0
 42
0.0000000001
 43
0.0000000001
 40
0.0
 40
0.0
 40
0.0
 40
0.0
 40
1.0
 40
1.0
 40
1.0
 40
1.0
 10
22.99414060264545
 20
-19.69281649507136
 30
0.0
 10
23.00519337216724
 20
-19.69281649507136
 30
0.0
 10
23.01415341220634
 20
-19.68385645503215
 30
0.0
 10
23.01415341220634
 20
-19.67280368551044
 30
0.0
  0
SPLINE
  5
196
330
70
100
AcDbEntity
  8
Layer 1
 62
     7
370
     5
100
AcDbSpline
210
0.0
220
0.0
230
1.0
 70
     8
 71
     3
 72
     8
 73
     4
 74
     0
 42
0.0000000001
 43
0.0000000001
 40
0.0
 40
0.0
 40
0.0
 40
0.0
 40
1.0
 40
1.0
 40
1.0
 40
1.0
 10
22.26367305367141
 20
-19.67280368551044
 30
0.0
 10
22.26367305367141
 20
-19.68385645503215
 30
0.0
 10
22.27263309371061
 20
-19.69281649507136
 30
0.0
 10
22.28368586323232
 20
-19.69281649507136
 30
0.0
  0
SPLINE
  5
197
330
70
100
AcDbEntity
  8
Layer 1
 62
     7
370
     5
100
AcDbSpline
210
0.0
220
0.0
230
1.0
 70
     8
 71
     3
 72
     8
 73
     4
 74
     0
 42
0.0000000001
 43
0.0000000001
 40
0.0
 40
0.0
 40
0.0
 40
0.0
 40
1.0
 40
1.0
 40
1.0
 40
1.0
 10
23.50646852740531
 20
-18.22910914679432
 30
0.0
 10
23.50646852740531
 20
-18.19875316156197
 30
0.0
 10
23.48381000587675
 20
-18.17317310028341
 30
0.0
 10
23.45367590094765
 20
-18.16950955561431
 30
0.0
  0
SPLINE
  5
198
330
70
100
AcDbEntity
  8
Layer 1
 62
     7
370
     5
100
AcDbSpline
210
0.0
220
0.0
230
1.0
 70
     8
 71
     3
 72
     8
 73
     4
 74
     0
 42
0.0000000001
 43
0.0000000001
 40
0.0
 40
0.0
 40
0.0
 40
0.0
 40
1.0
 40
1.0
 40
1.0
 40
1.0
 10
22.61389722098771
 20
-17.7498734157919
 30
0.0
 10
22.61389722098771
 20
-17.76624832890853
 30
0.0
 10
22.62702010866153
 20
-17.77960227642246
 30
0.0
 10
22.64339252779953
 20
-17.77988805806154
 30
0.0
  0
SPLINE
  5
199
330
70
100
AcDbEntity
  8
Layer 1
 62
     7
370
     5
100
AcDbSpline
210
0.0
220
0.0
230
1.0
 70
     8
 71
     3
 72
     8
 73
     4
 74
     0
 42
0.0000000001
 43
0.0000000001
 40
0.0
 40
0.0
 40
0.0
 40
0.0
 40
1.0
 40
1.0
 40
1.0
 40
1.0
 10
24.49209939828117
 20
-18.15720237136118
 30
0.0
 10
24.49209939828112
 20
-18.17357728447781
 30
0.0
 10
24.50522228595494
 20
-18.18693123199205
 30
0.0
 10
24.52159470509302
 20
-18.18721701363109
 30
0.0
  0
SPLINE
  5
19A
330
70
100
AcDbEntity
  8
Layer 1
 62
     7
370
     5
100
AcDbSpline
210
0.0
220
0.0
230
1.0
 70
     8
 71
     3
 72
     8
 73
     4
 74
     0
 42
0.0000000001
 43
0.0000000001
 40
0.0
 40
0.0
 40
0.0
 40
0.0
 40
1.0
 40
1.0
 40
1.0
 40
1.0
 10
23.35315445442878
 20
-18.13919050958775
 30
0.0
 10
23.35381989222901
 20
-18.15506415144773
 30
0.0
 10
23.36673825474226
 20
-18.1676705462701
 30
0.0
 10
23.38262341860905
 20
-18.16794782283677
 30
0.0
  0
SPLINE
  5
19B
330
70
100
AcDbEntity
  8
Layer 1
 62
     7
370
     5
100
AcDbSpline
210
0.0
220
0.0
230
1.0
 70
     8
 71
     3
 72
     8
 73
     4
 74
     0
 42
0.0000000001
 43
0.0000000001
 40
0.0
 40
0.0
 40
0.0
 40
0.0
 40
1.0
 40
1.0
 40
1.0
 40
1.0
 10
23.3143455556204
 20
-16.87751451008724
 30
0.0
 10
23.3143455556204
 20
-16.888567279609
 30
0.0
 10
23.3233055956595
 20
-16.89752731964818
 30
0.0
 10
23.33435836518129
 20
-16.89752731964818
 30
0.0
  0
SPLINE
  5
19C
330
70
100
AcDbEntity
  8
Layer 1
 62
     7
370
     5
100
AcDbSpline
210
0.0
220
0.0
230
1.0
 70
     8
 71
     3
 72
     8
 73
     4
 74
     0
 42
0.0000000001
 43
0.0000000001
 40
0.0
 40
0.0
 40
0.0
 40
0.0
 40
1.0
 40
1.0
 40
1.0
 40
1.0
 10
23.33435836518129
 20
-17.58496732806614
 30
0.0
 10
23.3233055956595
 20
-17.58496732806614
 30
0.0
 10
23.3143455556204
 20
-17.59392736810529
 30
0.0
 10
23.3143455556204
 20
-17.6049801376271
 30
0.0
  0
SPLINE
  5
19D
330
70
100
AcDbEntity
  8
Layer 1
 62
     7
370
     5
100
AcDbSpline
210
0.0
220
0.0
230
1.0
 70
     8
 71
     3
 72
    11
 73
     7
 74
     0
 42
0.0000000001
 43
0.0000000001
 40
0.0
 40
0.0
 40
0.0
 40
0.0
 40
1.0
 40
1.0
 40
1.0
 40
2.0
 40
2.0
 40
2.0
 40
2.0
 10
23.29398347437298
 20
-17.79124416529195
 30
0.0
 10
23.30503456050449
 20
-17.79143706271796
 30
0.0
 10
23.31414961014662
 20
-17.78263476159666
 30
0.0
 10
23.31434250757249
 20
-17.77158367546526
 30
0.0
 10
23.31434453956571
 20
-17.77146726265288
 30
0.0
 10
23.3143455556204
 20
-17.77135083432424
 30
0.0
 10
23.3143455556204
 20
-17.77123440377881
 30
0.0
  0
SPLINE
  5
19E
330
70
100
AcDbEntity
  8
Layer 1
 62
     7
370
     5
100
AcDbSpline
210
0.0
220
0.0
230
1.0
 70
     8
 71
     3
 72
    11
 73
     7
 74
     0
 42
0.0000000001
 43
0.0000000001
 40
0.0
 40
0.0
 40
0.0
 40
0.0
 40
1.0
 40
1.0
 40
1.0
 40
2.0
 40
2.0
 40
2.0
 40
2.0
 10
24.44689594092592
 20
-18.18652476884414
 30
0.0
 10
24.45242148399166
 20
-18.1866212175571
 30
0.0
 10
24.4569790088127
 20
-18.18222006699655
 30
0.0
 10
24.45707545752569
 20
-18.17669452393074
 30
0.0
 10
24.45707647352232
 20
-18.17663631752455
 30
0.0
 10
24.45707698154961
 20
-18.17657810336022
 30
0.0
 10
24.45707698154961
 20
-18.17651988808757
 30
0.0
  0
SPLINE
  5
19F
330
70
100
AcDbEntity
  8
Layer 1
 62
     7
370
     5
100
AcDbSpline
210
0.0
220
0.0
230
1.0
 70
     8
 71
     3
 72
     8
 73
     4
 74
     0
 42
0.0000000001
 43
0.0000000001
 40
0.0
 40
0.0
 40
0.0
 40
0.0
 40
1.0
 40
1.0
 40
1.0
 40
1.0
 10
27.91879813260342
 20
-18.78347894370785
 30
0.0
 10
27.91737713753342
 20
-18.65350792690982
 30
0.0
 10
27.8128090182682
 20
-18.54825573232299
 30
0.0
 10
27.68285003011131
 20
-18.54598728974679
 30
0.0
  0
SPLINE
  5
1A0
330
70
100
AcDbEntity
  8
Layer 1
 62
     7
370
     5
100
AcDbSpline
210
0.0
220
0.0
230
1.0
 70
     8
 71
     3
 72
     8
 73
     4
 74
     0
 42
0.0000000001
 43
0.0000000001
 40
0.0
 40
0.0
 40
0.0
 40
0.0
 40
1.0
 40
1.0
 40
1.0
 40
1.0
 10
27.14508551237362
 20
-18.51740762823786
 30
0.0
 10
27.15424839255431
 20
-18.52842543737842
 30
0.0
 10
27.16704991379255
 20
-18.53580254875916
 30
0.0
 10
27.18117697748423
 20
-18.53820599688952
 30
0.0
  0
SPLINE
  5
1A1
330
70
100
AcDbEntity
  8
Layer 1
 62
     7
370
     5
100
AcDbSpline
210
0.0
220
0.0
230
1.0
 70
     8
 71
     3
 72
     8
 73
     4
 74
     0
 42
0.0000000001
 43
0.0000000001
 40
0.0
 40
0.0
 40
0.0
 40
0.0
 40
1.0
 40
1.0
 40
1.0
 40
1.0
 10
27.15106293817593
 20
-18.52272784568668
 30
0.0
 10
27.16193733226464
 20
-18.53298003995676
 30
0.0
 10
27.17624622847633
 20
-18.53880515275748
 30
0.0
 10
27.19118923255703
 20
-18.5390631511909
 30
0.0
  0
SPLINE
  5
1A2
330
70
100
AcDbEntity
  8
Layer 1
 62
     7
370
     5
100
AcDbSpline
210
0.0
220
0.0
230
1.0
 70
     8
 71
     3
 72
     8
 73
     4
 74
     0
 42
0.0000000001
 43
0.0000000001
 40
0.0
 40
0.0
 40
0.0
 40
0.0
 40
1.0
 40
1.0
 40
1.0
 40
1.0
 10
27.14546550904647
 20
-18.51667880192238
 30
0.0
 10
27.14719034466776
 20
-18.51882115786268
 30
0.0
 10
27.149060727414
 20
-18.52084213719503
 30
0.0
 10
27.15106337230423
 20
-18.52272738527916
 30
0.0
  0
SPLINE
  5
1A3
330
70
100
AcDbEntity
  8
Layer 1
 62
     7
370
     5
100
AcDbSpline
210
0.0
220
0.0
230
1.0
 70
     8
 71
     3
 72
     8
 73
     4
 74
     0
 42
0.0000000001
 43
0.0000000001
 40
0.0
 40
0.0
 40
0.0
 40
0.0
 40
1.0
 40
1.0
 40
1.0
 40
1.0
 10
27.45899841568949
 20
-18.51258014553741
 30
0.0
 10
27.45899841568965
 20
-18.52895505865381
 30
0.0
 10
27.47212130336334
 20
-18.54230900616764
 30
0.0
 10
27.48849372250121
 20
-18.54259478780667
 30
0.0
  0
SPLINE
  5
1A4
330
70
100
AcDbEntity
  8
Layer 1
 62
     7
370
     5
100
AcDbSpline
210
0.0
220
0.0
230
1.0
 70
     8
 71
     3
 72
    11
 73
     7
 74
     0
 42
0.0000000001
 43
0.0000000001
 40
0.0
 40
0.0
 40
0.0
 40
0.0
 40
1.0
 40
1.0
 40
1.0
 40
2.0
 40
2.0
 40
2.0
 40
2.0
 10
27.34866600933952
 20
-18.5418133792247
 30
0.0
 10
27.3569543239381
 20
-18.54195805229407
 30
0.0
 10
27.36379061116966
 20
-18.53535632645326
 30
0.0
 10
27.36393528423918
 20
-18.5270680118546
 30
0.0
 10
27.36393680823403
 20
-18.52698070224526
 30
0.0
 10
27.36393757027503
 20
-18.52689338099884
 30
0.0
 10
27.36393757027503
 20
-18.52680605808981
 30
0.0
  0
SPLINE
  5
1A5
330
70
100
AcDbEntity
  8
Layer 1
 62
     7
370
     5
100
AcDbSpline
210
0.0
220
0.0
230
1.0
 70
     8
 71
     3
 72
     8
 73
     4
 74
     0
 42
0.0000000001
 43
0.0000000001
 40
0.0
 40
0.0
 40
0.0
 40
0.0
 40
1.0
 40
1.0
 40
1.0
 40
1.0
 10
27.68285003011131
 20
-15.93650735796756
 30
0.0
 10
27.8128090182682
 20
-15.93423891539131
 30
0.0
 10
27.91737713753342
 20
-15.82898672080447
 30
0.0
 10
27.91879813260342
 20
-15.69901570400642
 30
0.0
  0
SPLINE
  5
1A6
330
70
100
AcDbEntity
  8
Layer 1
 62
     7
370
     5
100
AcDbSpline
210
0.0
220
0.0
230
1.0
 70
     8
 71
     3
 72
     8
 73
     4
 74
     0
 42
0.0000000001
 43
0.0000000001
 40
0.0
 40
0.0
 40
0.0
 40
0.0
 40
1.0
 40
1.0
 40
1.0
 40
1.0
 10
27.19030798577377
 20
-15.94345235203569
 30
0.0
 10
27.17281486490239
 20
-15.94401811516488
 30
0.0
 10
27.15643935396646
 20
-15.95218854486547
 30
0.0
 10
27.14546776098501
 20
-15.96582502216668
 30
0.0
  0
SPLINE
  5
1A7
330
70
100
AcDbEntity
  8
Layer 1
 62
     7
370
     5
100
AcDbSpline
210
0.0
220
0.0
230
1.0
 70
     8
 71
     3
 72
     8
 73
     4
 74
     0
 42
0.0000000001
 43
0.0000000001
 40
0.0
 40
0.0
 40
0.0
 40
0.0
 40
1.0
 40
1.0
 40
1.0
 40
1.0
 10
27.18117697748423
 20
-15.94428865082477
 30
0.0
 10
27.16704991379255
 20
-15.94669209895515
 30
0.0
 10
27.15424839255431
 20
-15.95406921033587
 30
0.0
 10
27.14508551237362
 20
-15.96508701947649
 30
0.0
  0
SPLINE
  5
1A8
330
70
100
AcDbEntity
  8
Layer 1
 62
     7
370
     5
100
AcDbSpline
210
0.0
220
0.0
230
1.0
 70
     8
 71
     3
 72
     8
 73
     4
 74
     0
 42
0.0000000001
 43
0.0000000001
 40
0.0
 40
0.0
 40
0.0
 40
0.0
 40
1.0
 40
1.0
 40
1.0
 40
1.0
 10
28.00001717441496
 20
-13.74388445360227
 30
0.0
 10
27.97317094575995
 20
-13.74435305626654
 30
0.0
 10
27.95148107994388
 20
-13.76592910272332
 30
0.0
 10
27.95087123633832
 20
-13.79277249431657
 30
0.0
  0
SPLINE
  5
1A9
330
70
100
AcDbEntity
  8
Layer 1
 62
     7
370
     5
100
AcDbSpline
210
0.0
220
0.0
230
1.0
 70
     8
 71
     3
 72
     8
 73
     4
 74
     0
 42
0.0000000001
 43
0.0000000001
 40
0.0
 40
0.0
 40
0.0
 40
0.0
 40
1.0
 40
1.0
 40
1.0
 40
1.0
 10
22.64339252779953
 20
-16.70260658955271
 30
0.0
 10
22.62702010866153
 20
-16.70289237119179
 30
0.0
 10
22.61389722098771
 20
-16.71624631870577
 30
0.0
 10
22.61389722098771
 20
-16.73262123182235
 30
0.0
  0
SPLINE
  5
1AA
330
70
100
AcDbEntity
  8
Layer 1
 62
     7
370
     5
100
AcDbSpline
210
0.0
220
0.0
230
1.0
 70
     8
 71
     3
 72
     8
 73
     4
 74
     0
 42
0.0000000001
 43
0.0000000001
 40
0.0
 40
0.0
 40
0.0
 40
0.0
 40
1.0
 40
1.0
 40
1.0
 40
1.0
 10
27.48849372250121
 20
-15.93989985990758
 30
0.0
 10
27.47212130336334
 20
-15.94018564154665
 30
0.0
 10
27.45899841568965
 20
-15.95353958906043
 30
0.0
 10
27.45899841568949
 20
-15.96991450217691
 30
0.0
  0
SPLINE
  5
1AB
330
70
100
AcDbEntity
  8
Layer 1
 62
     7
370
     5
100
AcDbSpline
210
0.0
220
0.0
230
1.0
 70
     8
 71
     3
 72
     8
 73
     4
 74
     0
 42
0.0000000001
 43
0.0000000001
 40
0.0
 40
0.0
 40
0.0
 40
0.0
 40
1.0
 40
1.0
 40
1.0
 40
1.0
 10
24.52159470509302
 20
-16.29527763408328
 30
0.0
 10
24.50522228595479
 20
-16.2955634157223
 30
0.0
 10
24.49209939828097
 20
-16.30891736323666
 30
0.0
 10
24.49209939828117
 20
-16.32529227635339
 30
0.0
  0
SPLINE
  5
1AC
330
70
100
AcDbEntity
  8
Layer 1
 62
     7
370
     5
100
AcDbSpline
210
0.0
220
0.0
230
1.0
 70
     8
 71
     3
 72
     8
 73
     4
 74
     0
 42
0.0000000001
 43
0.0000000001
 40
0.0
 40
0.0
 40
0.0
 40
0.0
 40
1.0
 40
1.0
 40
1.0
 40
1.0
 10
23.38262341860905
 20
-16.31454682487752
 30
0.0
 10
23.36673825474226
 20
-16.3148241014442
 30
0.0
 10
23.35381989222891
 20
-16.32743049626659
 30
0.0
 10
23.35315445442878
 20
-16.34330413812666
 30
0.0
  0
SPLINE
  5
1AD
330
70
100
AcDbEntity
  8
Layer 1
 62
     7
370
     5
100
AcDbSpline
210
0.0
220
0.0
230
1.0
 70
     8
 71
     3
 72
     8
 73
     4
 74
     0
 42
0.0000000001
 43
0.0000000001
 40
0.0
 40
0.0
 40
0.0
 40
0.0
 40
1.0
 40
1.0
 40
1.0
 40
1.0
 10
23.00775461224846
 20
-16.69623915244854
 30
0.0
 10
23.00405334799016
 20
-16.69280401605798
 30
0.0
 10
22.9991903075013
 20
-16.69089506093147
 30
0.0
 10
22.99414060264545
 20
-16.69089506093147
 30
0.0
  0
SPLINE
  5
1AE
330
70
100
AcDbEntity
  8
Layer 1
 62
     7
370
     5
100
AcDbSpline
210
0.0
220
0.0
230
1.0
 70
     8
 71
     3
 72
     8
 73
     4
 74
     0
 42
0.0000000001
 43
0.0000000001
 40
0.0
 40
0.0
 40
0.0
 40
0.0
 40
1.0
 40
1.0
 40
1.0
 40
1.0
 10
22.28368586323232
 20
-16.69089506093147
 30
0.0
 10
22.27263309371061
 20
-16.69089506093147
 30
0.0
 10
22.26367305367141
 20
-16.69985510097065
 30
0.0
 10
22.26367305367141
 20
-16.71090787049244
 30
0.0
  0
SPLINE
  5
1AF
330
70
100
AcDbEntity
  8
Layer 1
 62
     7
370
     5
100
AcDbSpline
210
0.0
220
0.0
230
1.0
 70
     8
 71
     3
 72
    11
 73
     7
 74
     0
 42
0.0000000001
 43
0.0000000001
 40
0.0
 40
0.0
 40
0.0
 40
0.0
 40
1.0
 40
1.0
 40
1.0
 40
2.0
 40
2.0
 40
2.0
 40
2.0
 10
23.3143455556204
 20
-16.71126024383536
 30
0.0
 10
23.3143455556204
 20
-16.70020747431358
 30
0.0
 10
23.30538551558119
 20
-16.69124743427445
 30
0.0
 10
23.2943327460594
 20
-16.69124743427445
 30
0.0
 10
23.29421631551403
 20
-16.69124743427445
 30
0.0
 10
23.29409988718547
 20
-16.69124845032909
 30
0.0
 10
23.29398347437298
 20
-16.69125048232227
 30
0.0
  0
SPLINE
  5
1B0
330
70
100
AcDbEntity
  8
Layer 1
 62
     7
370
     5
100
AcDbSpline
210
0.0
220
0.0
230
1.0
 70
     8
 71
     3
 72
    11
 73
     7
 74
     0
 42
0.0000000001
 43
0.0000000001
 40
0.0
 40
0.0
 40
0.0
 40
0.0
 40
1.0
 40
1.0
 40
1.0
 40
2.0
 40
2.0
 40
2.0
 40
2.0
 10
27.36393757027503
 20
-15.95568858962444
 30
0.0
 10
27.36393757027503
 20
-15.94739901248312
 30
0.0
 10
27.3572175402456
 20
-15.94067898245374
 30
0.0
 10
27.34892796310426
 20
-15.94067898245374
 30
0.0
 10
27.34884064019525
 20
-15.94067898245374
 30
0.0
 10
27.34875331894887
 20
-15.94067974449477
 30
0.0
 10
27.34866600933952
 20
-15.94068126848962
 30
0.0
  0
SPLINE
  5
1B1
330
70
100
AcDbEntity
  8
Layer 1
 62
     7
370
     5
100
AcDbSpline
210
0.0
220
0.0
230
1.0
 70
     8
 71
     3
 72
    11
 73
     7
 74
     0
 42
0.0000000001
 43
0.0000000001
 40
0.0
 40
0.0
 40
0.0
 40
0.0
 40
1.0
 40
1.0
 40
1.0
 40
2.0
 40
2.0
 40
2.0
 40
2.0
 10
24.45707698154961
 20
-16.30597475962675
 30
0.0
 10
24.45707698154961
 20
-16.30044837486591
 30
0.0
 10
24.45259696153001
 20
-16.29596835484623
 30
0.0
 10
24.44707057676914
 20
-16.29596835484623
 30
0.0
 10
24.44701236149647
 20
-16.29596835484623
 30
0.0
 10
24.44695414733213
 20
-16.2959688628736
 30
0.0
 10
24.44689594092592
 20
-16.29596987887023
 30
0.0
  0
SPLINE
  5
1B2
330
70
100
AcDbEntity
  8
Layer 1
 62
     7
370
     5
100
AcDbSpline
210
0.0
220
0.0
230
1.0
 70
     8
 71
     3
 72
     8
 73
     4
 74
     0
 42
0.0000000001
 43
0.0000000001
 40
0.0
 40
0.0
 40
0.0
 40
0.0
 40
1.0
 40
1.0
 40
1.0
 40
1.0
 10
23.3531544544113
 20
-16.34330413811244
 30
0.0
 10
23.32807039550153
 20
-16.94167015724656
 30
0.0
 10
23.32807039550153
 20
-17.54082449046773
 30
0.0
 10
23.3531544544113
 20
-18.13919050960185
 30
0.0
  0
LINE
  5
1B3
330
70
100
AcDbEntity
  8
Layer 1
 62
     7
370
     5
100
AcDbLine
 10
9.303698352776779
 20
-16.26562287667384
 30
0.0
 11
9.009796247715661
 21
-15.97169609351704
 31
0.0
  0
SPLINE
  5
1B4
330
70
100
AcDbEntity
  8
Layer 1
 62
     7
370
     5
100
AcDbSpline
210
0.0
220
0.0
230
1.0
 70
     8
 71
     3
 72
    14
 73
    10
 74
     0
 42
0.0000000001
 43
0.0000000001
 40
0.0
 40
0.0
 40
0.0
 40
0.0
 40
1.0
 40
1.0
 40
1.0
 40
2.0
 40
2.0
 40
2.0
 40
3.0
 40
3.0
 40
3.0
 40
3.0
 10
11.41056961585687
 20
-15.96582476356603
 30
0.0
 10
11.41056961585687
 20
-15.96582476356603
 30
0.0
 10
9.034869386531934
 20
-15.96581584575801
 30
0.0
 10
9.034869386531934
 20
-15.96581584575801
 30
0.0
 10
9.030475366960191
 20
-15.96582154970896
 30
0.0
 10
9.026066951170578
 20
-15.96632350073446
 30
0.0
 10
9.02177516733996
 20
-15.96733518436907
 30
0.0
 10
9.017624714671416
 20
-15.96831355262015
 30
0.0
 10
9.013583338911933
 20
-15.96976863461211
 30
0.0
 10
9.009796286540511
 20
-15.97169606820082
 30
0.0
  0
SPLINE
  5
1B5
330
70
100
AcDbEntity
  8
Layer 1
 62
     7
370
     5
100
AcDbSpline
210
0.0
220
0.0
230
1.0
 70
     8
 71
     3
 72
    11
 73
     7
 74
     0
 42
0.0000000001
 43
0.0000000001
 40
0.0
 40
0.0
 40
0.0
 40
0.0
 40
1.0
 40
1.0
 40
1.0
 40
2.0
 40
2.0
 40
2.0
 40
2.0
 10
9.009771220096277
 20
-18.51077428216154
 30
0.0
 10
9.013558904472221
 20
-18.51270575453534
 30
0.0
 10
9.017601780377541
 20
-18.51416413225585
 30
0.0
 10
9.021754152676534
 20
-18.51514504557783
 30
0.0
 10
9.026051574898561
 20
-18.51616022398788
 30
0.0
 10
9.03046627694194
 20
-18.51666399798071
 30
0.0
 10
9.034866515194064
 20
-18.51666988414821
 30
0.0
  0
LINE
  5
1B6
330
70
100
AcDbEntity
  8
Layer 1
 62
     7
370
     5
100
AcDbLine
 10
9.009771150851962
 20
-18.51077423923402
 30
0.0
 11
9.303698322157186
 21
-18.21687177094046
 31
0.0
  0
LINE
  5
1B7
330
70
100
AcDbEntity
  8
Layer 1
 62
     7
370
     5
100
AcDbLine
 10
11.43563990935192
 20
-18.51079854038837
 30
0.0
 11
11.14173780979432
 21
-18.21687177094046
 31
0.0
  0
SPLINE
  5
1B8
330
70
100
AcDbEntity
  8
Layer 1
 62
     7
370
     5
100
AcDbSpline
210
0.0
220
0.0
230
1.0
 70
     8
 71
     3
 72
    11
 73
     7
 74
     0
 42
0.0000000001
 43
0.0000000001
 40
0.0
 40
0.0
 40
0.0
 40
0.0
 40
1.0
 40
1.0
 40
1.0
 40
2.0
 40
2.0
 40
2.0
 40
2.0
 10
11.41056674451901
 20
-18.51667880195623
 30
0.0
 10
11.41496076389062
 20
-18.51667309800531
 30
0.0
 10
11.41936917935304
 20
-18.51617114658102
 30
0.0
 10
11.42366096311895
 20
-18.51515946331472
 30
0.0
 10
11.42781141586438
 20
-18.51418109538677
 30
0.0
 10
11.43185279193888
 20
-18.51272601440304
 30
0.0
 10
11.43563984431029
 20
-18.51079858101446
 30
0.0
  0
SPLINE
  5
1B9
330
70
100
AcDbEntity
  8
Layer 1
 62
     7
370
     5
100
AcDbSpline
210
0.0
220
0.0
230
1.0
 70
     8
 71
     3
 72
     8
 73
     4
 74
     0
 42
0.0000000001
 43
0.0000000001
 40
0.0
 40
0.0
 40
0.0
 40
0.0
 40
1.0
 40
1.0
 40
1.0
 40
1.0
 10
9.034866515194064
 20
-18.51666988414821
 30
0.0
 10
9.372623841283054
 20
-18.51711471467011
 30
0.0
 10
9.710381499684721
 20
-18.51733678781205
 30
0.0
 10
10.04813911395815
 20
-18.51739349380762
 30
0.0
  0
SPLINE
  5
1BA
330
70
100
AcDbEntity
  8
Layer 1
 62
     7
370
     5
100
AcDbSpline
210
0.0
220
0.0
230
1.0
 70
     8
 71
     3
 72
    11
 73
     7
 74
     0
 42
0.0000000001
 43
0.0000000001
 40
0.0
 40
0.0
 40
0.0
 40
0.0
 40
1.0
 40
1.0
 40
1.0
 40
2.0
 40
2.0
 40
2.0
 40
2.0
 10
10.39729701719284
 20
-18.51739192510361
 30
0.0
 10
10.56617536013247
 20
-18.51736217035858
 30
0.0
 10
10.73505369733702
 20
-18.51729001221841
 30
0.0
 10
10.90393200699894
 20
-18.51717405814088
 30
0.0
 10
11.07281029761143
 20
-18.51705810407644
 30
0.0
 10
11.24168856068125
 20
-18.51689835408456
 30
0.0
 10
11.41056674451901
 20
-18.51667880195623
 30
0.0
  0
SPLINE
  5
1BB
330
70
100
AcDbEntity
  8
Layer 1
 62
     7
370
     5
100
AcDbSpline
210
0.0
220
0.0
230
1.0
 70
     8
 71
     3
 72
    11
 73
     7
 74
     0
 42
0.0000000001
 43
0.0000000001
 40
0.0
 40
0.0
 40
0.0
 40
0.0
 40
1.0
 40
1.0
 40
1.0
 40
2.0
 40
2.0
 40
2.0
 40
2.0
 10
11.4922450237798
 20
-18.45419416943645
 30
0.0
 10
11.49417649615362
 20
-18.45040648496044
 30
0.0
 10
11.49563487392364
 20
-18.44636360905431
 30
0.0
 10
11.49661578727077
 20
-18.44221123675439
 30
0.0
 10
11.49763096570631
 20
-18.4379138145332
 30
0.0
 10
11.49813473969905
 20
-18.43349911249066
 30
0.0
 10
11.49814062586663
 20
-18.42909887423856
 30
0.0
  0
LINE
  5
1BC
330
70
100
AcDbEntity
  8
Layer 1
 62
     7
370
     5
100
AcDbLine
 10
11.49224498095241
 20
-18.45419423848059
 30
0.0
 11
11.19834251265878
 21
-18.16026706707536
 31
0.0
  0
LINE
  5
1BD
330
70
100
AcDbEntity
  8
Layer 1
 62
     7
370
     5
100
AcDbLine
 10
11.19834251265878
 20
-16.32222761105837
 30
0.0
 11
11.49226929561544
 21
-16.02832550629753
 31
0.0
  0
SPLINE
  5
1BE
330
70
100
AcDbEntity
  8
Layer 1
 62
     7
370
     5
100
AcDbSpline
210
0.0
220
0.0
230
1.0
 70
     8
 71
     3
 72
    11
 73
     7
 74
     0
 42
0.0000000001
 43
0.0000000001
 40
0.0
 40
0.0
 40
0.0
 40
0.0
 40
1.0
 40
1.0
 40
1.0
 40
2.0
 40
2.0
 40
2.0
 40
2.0
 10
11.49814954357454
 20
-16.05339864491364
 30
0.0
 10
11.49814383962363
 20
-16.04900462534187
 30
0.0
 10
11.4976418887489
 20
-16.04459620958758
 30
0.0
 10
11.49663020508059
 20
-16.04030442587062
 30
0.0
 10
11.49565183680377
 20
-16.0361539733419
 30
0.0
 10
11.49419675462045
 20
-16.03211259779399
 30
0.0
 10
11.49226932113173
 20
-16.02832554552264
 30
0.0
  0
SPLINE
  5
1BF
330
70
100
AcDbEntity
  8
Layer 1
 62
     7
370
     5
100
AcDbSpline
210
0.0
220
0.0
230
1.0
 70
     8
 71
     3
 72
    20
 73
    16
 74
     0
 42
0.0000000001
 43
0.0000000001
 40
0.0
 40
0.0
 40
0.0
 40
0.0
 40
1.0
 40
1.0
 40
1.0
 40
2.0
 40
2.0
 40
2.0
 40
3.0
 40
3.0
 40
3.0
 40
4.0
 40
4.0
 40
4.0
 40
5.0
 40
5.0
 40
5.0
 40
5.0
 10
11.49814062586663
 20
-18.42909887423856
 30
0.0
 10
11.49840136115491
 20
-18.23112399343333
 30
0.0
 10
11.49858477168764
 20
-18.03314900559245
 30
0.0
 10
11.49870428832365
 20
-17.83517398432935
 30
0.0
 10
11.49882380497604
 20
-17.63719893598338
 30
0.0
 10
11.49887942771427
 20
-17.43922385421516
 30
0.0
 10
11.49887845405869
 20
-17.24124877128957
 30
0.0
 10
11.49887748040312
 20
-17.04327368860148
 30
0.0
 10
11.49881991035391
 20
-16.845298604756
 30
0.0
 10
11.49870113038739
 20
-16.64732355993907
 30
0.0
 10
11.49864174040676
 20
-16.54833604184647
 30
0.0
 10
11.4985670479481
 20
-16.44934853351098
 30
0.0
 10
11.49847617120185
 20
-16.35036103918312
 30
0.0
 10
11.49838529446539
 20
-16.25137355554605
 30
0.0
 10
11.49827823344483
 20
-16.15238608591661
 30
0.0
 10
11.49814954357454
 20
-16.05339864491364
 30
0.0
  0
LINE
  5
1C0
330
70
100
AcDbEntity
  8
Layer 1
 62
     7
370
     5
100
AcDbLine
 10
11.18821111285077
 20
-18.19258917167869
 30
0.0
 11
11.18821111285077
 21
-18.19258917167869
 31
0.0
  0
SPLINE
  5
1C1
330
70
100
AcDbEntity
  8
Layer 1
 62
     7
370
     5
100
AcDbSpline
210
0.0
220
0.0
230
1.0
 70
     8
 71
     3
 72
    23
 73
    19
 74
     0
 42
0.0000000001
 43
0.0000000001
 40
0.0
 40
0.0
 40
0.0
 40
0.0
 40
1.0
 40
1.0
 40
1.0
 40
2.0
 40
2.0
 40
2.0
 40
3.0
 40
3.0
 40
3.0
 40
4.0
 40
4.0
 40
4.0
 40
5.0
 40
5.0
 40
5.0
 40
6.0
 40
6.0
 40
6.0
 40
6.0
 10
11.43563971772927
 20
-18.51079845213192
 30
0.0
 10
11.43857886648464
 20
-18.50931873821433
 30
0.0
 10
11.44145612764112
 20
-18.50771273611576
 30
0.0
 10
11.44426496501863
 20
-18.50599653104897
 30
0.0
 10
11.44714919228833
 20
-18.50423426261244
 30
0.0
 10
11.44996127346423
 20
-18.50235579606755
 30
0.0
 10
11.45269631546437
 20
-18.5003691679207
 30
0.0
 10
11.45826805034498
 20
-18.49632207638046
 30
0.0
 10
11.46352006911969
 20
-18.49182610924127
 30
0.0
 10
11.46839417256332
 20
-18.48695220988273
 30
0.0
 10
11.47326890962427
 20
-18.48207767693338
 30
0.0
 10
11.47776563309229
 20
-18.47682511349851
 30
0.0
 10
11.48181342332795
 20
-18.47125278101167
 30
0.0
 10
11.48380050594158
 20
-18.46851729217517
 30
0.0
 10
11.48567940092563
 20
-18.46570474275768
 30
0.0
 10
11.48744211343729
 20
-18.46282004802727
 30
0.0
 10
11.48915861930411
 20
-18.46001097088293
 30
0.0
 10
11.4907649539343
 20
-18.45713348119612
 30
0.0
 10
11.4922448965984
 20
-18.45419404455649
 30
0.0
  0
SPLINE
  5
1C2
330
70
100
AcDbEntity
  8
Layer 1
 62
     7
370
     5
100
AcDbSpline
210
0.0
220
0.0
230
1.0
 70
     8
 71
     3
 72
    23
 73
    19
 74
     0
 42
0.0000000001
 43
0.0000000001
 40
0.0
 40
0.0
 40
0.0
 40
0.0
 40
1.0
 40
1.0
 40
1.0
 40
2.0
 40
2.0
 40
2.0
 40
3.0
 40
3.0
 40
3.0
 40
4.0
 40
4.0
 40
4.0
 40
5.0
 40
5.0
 40
5.0
 40
6.0
 40
6.0
 40
6.0
 40
6.0
 10
8.953166937100565
 20
-18.45416897581079
 30
0.0
 10
8.954646652018885
 20
-18.45710812716783
 30
0.0
 10
8.956252657285302
 20
-18.45998538981603
 30
0.0
 10
8.957968864616846
 20
-18.46279422912102
 30
0.0
 10
8.959731136858206
 20
-18.46567846079069
 30
0.0
 10
8.961609606450805
 20
-18.46849054670484
 30
0.0
 10
8.963596238100167
 20
-18.47122559315597
 30
0.0
 10
8.967643327164397
 20
-18.4767973238721
 30
0.0
 10
8.972139291582985
 20
-18.48204933880861
 30
0.0
 10
8.977013188068578
 20
-18.48692343839489
 30
0.0
 10
8.981887714928044
 20
-18.49179816838136
 30
0.0
 10
8.987140271621797
 20
-18.49629488525445
 30
0.0
 10
8.992712596361684
 20
-18.50034267028485
 30
0.0
 10
8.995448087782177
 20
-18.50232975498281
 30
0.0
 10
8.998260639901243
 20
-18.50420865188099
 30
0.0
 10
9.001145337032058
 20
-18.50597136689978
 30
0.0
 10
9.003954415529138
 20
-18.50768787460621
 30
0.0
 10
9.006831906235245
 20
-18.50929421171564
 30
0.0
 10
9.009771344976229
 20
-18.51077415477996
 30
0.0
  0
SPLINE
  5
1C3
330
70
100
AcDbEntity
  8
Layer 1
 62
     7
370
     5
100
AcDbSpline
210
0.0
220
0.0
230
1.0
 70
     8
 71
     3
 72
    20
 73
    16
 74
     0
 42
0.0000000001
 43
0.0000000001
 40
0.0
 40
0.0
 40
0.0
 40
0.0
 40
1.0
 40
1.0
 40
1.0
 40
2.0
 40
2.0
 40
2.0
 40
3.0
 40
3.0
 40
3.0
 40
4.0
 40
4.0
 40
4.0
 40
5.0
 40
5.0
 40
5.0
 40
5.0
 10
11.49226918924734
 20
-16.02832567500559
 30
0.0
 10
11.48927321572025
 20
-16.02237580858584
 30
0.0
 10
11.48576536525543
 20
-16.01667203359152
 30
0.0
 10
11.48184449890359
 20
-16.01127525742446
 30
0.0
 10
11.47779295435397
 20
-16.0056986125958
 30
0.0
 10
11.47330040439479
 20
-16.00044977148544
 30
0.0
 10
11.46842784636962
 20
-15.99557651487397
 30
0.0
 10
11.4635543940293
 20
-15.99070236381923
 30
0.0
 10
11.45830079411591
 20
-15.9862039351463
 30
0.0
 10
11.45272816934199
 20
-15.98215512212237
 30
0.0
 10
11.44999276017999
 20
-15.98016769955398
 30
0.0
 10
11.44718048232099
 20
-15.97828861139254
 30
0.0
 10
11.44429586633869
 20
-15.97652588021755
 30
0.0
 10
11.44148522899121
 20
-15.9748083559078
 30
0.0
 10
11.43860591629833
 20
-15.97320129694973
 30
0.0
 10
11.43566478277258
 20
-15.97172049713696
 30
0.0
  0
SPLINE
  5
1C4
330
70
100
AcDbEntity
  8
Layer 1
 62
     7
370
     5
100
AcDbSpline
210
0.0
220
0.0
230
1.0
 70
     8
 71
     3
 72
    20
 73
    16
 74
     0
 42
0.0000000001
 43
0.0000000001
 40
0.0
 40
0.0
 40
0.0
 40
0.0
 40
1.0
 40
1.0
 40
1.0
 40
2.0
 40
2.0
 40
2.0
 40
3.0
 40
3.0
 40
3.0
 40
4.0
 40
4.0
 40
4.0
 40
5.0
 40
5.0
 40
5.0
 40
5.0
 10
9.009796415423023
 20
-15.97169619938482
 30
0.0
 10
9.00384654880319
 20
-15.97469217271173
 30
0.0
 10
8.998142773478813
 20
-15.97820002270587
 30
0.0
 10
8.992745997109926
 20
-15.9821208888381
 30
0.0
 10
8.987169352139693
 20
-15.98617243311206
 30
0.0
 10
8.98192051101695
 20
-15.99066498305306
 30
0.0
 10
8.977047254402679
 20
-15.99553754106487
 30
0.0
 10
8.972173103343139
 20
-16.00041099339384
 30
0.0
 10
8.967674674675473
 20
-16.00566459330111
 30
0.0
 10
8.963625861903057
 20
-16.01123721822457
 30
0.0
 10
8.961638439444691
 20
-16.01397262747845
 30
0.0
 10
8.959759351454117
 20
-16.0167849054678
 30
0.0
 10
8.957996620468179
 20
-16.01966952158692
 30
0.0
 10
8.956279096332663
 20
-16.02248015908404
 30
0.0
 10
8.95467203756737
 20
-16.02535947193357
 30
0.0
 10
8.953191237954785
 20
-16.02830060555935
 30
0.0
  0
LINE
  5
1C5
330
70
100
AcDbEntity
  8
Layer 1
 62
     7
370
     5
100
AcDbLine
 10
11.49814954357454
 20
-16.05339864491364
 30
0.0
 11
11.49814954357454
 21
-16.05339864491364
 31
0.0
  0
LINE
  5
1C6
330
70
100
AcDbEntity
  8
Layer 1
 62
     7
370
     5
100
AcDbLine
 10
11.19834251265878
 20
-16.32222767479925
 30
0.0
 11
11.19834251265878
 21
-16.32222767479925
 31
0.0
  0
LINE
  5
1C7
330
70
100
AcDbEntity
  8
Layer 1
 62
     7
370
     5
100
AcDbLine
 10
11.19834251265878
 20
-18.16026697291509
 30
0.0
 11
11.19834251265878
 21
-18.16026697291509
 31
0.0
  0
LINE
  5
1C8
330
70
100
AcDbEntity
  8
Layer 1
 62
     7
370
     5
100
AcDbLine
 10
11.14173771453335
 20
-18.21687177104053
 30
0.0
 11
11.14173771453335
 21
-18.21687177104053
 31
0.0
  0
LINE
  5
1C9
330
70
100
AcDbEntity
  8
Layer 1
 62
     7
370
     5
100
AcDbLine
 10
10.40359044891772
 20
-18.21687179425533
 30
0.0
 11
10.40359044891772
 21
-18.21687179425533
 31
0.0
  0
SPLINE
  5
1CA
330
70
100
AcDbEntity
  8
Layer 1
 62
     7
370
     5
100
AcDbSpline
210
0.0
220
0.0
230
1.0
 70
     8
 71
     3
 72
    11
 73
     7
 74
     0
 42
0.0000000001
 43
0.0000000001
 40
0.0
 40
0.0
 40
0.0
 40
0.0
 40
1.0
 40
1.0
 40
1.0
 40
2.0
 40
2.0
 40
2.0
 40
2.0
 10
8.953191108371836
 20
-16.02830047857805
 30
0.0
 10
8.951259635998022
 20
-16.03208816285397
 30
0.0
 10
8.949801257367198
 20
-16.03613103844681
 30
0.0
 10
8.948820343747456
 20
-16.04028341062293
 30
0.0
 10
8.947805164996514
 20
-16.04458083285718
 30
0.0
 10
8.947301391351857
 20
-16.04899553512357
 30
0.0
 10
8.947295505184355
 20
-16.05339577347576
 30
0.0
  0
LINE
  5
1CB
330
70
100
AcDbEntity
  8
Layer 1
 62
     7
370
     5
100
AcDbLine
 10
9.247093618392138
 20
-16.32222761335995
 30
0.0
 11
8.953191135689317
 21
-16.02830043615088
 31
0.0
  0
LINE
  5
1CC
330
70
100
AcDbEntity
  8
Layer 1
 62
     7
370
     5
100
AcDbLine
 10
8.95316684904421
 20
-18.45416916773363
 30
0.0
 11
9.247093618392138
 21
-18.16026706827612
 31
0.0
  0
SPLINE
  5
1CD
330
70
100
AcDbEntity
  8
Layer 1
 62
     7
370
     5
100
AcDbSpline
210
0.0
220
0.0
230
1.0
 70
     8
 71
     3
 72
    11
 73
     7
 74
     0
 42
0.0000000001
 43
0.0000000001
 40
0.0
 40
0.0
 40
0.0
 40
0.0
 40
1.0
 40
1.0
 40
1.0
 40
2.0
 40
2.0
 40
2.0
 40
2.0
 10
8.947286587476392
 20
-18.42909600280071
 30
0.0
 10
8.947292291427313
 20
-18.43349002217226
 30
0.0
 10
8.947794242800455
 20
-18.43789843763296
 30
0.0
 10
8.948805926015387
 20
-18.4421902213455
 30
0.0
 10
8.949784293894392
 20
-18.44634067404258
 30
0.0
 10
8.95123937482943
 20
-18.4503820500204
 30
0.0
 10
8.953166808218092
 20
-18.45416910239181
 30
0.0
  0
SPLINE
  5
1CE
330
70
100
AcDbEntity
  8
Layer 1
 62
     7
370
     5
100
AcDbSpline
210
0.0
220
0.0
230
1.0
 70
     8
 71
     3
 72
    20
 73
    16
 74
     0
 42
0.0000000001
 43
0.0000000001
 40
0.0
 40
0.0
 40
0.0
 40
0.0
 40
1.0
 40
1.0
 40
1.0
 40
2.0
 40
2.0
 40
2.0
 40
3.0
 40
3.0
 40
3.0
 40
4.0
 40
4.0
 40
4.0
 40
5.0
 40
5.0
 40
5.0
 40
5.0
 10
8.947295505184355
 20
-16.05339577347576
 30
0.0
 10
8.947034769896022
 20
-16.25137065428096
 30
0.0
 10
8.946851359363323
 20
-16.44934564212185
 30
0.0
 10
8.946731842727254
 20
-16.64732066338491
 30
0.0
 10
8.946612326074879
 20
-16.84529571173091
 30
0.0
 10
8.946556703336655
 20
-17.04327079349915
 30
0.0
 10
8.946557676992204
 20
-17.2412458764247
 30
0.0
 10
8.946558650647803
 20
-17.43922095911287
 30
0.0
 10
8.946616220697011
 20
-17.63719604295824
 30
0.0
 10
8.946735000630155
 20
-17.83517108777522
 30
0.0
 10
8.946794390594137
 20
-17.93415860586782
 30
0.0
 10
8.946869083027788
 20
-18.03314611420331
 30
0.0
 10
8.946959959786555
 20
-18.13213360853117
 30
0.0
 10
8.947050836535531
 20
-18.23112109216827
 30
0.0
 10
8.947157897606112
 20
-18.33010856179774
 30
0.0
 10
8.947286587476392
 20
-18.42909600280071
 30
0.0
  0
SPLINE
  5
1CF
330
70
100
AcDbEntity
  8
Layer 1
 62
     7
370
     5
100
AcDbSpline
210
0.0
220
0.0
230
1.0
 70
     8
 71
     3
 72
    11
 73
     7
 74
     0
 42
0.0000000001
 43
0.0000000001
 40
0.0
 40
0.0
 40
0.0
 40
0.0
 40
1.0
 40
1.0
 40
1.0
 40
2.0
 40
2.0
 40
2.0
 40
2.0
 10
11.43566491045433
 20
-15.97172036695365
 30
0.0
 10
11.43187722617843
 20
-15.96978889457978
 30
0.0
 10
11.42783435075209
 20
-15.96833051571002
 30
0.0
 10
11.42368197867088
 20
-15.96734960204008
 30
0.0
 10
11.4193845564954
 20
-15.96633442322791
 30
0.0
 10
11.41496985420908
 20
-15.96583064973359
 30
0.0
 10
11.41056961585687
 20
-15.96582476356603
 30
0.0
  0
LINE
  5
1D0
330
70
100
AcDbEntity
  8
Layer 1
 62
     7
370
     5
100
AcDbLine
 10
11.14173777607273
 20
-16.26562287667384
 30
0.0
 11
11.43566495298154
 21
-15.9717203943712
 31
0.0
  0
LINE
  5
1D1
330
70
100
AcDbEntity
  8
Layer 1
 62
     7
370
     5
100
AcDbLine
 10
8.680486445617297
 20
-17.2412473238572
 30
0.0
 11
8.680329463838296
 21
-18.4340442896412
 31
0.0
  0
SPLINE
  5
1D2
330
70
100
AcDbEntity
  8
Layer 1
 62
     7
370
     5
100
AcDbSpline
210
0.0
220
0.0
230
1.0
 70
     8
 71
     3
 72
    29
 73
    25
 74
     0
 42
0.0000000001
 43
0.0000000001
 40
0.0
 40
0.0
 40
0.0
 40
0.0
 40
1.0
 40
1.0
 40
1.0
 40
2.0
 40
2.0
 40
2.0
 40
3.0
 40
3.0
 40
3.0
 40
4.0
 40
4.0
 40
4.0
 40
5.0
 40
5.0
 40
5.0
 40
6.0
 40
6.0
 40
6.0
 40
7.0
 40
7.0
 40
7.0
 40
8.0
 40
8.0
 40
8.0
 40
8.0
 10
8.680329463838296
 20
-18.4340442896412
 30
0.0
 10
8.680325598163978
 20
-18.45688787068863
 30
0.0
 10
8.682573958725368
 20
-18.47979487265004
 30
0.0
 10
8.687030898913816
 20
-18.50224658932719
 30
0.0
 10
8.691488373249525
 20
-18.52470099675671
 30
0.0
 10
8.698154956623714
 20
-18.54670000976706
 30
0.0
 10
8.706906881477884
 20
-18.567840293372
 30
0.0
 10
8.715657199397519
 20
-18.58897669542486
 30
0.0
 10
8.726492093091337
 20
-18.60925468338486
 30
0.0
 10
8.739199934762268
 20
-18.62828053256119
 30
0.0
 10
8.751908840137073
 20
-18.64730797428716
 30
0.0
 10
8.766491007050579
 20
-18.66508306760137
 30
0.0
 10
8.782668692362133
 20
-18.68126276625399
 30
0.0
 10
8.798845957056958
 20
-18.69744204423748
 30
0.0
 10
8.816618657184625
 20
-18.71202601051833
 30
0.0
 10
8.835643733424818
 20
-18.724737480502
 30
0.0
 10
8.854667807419179
 20
-18.73744828084225
 30
0.0
 10
8.874944125578672
 20
-18.74828678216719
 30
0.0
 10
8.896079549741303
 20
-18.75703954017333
 30
0.0
 10
8.917227747422289
 20
-18.76579758804329
 30
0.0
 10
8.939236089848058
 20
-18.77246737073051
 30
0.0
 10
8.961699918999203
 20
-18.77692812713452
 30
0.0
 10
8.984157859326741
 20
-18.78138771416502
 30
0.0
 10
9.007071047602
 20
-18.78363943293938
 30
0.0
 10
9.029921099791446
 20
-18.78363592559438
 30
0.0
  0
LINE
  5
1D3
330
70
100
AcDbEntity
  8
Layer 1
 62
     7
370
     5
100
AcDbLine
 10
9.029921099791446
 20
-18.78363592559438
 30
0.0
 11
10.04813911325771
 21
-18.78348296268771
 31
0.0
  0
LINE
  5
1D4
330
70
100
AcDbEntity
  8
Layer 1
 62
     7
370
     5
100
AcDbLine
 10
10.3972970197945
 20
-18.78348296278775
 30
0.0
 11
11.4155150312595
 21
-18.78363592559438
 31
0.0
  0
SPLINE
  5
1D5
330
70
100
AcDbEntity
  8
Layer 1
 62
     7
370
     5
100
AcDbSpline
210
0.0
220
0.0
230
1.0
 70
     8
 71
     3
 72
    29
 73
    25
 74
     0
 42
0.0000000001
 43
0.0000000001
 40
0.0
 40
0.0
 40
0.0
 40
0.0
 40
1.0
 40
1.0
 40
1.0
 40
2.0
 40
2.0
 40
2.0
 40
3.0
 40
3.0
 40
3.0
 40
4.0
 40
4.0
 40
4.0
 40
5.0
 40
5.0
 40
5.0
 40
6.0
 40
6.0
 40
6.0
 40
7.0
 40
7.0
 40
7.0
 40
8.0
 40
8.0
 40
8.0
 40
8.0
 10
11.4155150312595
 20
-18.78363592559438
 30
0.0
 10
11.43835854036087
 20
-18.78363979477093
 30
0.0
 10
11.4612654733178
 20
-18.7813914679963
 30
0.0
 10
11.48371712024671
 20
-18.77693455519152
 30
0.0
 10
11.50617142528904
 20
-18.7724771147204
 30
0.0
 10
11.52817033649178
 20
-18.76581056522675
 30
0.0
 10
11.54931053650027
 20
-18.75705871164162
 30
0.0
 10
11.57044688348456
 20
-18.74830845317388
 30
0.0
 10
11.59072483226444
 20
-18.73747365068286
 30
0.0
 10
11.60975065219187
 20
-18.72476590082139
 30
0.0
 10
11.62877802384294
 20
-18.7120571145305
 30
0.0
 10
11.64655306238899
 20
-18.69747507534614
 30
0.0
 10
11.66273271763442
 20
-18.68129752191867
 30
0.0
 10
11.67891204510216
 20
-18.66512029622633
 30
0.0
 10
11.69349605390924
 20
-18.64734762093624
 30
0.0
 10
11.70620757994729
 20
-18.62832257234332
 30
0.0
 10
11.71891853548996
 20
-18.60929837759792
 30
0.0
 10
11.72975717633451
 20
-18.58902192196081
 30
0.0
 10
11.73851004988685
 20
-18.56788634293879
 30
0.0
 10
11.74726821597011
 20
-18.54673798403316
 30
0.0
 10
11.75393809162974
 20
-18.52472946246982
 30
0.0
 10
11.7583988841757
 20
-18.50226544425246
 30
0.0
 10
11.76285846793275
 20
-18.47980751335149
 30
0.0
 10
11.7651101656519
 20
-18.45689433262479
 30
0.0
 10
11.76510666721263
 20
-18.4340442896412
 30
0.0
  0
LINE
  5
1D6
330
70
100
AcDbEntity
  8
Layer 1
 62
     7
370
     5
100
AcDbLine
 10
11.76510666721263
 20
-18.4340442896412
 30
0.0
 11
11.76494968543363
 21
-17.2412473238572
 31
0.0
  0
LINE
  5
1D7
330
70
100
AcDbEntity
  8
Layer 1
 62
     7
370
     5
100
AcDbLine
 10
11.76494968543363
 20
-17.2412473238572
 30
0.0
 11
11.76510666721263
 21
-16.04845035807309
 31
0.0
  0
SPLINE
  5
1D8
330
70
100
AcDbEntity
  8
Layer 1
 62
     7
370
     5
100
AcDbSpline
210
0.0
220
0.0
230
1.0
 70
     8
 71
     3
 72
    29
 73
    25
 74
     0
 42
0.0000000001
 43
0.0000000001
 40
0.0
 40
0.0
 40
0.0
 40
0.0
 40
1.0
 40
1.0
 40
1.0
 40
2.0
 40
2.0
 40
2.0
 40
3.0
 40
3.0
 40
3.0
 40
4.0
 40
4.0
 40
4.0
 40
5.0
 40
5.0
 40
5.0
 40
6.0
 40
6.0
 40
6.0
 40
7.0
 40
7.0
 40
7.0
 40
8.0
 40
8.0
 40
8.0
 40
8.0
 10
11.76510666721263
 20
-16.04845035807309
 30
0.0
 10
11.76511053288699
 20
-16.02560677702566
 30
0.0
 10
11.76286217232554
 20
-16.0026997750642
 30
0.0
 10
11.75840523213713
 20
-15.98024805838716
 30
0.0
 10
11.75394775780141
 20
-15.95779365095761
 30
0.0
 10
11.74728117442719
 20
-15.93579463794726
 30
0.0
 10
11.73852924957303
 20
-15.91465435432549
 30
0.0
 10
11.72977893165344
 20
-15.89351795225598
 30
0.0
 10
11.71894403795958
 20
-15.87323996426274
 30
0.0
 10
11.70623619628865
 20
-15.85421411508648
 30
0.0
 10
11.69352729091384
 20
-15.83518667336049
 30
0.0
 10
11.67894512400039
 20
-15.81741158007958
 30
0.0
 10
11.66276743868876
 20
-15.80123188142695
 30
0.0
 10
11.64659017399396
 20
-15.78505260344344
 30
0.0
 10
11.62881747386629
 20
-15.77046863712932
 30
0.0
 10
11.6097923976261
 20
-15.75775716714565
 30
0.0
 10
11.59076832363174
 20
-15.7450463668054
 30
0.0
 10
11.57049200547226
 20
-15.7342078655137
 30
0.0
 10
11.54935658130963
 20
-15.72545510752421
 30
0.0
 10
11.52820838362867
 20
-15.716697059671
 30
0.0
 10
11.50620004120287
 20
-15.71002727698379
 30
0.0
 10
11.48373621205173
 20
-15.70556652057982
 30
0.0
 10
11.46127827172419
 20
-15.70110693354927
 30
0.0
 10
11.4383650834489
 20
-15.69885521477499
 30
0.0
 10
11.4155150312595
 20
-15.69885872211992
 30
0.0
  0
SPLINE
  5
1D9
330
70
100
AcDbEntity
  8
Layer 1
 62
     7
370
     5
100
AcDbSpline
210
0.0
220
0.0
230
1.0
 70
     8
 71
     3
 72
    11
 73
     7
 74
     0
 42
0.0000000001
 43
0.0000000001
 40
0.0
 40
0.0
 40
0.0
 40
0.0
 40
1.0
 40
1.0
 40
1.0
 40
2.0
 40
2.0
 40
2.0
 40
2.0
 10
11.4155150312595
 20
-15.69885872211992
 30
0.0
 10
11.01791604993612
 20
-15.69894901961647
 30
0.0
 10
10.62031705843305
 20
-15.6990157037988
 30
0.0
 10
10.22271806692996
 20
-15.6990157037989
 30
0.0
 10
9.825119074472668
 20
-15.69901570379895
 30
0.0
 10
9.427520082015373
 20
-15.69894901961647
 30
0.0
 10
9.029921099791446
 20
-15.69885872211992
 30
0.0
  0
SPLINE
  5
1DA
330
70
100
AcDbEntity
  8
Layer 1
 62
     7
370
     5
100
AcDbSpline
210
0.0
220
0.0
230
1.0
 70
     8
 71
     3
 72
    29
 73
    25
 74
     0
 42
0.0000000001
 43
0.0000000001
 40
0.0
 40
0.0
 40
0.0
 40
0.0
 40
1.0
 40
1.0
 40
1.0
 40
2.0
 40
2.0
 40
2.0
 40
3.0
 40
3.0
 40
3.0
 40
4.0
 40
4.0
 40
4.0
 40
5.0
 40
5.0
 40
5.0
 40
6.0
 40
6.0
 40
6.0
 40
7.0
 40
7.0
 40
7.0
 40
8.0
 40
8.0
 40
8.0
 40
8.0
 10
9.029921099791446
 20
-15.69885872211992
 30
0.0
 10
9.007077590690034
 20
-15.69885485294339
 30
0.0
 10
8.984170657733127
 20
-15.70110317971797
 30
0.0
 10
8.961719010804218
 20
-15.70556009252275
 30
0.0
 10
8.939264705761905
 20
-15.71001753299386
 30
0.0
 10
8.917265794559183
 20
-15.71668408248749
 30
0.0
 10
8.89612559455069
 20
-15.72543593607272
 30
0.0
 10
8.874989247566366
 20
-15.73418619454039
 30
0.0
 10
8.854711298786494
 20
-15.74502099703141
 30
0.0
 10
8.835685478859051
 20
-15.75772874689298
 30
0.0
 10
8.816658107207961
 20
-15.77043753318377
 30
0.0
 10
8.798883068661943
 20
-15.7850195723682
 30
0.0
 10
8.782703413416482
 20
-15.80119712577892
 30
0.0
 10
8.766524085948793
 20
-15.81737435145457
 30
0.0
 10
8.751940077141687
 20
-15.83514702671146
 30
0.0
 10
8.739228551103627
 20
-15.85417207528753
 30
0.0
 10
8.726517595560986
 20
-15.87319627001632
 30
0.0
 10
8.71567895471642
 20
-15.89347272565341
 30
0.0
 10
8.706926081164056
 20
-15.91460830467549
 30
0.0
 10
8.698167915080817
 20
-15.93575666358111
 30
0.0
 10
8.691498039421224
 20
-15.95776518514445
 30
0.0
 10
8.687037246875219
 20
-15.98022920338672
 30
0.0
 10
8.68257766311817
 20
-16.00268713431279
 30
0.0
 10
8.680325965399042
 20
-16.02560031508955
 30
0.0
 10
8.680329463838296
 20
-16.04845035807309
 30
0.0
  0
LINE
  5
1DB
330
70
100
AcDbEntity
  8
Layer 1
 62
     7
370
     5
100
AcDbLine
 10
8.680329463838296
 20
-16.04845035807309
 30
0.0
 11
8.680486445617297
 21
-17.2412473238572
 31
0.0
  0
LINE
  5
1DC
330
70
100
AcDbEntity
  8
Layer 1
 62
     7
370
     5
100
AcDbLine
 10
11.52745803140255
 20
-17.2412473238572
 30
0.0
 11
11.52745803140255
 21
-17.2412473238572
 31
0.0
  0
SPLINE
  5
1DD
330
70
100
AcDbEntity
  8
Layer 1
 62
     7
370
     5
100
AcDbSpline
210
0.0
220
0.0
230
1.0
 70
     8
 71
     3
 72
    11
 73
     7
 74
     0
 42
0.0000000001
 43
0.0000000001
 40
0.0
 40
0.0
 40
0.0
 40
0.0
 40
1.0
 40
1.0
 40
1.0
 40
2.0
 40
2.0
 40
2.0
 40
2.0
 10
6.844763899980787
 20
-20.7392600584116
 30
0.0
 10
7.111684312921548
 20
-20.73915810745613
 30
0.0
 10
7.37860473017713
 20
-20.73906797257102
 30
0.0
 10
7.645525151509483
 20
-20.73898977776278
 30
0.0
 10
8.446396439482871
 20
-20.73875516110633
 30
0.0
 10
9.2472677641573
 20
-20.73862803467341
 30
0.0
 10
10.04813908503963
 20
-20.73861194757655
 30
0.0
  0
SPLINE
  5
1DE
330
70
100
AcDbEntity
  8
Layer 1
 62
     7
370
     5
100
AcDbSpline
210
0.0
220
0.0
230
1.0
 70
     8
 71
     3
 72
    11
 73
     7
 74
     0
 42
0.0000000001
 43
0.0000000001
 40
0.0
 40
0.0
 40
0.0
 40
0.0
 40
1.0
 40
1.0
 40
1.0
 40
2.0
 40
2.0
 40
2.0
 40
2.0
 10
10.39729701739295
 20
-20.73861194737643
 30
0.0
 10
10.66426548699328
 20
-20.73861731040913
 30
0.0
 10
10.93123395615898
 20
-20.73863498643133
 30
0.0
 10
11.19820242446773
 20
-20.73866488145864
 30
0.0
 10
11.99902571407224
 20
-20.73875455734552
 30
0.0
 10
12.79984899596599
 20
-20.73895418172972
 30
0.0
 10
13.60067223107014
 20
-20.7392600584116
 30
0.0
  0
SPLINE
  5
1DF
330
70
100
AcDbEntity
  8
Layer 1
 62
     7
370
     5
100
AcDbSpline
210
0.0
220
0.0
230
1.0
 70
     8
 71
     3
 72
    11
 73
     7
 74
     0
 42
0.0000000001
 43
0.0000000001
 40
0.0
 40
0.0
 40
0.0
 40
0.0
 40
1.0
 40
1.0
 40
1.0
 40
2.0
 40
2.0
 40
2.0
 40
2.0
 10
13.72073080012998
 20
-20.61920148935173
 30
0.0
 10
13.72062329311815
 20
-20.33773479710172
 30
0.0
 10
13.72052892178989
 20
-20.05626810007094
 30
0.0
 10
13.72044784093039
 20
-19.77480139853196
 30
0.0
 10
13.72020456439019
 20
-18.93028339836249
 30
0.0
 10
13.72008093547232
 20
-18.08576535760792
 30
0.0
 10
13.72008093547232
 20
-17.2412473238572
 30
0.0
  0
SPLINE
  5
1E0
330
70
100
AcDbEntity
  8
Layer 1
 62
     7
370
     5
100
AcDbSpline
210
0.0
220
0.0
230
1.0
 70
     8
 71
     3
 72
    11
 73
     7
 74
     0
 42
0.0000000001
 43
0.0000000001
 40
0.0
 40
0.0
 40
0.0
 40
0.0
 40
1.0
 40
1.0
 40
1.0
 40
2.0
 40
2.0
 40
2.0
 40
2.0
 10
13.72008093547232
 20
-17.2412473238572
 30
0.0
 10
13.72008093547232
 20
-16.95972987521956
 30
0.0
 10
13.7200946315225
 20
-16.67821242674606
 30
0.0
 10
13.72012193948991
 20
-16.39669497898585
 30
0.0
 10
13.72020385514232
 20
-15.55222768358451
 30
0.0
 10
13.72040825337808
 20
-14.70776039459944
 30
0.0
 10
13.72073080012998
 20
-13.86329315836249
 30
0.0
  0
SPLINE
  5
1E1
330
70
100
AcDbEntity
  8
Layer 1
 62
     7
370
     5
100
AcDbSpline
210
0.0
220
0.0
230
1.0
 70
     8
 71
     3
 72
    29
 73
    25
 74
     0
 42
0.0000000001
 43
0.0000000001
 40
0.0
 40
0.0
 40
0.0
 40
0.0
 40
1.0
 40
1.0
 40
1.0
 40
2.0
 40
2.0
 40
2.0
 40
3.0
 40
3.0
 40
3.0
 40
4.0
 40
4.0
 40
4.0
 40
5.0
 40
5.0
 40
5.0
 40
6.0
 40
6.0
 40
6.0
 40
7.0
 40
7.0
 40
7.0
 40
8.0
 40
8.0
 40
8.0
 40
8.0
 10
13.6006722302696
 20
-20.73926005771118
 30
0.0
 10
13.60851452237058
 20
-20.73926060135914
 30
0.0
 10
13.61637828804064
 20
-20.73848655056941
 30
0.0
 10
13.62408599100001
 20
-20.73695577626171
 30
0.0
 10
13.63179873983841
 20
-20.73542399982633
 30
0.0
 10
13.63935522156518
 20
-20.73313450876425
 30
0.0
 10
13.64661642614476
 20
-20.7301280129489
 30
0.0
 10
13.65387333272877
 20
-20.72712329671508
 30
0.0
 10
13.66083531161851
 20
-20.72340242428456
 30
0.0
 10
13.66736784774576
 20
-20.71903921519343
 30
0.0
 10
13.67390163420148
 20
-20.71467517098333
 30
0.0
 10
13.68000581348815
 20
-20.70966854420261
 30
0.0
 10
13.68556206997284
 20
-20.70411389632179
 30
0.0
 10
13.69111806813117
 20
-20.69855950669254
 30
0.0
 10
13.69612619443534
 20
-20.69245714691998
 30
0.0
 10
13.7004921762562
 20
-20.68592501792947
 30
0.0
 10
13.70485783828614
 20
-20.67939336739161
 30
0.0
 10
13.70858144989848
 20
-20.67243201059121
 30
0.0
 10
13.71158738822868
 20
-20.66517511366422
 30
0.0
 10
13.714597291854
 20
-20.65790864377348
 30
0.0
 10
13.71688762750537
 20
-20.65034585351625
 30
0.0
 10
13.71842149803001
 20
-20.64262696756871
 30
0.0
 10
13.71995393381281
 20
-20.63491530166269
 30
0.0
 10
13.72073131896206
 20
-20.62704783194537
 30
0.0
 10
13.72073079932945
 20
-20.6192014885513
 30
0.0
  0
SPLINE
  5
1E2
330
70
100
AcDbEntity
  8
Layer 1
 62
     7
370
     5
100
AcDbSpline
210
0.0
220
0.0
230
1.0
 70
     8
 71
     3
 72
    29
 73
    25
 74
     0
 42
0.0000000001
 43
0.0000000001
 40
0.0
 40
0.0
 40
0.0
 40
0.0
 40
1.0
 40
1.0
 40
1.0
 40
2.0
 40
2.0
 40
2.0
 40
3.0
 40
3.0
 40
3.0
 40
4.0
 40
4.0
 40
4.0
 40
5.0
 40
5.0
 40
5.0
 40
6.0
 40
6.0
 40
6.0
 40
7.0
 40
7.0
 40
7.0
 40
8.0
 40
8.0
 40
8.0
 40
8.0
 10
13.72073079932945
 20
-13.863293159063
 30
0.0
 10
13.72073134307749
 20
-13.85545086706204
 30
0.0
 10
13.71995729223783
 20
-13.84758710134199
 30
0.0
 10
13.71842651792172
 20
-13.8398793983576
 30
0.0
 10
13.716894741478
 20
-13.83216664949415
 30
0.0
 10
13.71460525044932
 20
-13.82461016776738
 30
0.0
 10
13.71159875463397
 20
-13.81734896318787
 30
0.0
 10
13.70859403840011
 20
-13.81009205660378
 30
0.0
 10
13.70487316593617
 20
-13.80313007771411
 30
0.0
 10
13.70050995684504
 20
-13.79659754160346
 30
0.0
 10
13.69614591263501
 20
-13.79006375516446
 30
0.0
 10
13.69113928588763
 20
-13.78395957591111
 30
0.0
 10
13.68558463802348
 20
-13.77840331942646
 30
0.0
 10
13.68003024841083
 20
-13.77284732126812
 30
0.0
 10
13.6739278886384
 20
-13.76783919493063
 30
0.0
 10
13.66739575964784
 20
-13.76347321309307
 30
0.0
 10
13.66086410910999
 20
-13.75910755104648
 30
0.0
 10
13.65390275230953
 20
-13.75538393943407
 30
0.0
 10
13.64664585536582
 20
-13.75237800112058
 30
0.0
 10
13.63937938545854
 20
-13.7493680975119
 30
0.0
 10
13.63181659516792
 20
-13.74707776189393
 30
0.0
 10
13.62409770920367
 20
-13.74554389138595
 30
0.0
 10
13.61638604328098
 20
-13.74401145561983
 30
0.0
 10
13.60851857356368
 20
-13.74323407047061
 30
0.0
 10
13.60067223016957
 20
-13.74323459010318
 30
0.0
  0
SPLINE
  5
1E3
330
70
100
AcDbEntity
  8
Layer 1
 62
     7
370
     5
100
AcDbSpline
210
0.0
220
0.0
230
1.0
 70
     8
 71
     3
 72
    29
 73
    25
 74
     0
 42
0.0000000001
 43
0.0000000001
 40
0.0
 40
0.0
 40
0.0
 40
0.0
 40
1.0
 40
1.0
 40
1.0
 40
2.0
 40
2.0
 40
2.0
 40
3.0
 40
3.0
 40
3.0
 40
4.0
 40
4.0
 40
4.0
 40
5.0
 40
5.0
 40
5.0
 40
6.0
 40
6.0
 40
6.0
 40
7.0
 40
7.0
 40
7.0
 40
8.0
 40
8.0
 40
8.0
 40
8.0
 10
6.724705331621432
 20
-20.61920148865132
 30
0.0
 10
6.724704787973425
 20
-20.62704378065225
 30
0.0
 10
6.725478838813083
 20
-20.63490754632226
 30
0.0
 10
6.727009613129173
 20
-20.64261524929833
 30
0.0
 10
6.728541389572935
 20
-20.65032799815347
 30
0.0
 10
6.73083088060164
 20
-20.65788447991357
 30
0.0
 10
6.733837376416974
 20
-20.66514568449308
 30
0.0
 10
6.736842092650817
 20
-20.67240259107712
 30
0.0
 10
6.740562965114766
 20
-20.67936456993352
 30
0.0
 10
6.744926174205879
 20
-20.68589710604411
 30
0.0
 10
6.749290218415908
 20
-20.69243089248314
 30
0.0
 10
6.754296845163302
 20
-20.69853507176981
 30
0.0
 10
6.759851493027477
 20
-20.70409132827124
 30
0.0
 10
6.765405882640114
 20
-20.70964732644615
 30
0.0
 10
6.771508242412537
 20
-20.71465545278359
 30
0.0
 10
6.778040371403082
 20
-20.7190214346212
 30
0.0
 10
6.78457202194094
 20
-20.7233870966679
 30
0.0
 10
6.791533378741418
 20
-20.7271107082802
 30
0.0
 10
6.798790275668415
 20
-20.73011664659377
 30
0.0
 10
6.806056745559039
 20
-20.73312655020242
 30
0.0
 10
6.813619535816327
 20
-20.73541688582036
 30
0.0
 10
6.821338421788923
 20
-20.73695075632837
 30
0.0
 10
6.829050087719918
 20
-20.73848319209449
 30
0.0
 10
6.836917557487291
 20
-20.73926057724374
 30
0.0
 10
6.844763900781319
 20
-20.73926005761112
 30
0.0
  0
SPLINE
  5
1E4
330
70
100
AcDbEntity
  8
Layer 1
 62
     7
370
     5
100
AcDbSpline
210
0.0
220
0.0
230
1.0
 70
     8
 71
     3
 72
    29
 73
    25
 74
     0
 42
0.0000000001
 43
0.0000000001
 40
0.0
 40
0.0
 40
0.0
 40
0.0
 40
1.0
 40
1.0
 40
1.0
 40
2.0
 40
2.0
 40
2.0
 40
3.0
 40
3.0
 40
3.0
 40
4.0
 40
4.0
 40
4.0
 40
5.0
 40
5.0
 40
5.0
 40
6.0
 40
6.0
 40
6.0
 40
7.0
 40
7.0
 40
7.0
 40
8.0
 40
8.0
 40
8.0
 40
8.0
 10
6.844763900781319
 20
-13.74323459000313
 30
0.0
 10
6.83692160868035
 20
-13.74323404635515
 30
0.0
 10
6.829057843010319
 20
-13.74400809714481
 30
0.0
 10
6.821350140034269
 20
-13.74553887143591
 30
0.0
 10
6.813637391179137
 20
-13.74707064785459
 30
0.0
 10
6.806080909419051
 20
-13.74936013888327
 30
0.0
 10
6.798819704839464
 20
-13.75236663469862
 30
0.0
 10
6.791562798255439
 20
-13.75537135093241
 30
0.0
 10
6.784600819399062
 20
-13.75909222339641
 30
0.0
 10
6.778068283288474
 20
-13.76345543250421
 30
0.0
 10
6.771534496849451
 20
-13.76781947673089
 30
0.0
 10
6.765430317562769
 20
-13.77282610351166
 30
0.0
 10
6.759874061078082
 20
-13.77838075139248
 30
0.0
 10
6.754318062919751
 20
-13.78393514102185
 30
0.0
 10
6.749309936615632
 20
-13.79003750079421
 30
0.0
 10
6.744943954794709
 20
-13.79656962976812
 30
0.0
 10
6.740578292764817
 20
-13.80310128028931
 30
0.0
 10
6.736854681152445
 20
-13.81006263705644
 30
0.0
 10
6.733848742822247
 20
-13.81731953398343
 30
0.0
 10
6.730838839196898
 20
-13.82458600387402
 30
0.0
 10
6.728548503545576
 20
-13.83214879416469
 30
0.0
 10
6.727014633020909
 20
-13.83986768012897
 30
0.0
 10
6.725482197238079
 20
-13.84757934605161
 30
0.0
 10
6.724704812088866
 20
-13.85544681576893
 30
0.0
 10
6.724705331721464
 20
-13.86329315916302
 30
0.0
  0
SPLINE
  5
1E5
330
70
100
AcDbEntity
  8
Layer 1
 62
     7
370
     5
100
AcDbSpline
210
0.0
220
0.0
230
1.0
 70
     8
 71
     3
 72
    11
 73
     7
 74
     0
 42
0.0000000001
 43
0.0000000001
 40
0.0
 40
0.0
 40
0.0
 40
0.0
 40
1.0
 40
1.0
 40
1.0
 40
2.0
 40
2.0
 40
2.0
 40
2.0
 10
6.724705330920969
 20
-13.86329315836249
 30
0.0
 10
6.724812837932757
 20
-14.14475985061259
 30
0.0
 10
6.724907209261029
 20
-14.42622654764338
 30
0.0
 10
6.724988290120563
 20
-14.70769324918233
 30
0.0
 10
6.725231566660757
 20
-15.55221124935181
 30
0.0
 10
6.725355195578609
 20
-16.39672929010635
 30
0.0
 10
6.725355195578609
 20
-17.2412473238572
 30
0.0
  0
SPLINE
  5
1E6
330
70
100
AcDbEntity
  8
Layer 1
 62
     7
370
     5
100
AcDbSpline
210
0.0
220
0.0
230
1.0
 70
     8
 71
     3
 72
    11
 73
     7
 74
     0
 42
0.0000000001
 43
0.0000000001
 40
0.0
 40
0.0
 40
0.0
 40
0.0
 40
1.0
 40
1.0
 40
1.0
 40
2.0
 40
2.0
 40
2.0
 40
2.0
 10
6.725355195578609
 20
-17.2412473238572
 30
0.0
 10
6.725355195578609
 20
-17.52276477249476
 30
0.0
 10
6.725341499528426
 20
-17.80428222096821
 30
0.0
 10
6.725314191561032
 20
-18.08579966872222
 30
0.0
 10
6.7252322759086
 20
-18.9302669641048
 30
0.0
 10
6.72502787767285
 20
-19.77473425301478
 30
0.0
 10
6.724705330920969
 20
-20.61920148935173
 30
0.0
  0
SPLINE
  5
1E7
330
70
100
AcDbEntity
  8
Layer 1
 62
     7
370
     5
100
AcDbSpline
210
0.0
220
0.0
230
1.0
 70
     8
 71
     3
 72
    11
 73
     7
 74
     0
 42
0.0000000001
 43
0.0000000001
 40
0.0
 40
0.0
 40
0.0
 40
0.0
 40
1.0
 40
1.0
 40
1.0
 40
2.0
 40
2.0
 40
2.0
 40
2.0
 10
13.60067223107014
 20
-13.7432345893027
 30
0.0
 10
12.47468759602749
 20
-13.74366466237875
 30
0.0
 10
11.34870286923209
 20
-13.74388445365513
 30
0.0
 10
10.22271814243673
 20
-13.7438844536601
 30
0.0
 10
9.096733364296456
 20
-13.7438844536651
 30
0.0
 10
7.97074858615618
 20
-13.74366466237875
 30
0.0
 10
6.844763899980787
 20
-13.7432345893027
 30
0.0
  0
SPLINE
  5
1E8
330
70
100
AcDbEntity
  8
Layer 1
 62
     7
370
     5
100
AcDbSpline
210
0.0
220
0.0
230
1.0
 70
     8
 71
     3
 72
    83
 73
    79
 74
     0
 42
0.0000000001
 43
0.0000000001
 40
0.0
 40
0.0
 40
0.0
 40
0.0
 40
1.0
 40
1.0
 40
1.0
 40
2.0
 40
2.0
 40
2.0
 40
3.0
 40
3.0
 40
3.0
 40
4.0
 40
4.0
 40
4.0
 40
5.0
 40
5.0
 40
5.0
 40
6.0
 40
6.0
 40
6.0
 40
7.0
 40
7.0
 40
7.0
 40
8.0
 40
8.0
 40
8.0
 40
9.0
 40
9.0
 40
9.0
 40
10.0
 40
10.0
 40
10.0
 40
11.0
 40
11.0
 40
11.0
 40
12.0
 40
12.0
 40
12.0
 40
13.0
 40
13.0
 40
13.0
 40
14.0
 40
14.0
 40
14.0
 40
15.0
 40
15.0
 40
15.0
 40
16.0
 40
16.0
 40
16.0
 40
17.0
 40
17.0
 40
17.0
 40
18.0
 40
18.0
 40
18.0
 40
19.0
 40
19.0
 40
19.0
 40
20.0
 40
20.0
 40
20.0
 40
21.0
 40
21.0
 40
21.0
 40
22.0
 40
22.0
 40
22.0
 40
23.0
 40
23.0
 40
23.0
 40
24.0
 40
24.0
 40
24.0
 40
25.0
 40
25.0
 40
25.0
 40
26.0
 40
26.0
 40
26.0
 40
26.0
 10
11.76510666721263
 20
-4.27335325057494
 30
0.0
 10
11.76510696500324
 20
-4.273338790919776
 30
0.0
 10
11.76509402284284
 20
-4.273327344903009
 30
0.0
 10
11.76508099414675
 20
-4.273318273192684
 30
0.0
 10
11.76505526054067
 20
-4.273300355220018
 30
0.0
 10
11.7650291893407
 20
-4.27329169991679
 30
0.0
 10
11.7650025723914
 20
-4.273283716575721
 30
0.0
 10
11.76490255196352
 20
-4.273253716999849
 30
0.0
 10
11.76479482509105
 20
-4.273233206101356
 30
0.0
 10
11.76468776294597
 20
-4.273215890653116
 30
0.0
 10
11.76451185813495
 20
-4.273187441095627
 30
0.0
 10
11.76433774775643
 20
-4.273167617660495
 30
0.0
 10
11.76416279838064
 20
-4.273149823185727
 30
0.0
 10
11.76391898763615
 20
-4.273125024674072
 30
0.0
 10
11.76367354744014
 20
-4.273104166690674
 30
0.0
 10
11.76342823819901
 20
-4.273085564389488
 30
0.0
 10
11.76311363374854
 20
-4.273061707290884
 30
0.0
 10
11.76279924468699
 20
-4.273041560242745
 30
0.0
 10
11.76248464198621
 20
-4.273023164563065
 30
0.0
 10
11.76210084068183
 20
-4.273000722651835
 30
0.0
 10
11.76171672142001
 20
-4.272980887287417
 30
0.0
 10
11.76133256918518
 20
-4.272962674012761
 30
0.0
 10
11.76087929277265
 20
-4.272941183449751
 30
0.0
 10
11.76042597045324
 20
-4.272921951253124
 30
0.0
 10
11.75997257937361
 20
-4.272904143027959
 30
0.0
 10
11.7594502037409
 20
-4.272883625238174
 30
0.0
 10
11.75892773683203
 20
-4.272864997706784
 30
0.0
 10
11.75840523210759
 20
-4.272847621823327
 30
0.0
 10
11.75715393533403
 20
-4.27280600997599
 30
0.0
 10
11.75590242168488
 20
-4.272771576442121
 30
0.0
 10
11.75465082086001
 20
-4.272740806909837
 30
0.0
 10
11.75312659734067
 20
-4.272703335182541
 30
0.0
 10
11.75160224453237
 20
-4.272671297475868
 30
0.0
 10
11.75007783261709
 20
-4.272642527690587
 30
0.0
 10
11.748285116121
 20
-4.272608694270514
 30
0.0
 10
11.74649231788051
 20
-4.27257938034802
 30
0.0
 10
11.74469947811719
 20
-4.272552960864989
 30
0.0
 10
11.74264278156883
 20
-4.272522653159588
 30
0.0
 10
11.74058603037605
 20
-4.272496154550544
 30
0.0
 10
11.7385292495517
 20
-4.272472275879319
 30
0.0
 10
11.73621307825637
 20
-4.272445385754596
 30
0.0
 10
11.73389686938415
 20
-4.272421818063472
 30
0.0
 10
11.73158063912424
 20
-4.272400642110343
 30
0.0
 10
11.72900994061245
 20
-4.272377139701322
 30
0.0
 10
11.72643921575531
 20
-4.272356583425966
 30
0.0
 10
11.72386847557344
 20
-4.272338220275451
 30
0.0
 10
11.72105002723913
 20
-4.272318087711545
 30
0.0
 10
11.71823156048453
 20
-4.272300591279543
 30
0.0
 10
11.71541308278634
 20
-4.272285135230137
 30
0.0
 10
11.71235413174748
 20
-4.272268360466012
 30
0.0
 10
11.70929516781796
 20
-4.272253989109635
 30
0.0
 10
11.70623619626915
 20
-4.272241502750615
 30
0.0
 10
11.69942584496267
 20
-4.272213703704411
 30
0.0
 10
11.69261545589006
 20
-4.272195247928367
 30
0.0
 10
11.68580505764456
 20
-4.272183055620757
 30
0.0
 10
11.6781258589089
 20
-4.272169307944017
 30
0.0
 10
11.67044664851069
 20
-4.27216352372525
 30
0.0
 10
11.66276743867296
 20
-4.272163519010076
 30
0.0
 10
11.65429494966496
 20
-4.272163513807805
 30
0.0
 10
11.64582246133924
 20
-4.272170543854991
 30
0.0
 10
11.63734998161552
 20
-4.272183003726341
 30
0.0
 10
11.62816410881046
 20
-4.272196512733986
 30
0.0
 10
11.61897824611701
 20
-4.272216404457986
 30
0.0
 10
11.60979239763216
 20
-4.272241400904817
 30
0.0
 10
11.59998408576161
 20
-4.272268091193268
 30
0.0
 10
11.59017579009054
 20
-4.272300601470419
 30
0.0
 10
11.58036751343464
 20
-4.272338026777914
 30
0.0
 10
11.57003051432711
 20
-4.272377469524371
 30
0.0
 10
11.55969353634008
 20
-4.272422371480084
 30
0.0
 10
11.54935658129645
 20
-4.272472031851545
 30
0.0
 10
11.53858711467335
 20
-4.272523770077226
 30
0.0
 10
11.52781767295382
 20
-4.272580673245745
 30
0.0
 10
11.51704825862585
 20
-4.272642303065721
 30
0.0
 10
11.50594421384941
 20
-4.272705847865773
 30
0.0
 10
11.49484019819316
 20
-4.272774417616687
 30
0.0
 10
11.48373621199093
 20
-4.272847577709322
 30
0.0
 10
11.46099568556264
 20
-4.272997406697704
 30
0.0
 10
11.43825528266892
 20
-4.273166488234285
 30
0.0
 10
11.4155150312595
 20
-4.27335325057494
 30
0.0
  0
SPLINE
  5
1E9
330
70
100
AcDbEntity
  8
Layer 1
 62
     7
370
     5
100
AcDbSpline
210
0.0
220
0.0
230
1.0
 70
     8
 71
     3
 72
    11
 73
     7
 74
     0
 42
0.0000000001
 43
0.0000000001
 40
0.0
 40
0.0
 40
0.0
 40
0.0
 40
1.0
 40
1.0
 40
1.0
 40
2.0
 40
2.0
 40
2.0
 40
2.0
 10
11.4155150312595
 20
-4.27335325057494
 30
0.0
 10
11.01792606374562
 20
-4.276626195982834
 30
0.0
 10
10.62032206533782
 20
-4.278322665136607
 30
0.0
 10
10.22271806692999
 20
-4.278322665138627
 30
0.0
 10
9.825114067567925
 20
-4.278322665140661
 30
0.0
 10
9.427510068205858
 20
-4.276626195982834
 30
0.0
 10
9.029921099791446
 20
-4.27335325057494
 30
0.0
  0
SPLINE
  5
1EA
330
70
100
AcDbEntity
  8
Layer 1
 62
     7
370
     5
100
AcDbSpline
210
0.0
220
0.0
230
1.0
 70
     8
 71
     3
 72
    83
 73
    79
 74
     0
 42
0.0000000001
 43
0.0000000001
 40
0.0
 40
0.0
 40
0.0
 40
0.0
 40
1.0
 40
1.0
 40
1.0
 40
2.0
 40
2.0
 40
2.0
 40
3.0
 40
3.0
 40
3.0
 40
4.0
 40
4.0
 40
4.0
 40
5.0
 40
5.0
 40
5.0
 40
6.0
 40
6.0
 40
6.0
 40
7.0
 40
7.0
 40
7.0
 40
8.0
 40
8.0
 40
8.0
 40
9.0
 40
9.0
 40
9.0
 40
10.0
 40
10.0
 40
10.0
 40
11.0
 40
11.0
 40
11.0
 40
12.0
 40
12.0
 40
12.0
 40
13.0
 40
13.0
 40
13.0
 40
14.0
 40
14.0
 40
14.0
 40
15.0
 40
15.0
 40
15.0
 40
16.0
 40
16.0
 40
16.0
 40
17.0
 40
17.0
 40
17.0
 40
18.0
 40
18.0
 40
18.0
 40
19.0
 40
19.0
 40
19.0
 40
20.0
 40
20.0
 40
20.0
 40
21.0
 40
21.0
 40
21.0
 40
22.0
 40
22.0
 40
22.0
 40
23.0
 40
23.0
 40
23.0
 40
24.0
 40
24.0
 40
24.0
 40
25.0
 40
25.0
 40
25.0
 40
26.0
 40
26.0
 40
26.0
 40
26.0
 10
9.029921099791446
 20
-4.27335325057494
 30
0.0
 10
9.007187213055821
 20
-4.273166416688505
 30
0.0
 10
8.984453173802661
 20
-4.27299736172938
 30
0.0
 10
8.961719010778084
 20
-4.272847622619969
 30
0.0
 10
8.950621061272714
 20
-4.272774525709678
 30
0.0
 10
8.939523082272367
 20
-4.27270603180356
 30
0.0
 10
8.928425074332986
 20
-4.272642530137671
 30
0.0
 10
8.917658607536509
 20
-4.272580925516296
 30
0.0
 10
8.906892113504163
 20
-4.272524019314864
 30
0.0
 10
8.896125594553975
 20
-4.272472278528109
 30
0.0
 10
8.885788843179422
 20
-4.272422603080435
 30
0.0
 10
8.875452068836555
 20
-4.272377688901794
 30
0.0
 10
8.865115273405624
 20
-4.272338222497826
 30
0.0
 10
8.855305359948753
 20
-4.272300767755672
 30
0.0
 10
8.845495427498764
 20
-4.272268219579485
 30
0.0
 10
8.835685478800945
 20
-4.272241504103034
 30
0.0
 10
8.826498479493036
 20
-4.272216485107366
 30
0.0
 10
8.81731146593529
 20
-4.272196581557787
 30
0.0
 10
8.808124442276128
 20
-4.272183056729507
 30
0.0
 10
8.799650771951291
 20
-4.272170582076063
 30
0.0
 10
8.791177093032779
 20
-4.272163534013517
 30
0.0
 10
8.782703413394617
 20
-4.272163518733703
 30
0.0
 10
8.775023154890845
 20
-4.272163504884575
 30
0.0
 10
8.767342895795865
 20
-4.272169268466781
 30
0.0
 10
8.75966264837824
 20
-4.272183002660477
 30
0.0
 10
8.752851263942197
 20
-4.272195183110953
 30
0.0
 10
8.746039888690827
 20
-4.272213632759707
 30
0.0
 10
8.739228551078996
 20
-4.272241398925467
 30
0.0
 10
8.736168637918517
 20
-4.272253872548238
 30
0.0
 10
8.73310873235429
 20
-4.272268226383718
 30
0.0
 10
8.730048839631812
 20
-4.272284983227336
 30
0.0
 10
8.727229551930122
 20
-4.272300422449372
 30
0.0
 10
8.724410275130013
 20
-4.27231790163138
 30
0.0
 10
8.721591016816836
 20
-4.272338023468137
 30
0.0
 10
8.719019814651144
 20
-4.272356374858658
 30
0.0
 10
8.716448627862291
 20
-4.272376924327368
 30
0.0
 10
8.713877467341818
 20
-4.272400416259844
 30
0.0
 10
8.711560311863195
 20
-4.272421587423473
 30
0.0
 10
8.709243177719132
 20
-4.272445148395553
 30
0.0
 10
8.706926081093886
 20
-4.272472028693426
 30
0.0
 10
8.704867920600678
 20
-4.272495905111213
 30
0.0
 10
8.702809789709323
 20
-4.272522400435958
 30
0.0
 10
8.700751713497766
 20
-4.272552708085072
 30
0.0
 10
8.698957474970837
 20
-4.272579130406711
 30
0.0
 10
8.697163278002879
 20
-4.272608450254034
 30
0.0
 10
8.69536916287878
 20
-4.272642301308311
 30
0.0
 10
8.69384376828605
 20
-4.272671082190034
 30
0.0
 10
8.692318432856342
 20
-4.272703138572384
 30
0.0
 10
8.690793227522513
 20
-4.27274065538039
 30
0.0
 10
8.689541103350771
 20
-4.272771454972472
 30
0.0
 10
8.688289066859271
 20
-4.272805934707258
 30
0.0
 10
8.687037246821128
 20
-4.272847579264785
 30
0.0
 10
8.686514431293163
 20
-4.272864971877664
 30
0.0
 10
8.685991653520481
 20
-4.272883614227477
 30
0.0
 10
8.685468967098989
 20
-4.27290414475202
 30
0.0
 10
8.685015243137184
 20
-4.272921966510024
 30
0.0
 10
8.68456158801128
 20
-4.2729412110658
 30
0.0
 10
8.68410797816931
 20
-4.272962710899504
 30
0.0
 10
8.683723488303332
 20
-4.272980934640271
 30
0.0
 10
8.683339030972167
 20
-4.273000778716512
 30
0.0
 10
8.682954892704337
 20
-4.273023226477903
 30
0.0
 10
8.682639966632866
 20
-4.27304162970899
 30
0.0
 10
8.682325255007956
 20
-4.273061782909874
 30
0.0
 10
8.682010323491857
 20
-4.27308564017489
 30
0.0
 10
8.68176471958567
 20
-4.273104245608704
 30
0.0
 10
8.68151898194416
 20
-4.273125103812187
 30
0.0
 10
8.68127488326138
 20
-4.27314990071458
 30
0.0
 10
8.681099695014191
 20
-4.273167697311489
 30
0.0
 10
8.680925350970344
 20
-4.273187522673866
 30
0.0
 10
8.680749184730757
 20
-4.273215956802573
 30
0.0
 10
8.680641938559132
 20
-4.273233266881131
 30
0.0
 10
8.680534017061834
 20
-4.273253767462557
 30
0.0
 10
8.680433840687516
 20
-4.273283757156693
 30
0.0
 10
8.680407177283553
 20
-4.273291739351457
 30
0.0
 10
8.680381062571957
 20
-4.273300393789011
 30
0.0
 10
8.680355243055309
 20
-4.273318295438469
 30
0.0
 10
8.680342180733784
 20
-4.273327352041102
 30
0.0
 10
8.680329193965512
 20
-4.273338775409822
 30
0.0
 10
8.680329463838296
 20
-4.27335325057494
 30
0.0
  0
LINE
  5
1EB
330
70
100
AcDbEntity
  8
Layer 1
 62
     7
370
     5
100
AcDbLine
 10
8.953191108371836
 20
-5.056451348984587
 30
0.0
 11
8.947295505184355
 21
-5.051653358143716
 31
0.0
  0
LINE
  5
1EC
330
70
100
AcDbEntity
  8
Layer 1
 62
     7
370
     5
100
AcDbLine
 10
8.925149966531535
 20
-5.006075615985031
 30
0.0
 11
8.924900616830756
 21
-5.005922359290277
 31
0.0
  0
LINE
  5
1ED
330
70
100
AcDbEntity
  8
Layer 1
 62
     7
370
     5
100
AcDbLine
 10
11.49814954357454
 20
-5.051655288779443
 30
0.0
 11
11.49226932113173
 21
-5.056444154179416
 31
0.0
  0
SPLINE
  5
1EE
330
70
100
AcDbEntity
  8
Layer 1
 62
     7
370
     5
100
AcDbSpline
210
0.0
220
0.0
230
1.0
 70
     8
 71
     3
 72
    20
 73
    16
 74
     0
 42
0.0000000001
 43
0.0000000001
 40
0.0
 40
0.0
 40
0.0
 40
0.0
 40
1.0
 40
1.0
 40
1.0
 40
2.0
 40
2.0
 40
2.0
 40
3.0
 40
3.0
 40
3.0
 40
4.0
 40
4.0
 40
4.0
 40
5.0
 40
5.0
 40
5.0
 40
5.0
 10
11.52051890378835
 20
-5.005922359290277
 30
0.0
 10
11.32255856268951
 20
-5.006299174477665
 30
0.0
 10
11.01456088574134
 20
-5.006542682086723
 30
0.0
 10
10.81660023508469
 20
-5.00669944131414
 30
0.0
 10
10.618639580548
 20
-5.0068562005446
 30
0.0
 10
10.42067887437983
 20
-5.006926211390021
 30
0.0
 10
10.2227181658769
 20
-5.006921717751033
 30
0.0
 10
10.02475745650292
 20
-5.00691722411203
 30
0.0
 10
9.826796744794211
 20
-5.00683822598805
 30
0.0
 10
9.628836101656499
 20
-5.00667996767389
 30
0.0
 10
9.52985577814757
 20
-5.006600838515206
 30
0.0
 10
9.430875471781405
 20
-5.00650189430827
 30
0.0
 10
9.331895190435741
 20
-5.006380197801338
 30
0.0
 10
9.232914908931723
 20
-5.006258501294206
 30
0.0
 10
9.023897413421952
 20
-5.006114052487027
 30
0.0
 10
8.924917227262552
 20
-5.005931590398845
 30
0.0
  0
SPLINE
  5
1EF
330
70
100
AcDbEntity
  8
Layer 1
 62
     7
370
     5
100
AcDbSpline
210
0.0
220
0.0
230
1.0
 70
     8
 71
     3
 72
    14
 73
    10
 74
     0
 42
0.0000000001
 43
0.0000000001
 40
0.0
 40
0.0
 40
0.0
 40
0.0
 40
1.0
 40
1.0
 40
1.0
 40
2.0
 40
2.0
 40
2.0
 40
3.0
 40
3.0
 40
3.0
 40
3.0
 10
27.79678240154244
 20
-15.90813106356927
 30
0.0
 10
27.78843544061902
 20
-15.91258999458874
 30
0.0
 10
27.77981430200112
 20
-15.91656159997928
 30
0.0
 10
27.77099501969287
 20
-15.9200052095862
 30
0.0
 10
27.76216762791857
 20
-15.92345198564531
 30
0.0
 10
27.75314172789419
 20
-15.92636979447388
 30
0.0
 10
27.74395761334649
 20
-15.92874854847567
 30
0.0
 10
27.72564732546337
 20
-15.9334910492741
 30
0.0
 10
27.70670816579784
 20
-15.9360909125766
 30
0.0
 10
27.68782681975058
 20
-15.93642048772722
 30
0.0
  0
LINE
  5
1F0
330
70
100
AcDbEntity
  8
Layer 1
 62
     7
370
     5
100
AcDbLine
 10
27.95087122288113
 20
-17.2412473238572
 30
0.0
 11
27.95087122288113
 21
-17.2412473238572
 31
0.0
  0
SPLINE
  5
1F1
330
70
100
AcDbEntity
  8
Layer 1
 62
     7
370
     5
100
AcDbSpline
210
0.0
220
0.0
230
1.0
 70
     8
 71
     3
 72
    11
 73
     7
 74
     0
 42
0.0000000001
 43
0.0000000001
 40
0.0
 40
0.0
 40
0.0
 40
0.0
 40
1.0
 40
1.0
 40
1.0
 40
2.0
 40
2.0
 40
2.0
 40
2.0
 10
26.22051320141509
 20
-16.26562287667384
 30
0.0
 10
26.23015773617413
 20
-16.26545993357909
 30
0.0
 10
26.2398021239871
 20
-16.26529338706084
 30
0.0
 10
26.24944644397498
 20
-16.2651130855163
 30
0.0
 10
26.27846633447709
 20
-16.26457055570747
 30
0.0
 10
26.30748561087974
 20
-16.26390348564647
 30
0.0
 10
26.33649081618627
 20
-16.26284046363998
 30
0.0
  0
SPLINE
  5
1F2
330
70
100
AcDbEntity
  8
Layer 1
 62
     7
370
     5
100
AcDbSpline
210
0.0
220
0.0
230
1.0
 70
     8
 71
     3
 72
    11
 73
     7
 74
     0
 42
0.0000000001
 43
0.0000000001
 40
0.0
 40
0.0
 40
0.0
 40
0.0
 40
1.0
 40
1.0
 40
1.0
 40
2.0
 40
2.0
 40
2.0
 40
2.0
 10
26.3270201692273
 20
-18.21933459241386
 30
0.0
 10
26.31812766381828
 20
-18.21902689416604
 30
0.0
 10
26.30923397327817
 20
-18.21875286384829
 30
0.0
 10
26.30033953728975
 20
-18.21850642873129
 30
0.0
 10
26.27373532386521
 20
-18.21776931482539
 30
0.0
 10
26.24712444112068
 20
-18.2172790875508
 30
0.0
 10
26.22051320091481
 20
-18.21687177094046
 30
0.0
  0
LINE
  5
1F3
330
70
100
AcDbEntity
  8
Layer 1
 62
     7
370
     5
100
AcDbLine
 10
26.32489932494253
 20
-18.21926087052687
 30
0.0
 11
26.26721179379428
 21
-18.21770449544083
 31
0.0
  0
LINE
  5
1F4
330
70
100
AcDbEntity
  8
Layer 1
 62
     7
370
     5
100
AcDbLine
 10
27.1454655089785
 20
-18.51667880195623
 30
0.0
 11
27.14067664477923
 21
-18.51079858101446
 31
0.0
  0
LINE
  5
1F5
330
70
100
AcDbEntity
  8
Layer 1
 62
     7
370
     5
100
AcDbLine
 10
27.19104518167283
 20
-15.94367922491329
 30
0.0
 11
27.19119843846761
 21
-15.94342987511246
 31
0.0
  0
LINE
  5
1F6
330
70
100
AcDbEntity
  8
Layer 1
 62
     7
370
     5
100
AcDbLine
 10
27.14066944857318
 20
-15.97172036695365
 30
0.0
 11
27.14546743951415
 21
-15.96582476356603
 31
0.0
  0
SPLINE
  5
1F7
330
70
100
AcDbEntity
  8
Layer 1
 62
     7
370
     5
100
AcDbSpline
210
0.0
220
0.0
230
1.0
 70
     8
 71
     3
 72
    20
 73
    16
 74
     0
 42
0.0000000001
 43
0.0000000001
 40
0.0
 40
0.0
 40
0.0
 40
0.0
 40
1.0
 40
1.0
 40
1.0
 40
2.0
 40
2.0
 40
2.0
 40
3.0
 40
3.0
 40
3.0
 40
4.0
 40
4.0
 40
4.0
 40
5.0
 40
5.0
 40
5.0
 40
5.0
 10
27.19119843846761
 20
-18.53905083968382
 30
0.0
 10
27.1908216232802
 20
-18.34109049858499
 30
0.0
 10
27.19057811562116
 20
-18.03309014407303
 30
0.0
 10
27.19042135638536
 20
-17.8351294933914
 30
0.0
 10
27.19026459714663
 20
-17.63716883882971
 30
0.0
 10
27.1901945863346
 20
-17.43920813266143
 30
0.0
 10
27.19019907997017
 20
-17.24124742415865
 30
0.0
 10
27.19020357360589
 20
-17.04328671478459
 30
0.0
 10
27.19028257168988
 20
-16.84532600307585
 30
0.0
 10
27.19044083002407
 20
-16.64736535993812
 30
0.0
 10
27.19051995919267
 20
-16.54838503642923
 30
0.0
 10
27.19061890342465
 20
-16.44940473006305
 30
0.0
 10
27.19074059991908
 20
-16.35042444871737
 30
0.0
 10
27.1908622964137
 20
-16.2514441672133
 30
0.0
 10
27.19100674517085
 20
-16.04272653723799
 30
0.0
 10
27.1911892073591
 20
-15.94374635107859
 30
0.0
  0
SPLINE
  5
1F8
330
70
100
AcDbEntity
  8
Layer 1
 62
     7
370
     5
100
AcDbSpline
210
0.0
220
0.0
230
1.0
 70
     8
 71
     3
 72
     8
 73
     4
 74
     0
 42
0.0000000001
 43
0.0000000001
 40
0.0
 40
0.0
 40
0.0
 40
0.0
 40
1.0
 40
1.0
 40
1.0
 40
1.0
 10
13.60490116962895
 20
-20.74348899698617
 30
0.0
 10
13.67121360088625
 20
-20.74348899698291
 30
0.0
 10
13.72495973870655
 20
-20.68974285915831
 30
0.0
 10
13.7249597387045
 20
-20.62343042790101
 30
0.0
  0
SPLINE
  5
1F9
330
70
100
AcDbEntity
  8
Layer 1
 62
     7
370
     5
100
AcDbSpline
210
0.0
220
0.0
230
1.0
 70
     8
 71
     3
 72
     8
 73
     4
 74
     0
 42
0.0000000001
 43
0.0000000001
 40
0.0
 40
0.0
 40
0.0
 40
0.0
 40
1.0
 40
1.0
 40
1.0
 40
1.0
 10
13.7249597387045
 20
-13.85906421980247
 30
0.0
 10
13.72495973870059
 20
-13.79275178854985
 30
0.0
 10
13.67121360088275
 20
-13.73900565073205
 30
0.0
 10
13.60490116963019
 20
-13.73900565072815
 30
0.0
  0
SPLINE
  5
1FA
330
70
100
AcDbEntity
  8
Layer 1
 62
     7
370
     5
100
AcDbSpline
210
0.0
220
0.0
230
1.0
 70
     8
 71
     3
 72
     8
 73
     4
 74
     0
 42
0.0000000001
 43
0.0000000001
 40
0.0
 40
0.0
 40
0.0
 40
0.0
 40
1.0
 40
1.0
 40
1.0
 40
1.0
 10
6.840534961420719
 20
-13.73900565072815
 30
0.0
 10
6.774222530168167
 20
-13.73900565073205
 30
0.0
 10
6.720476392350342
 20
-13.79275178854985
 30
0.0
 10
6.720476392346451
 20
-13.85906421980247
 30
0.0
  0
SPLINE
  5
1FB
330
70
100
AcDbEntity
  8
Layer 1
 62
     7
370
     5
100
AcDbSpline
210
0.0
220
0.0
230
1.0
 70
     8
 71
     3
 72
     8
 73
     4
 74
     0
 42
0.0000000001
 43
0.0000000001
 40
0.0
 40
0.0
 40
0.0
 40
0.0
 40
1.0
 40
1.0
 40
1.0
 40
1.0
 10
6.720476392346451
 20
-20.62343042791066
 30
0.0
 10
6.720476392349647
 20
-20.68974285916781
 30
0.0
 10
6.774222530174281
 20
-20.74348899698824
 30
0.0
 10
6.840534961431544
 20
-20.74348899698617
 30
0.0
  0
LINE
  5
1FC
330
70
100
AcDbEntity
  8
Layer 1
 62
     7
370
     5
100
AcDbLine
 10
10.0481391140582
 20
-21.46342158109941
 30
0.0
 11
10.04813311721982
 21
-18.2431904684991
 31
0.0
  0
LINE
  5
1FD
330
70
100
AcDbEntity
  8
Layer 1
 62
     7
370
     5
100
AcDbLine
 10
10.04813454193173
 20
-18.2436061931912
 30
0.0
 11
10.0481391140582
 21
-18.24357863265059
 31
0.0
  0
LINE
  5
1FE
330
70
100
AcDbEntity
  8
Layer 1
 62
     7
370
     5
100
AcDbLine
 10
10.39729701699271
 20
-18.24357862734721
 30
0.0
 11
10.39729701699271
 21
-21.46342158109941
 31
0.0
  0
LWPOLYLINE
  5
1FF
330
70
100
AcDbEntity
  8
Layer 1
 62
     7
370
     5
100
AcDbPolyline
 90
       61
 70
     0
 43
0.0
 10
10.39730157300888
 20
-18.24360605950568
 10
10.39731324558011
 20
-18.24242249954671
 10
10.39737951679819
 20
-18.24054846763857
 10
10.39750335366219
 20
-18.23868901316114
 10
10.39768334556932
 20
-18.23684771380415
 10
10.39791852910278
 20
-18.23502308751906
 10
10.39820749986376
 20
-18.23321808779633
 10
10.39854860039132
 20
-18.23143581802226
 10
10.39894104608326
 20
-18.22967467346989
 10
10.39938326993667
 20
-18.22793718365814
 10
10.39987347119886
 20
-18.22622600648815
 10
10.40041106879793
 20
-18.22453949440564
 10
10.40099442838776
 20
-18.22287975696056
 10
10.40162167346737
 20
-18.22124908982262
 10
10.40229237666308
 20
-18.21964598772807
 10
10.40300498828302
 20
-18.21807198105668
 10
10.40375750754662
 20
-18.21652926451293
 10
10.40454921639419
 20
-18.21501725122145
 10
10.40537835169723
 20
-18.2135374528498
 10
10.406242976516
 20
-18.21209142629436
 10
10.40714238269719
 20
-18.21067859988913
 10
10.40807475057612
 20
-18.20930022143311
 10
10.40903814791601
 20
-18.2079575008005
 10
10.41003194141154
 20
-18.20664979147742
 10
10.41105433241143
 20
-18.2053780505767
 10
10.41210339948578
 20
-18.20414322790609
 10
10.41317854525231
 20
-18.20294467695185
 10
10.41427800618213
 20
-18.20178310916943
 10
10.41539990697508
 20
-18.20065922520714
 10
10.41654367266298
 20
-18.19957239226005
 10
10.41770759385182
 20
-18.1985231014425
 10
10.41888985708079
 20
-18.19751183296178
 10
10.420089887582
 20
-18.19653797912901
 10
10.42130604610628
 20
-18.195601831831
 10
10.42253658523513
 20
-18.19470367905203
 10
10.42378088957464
 20
-18.19384295402938
 10
10.42503736800639
 20
-18.1930197870465
 10
10.42630436427028
 20
-18.19223427686648
 10
10.42758124976393
 20
-18.19148586002875
 10
10.42886679610116
 20
-18.19077435391639
 10
10.43015911577374
 20
-18.19009988551066
 10
10.43145659915146
 20
-18.18946234504142
 10
10.43276094121922
 20
-18.18886007794946
 10
10.43406738753383
 20
-18.1882944417037
 10
10.43536440481317
 20
-18.18776902330018
 10
10.43665072644664
 20
-18.18728254822293
 10
10.43792427950733
 20
-18.18683404114788
 10
10.43917192848761
 20
-18.18642594964156
 10
10.44039338500298
 20
-18.18605587386787
 10
10.4415855099441
 20
-18.18572234478657
 10
10.44273042006457
 20
-18.18542743312297
 10
10.4438309690909
 20
-18.1851672136648
 10
10.44488036637661
 20
-18.1849402383852
 10
10.44584597553225
 20
-18.18474964048952
 10
10.44672017948227
 20
-18.18459228186927
 10
10.44750659143948
 20
-18.1844632484791
 10
10.44819032707686
 20
-18.18436093709293
 10
10.44875836846203
 20
-18.18428317902238
 10
10.44922194858487
 20
-18.18422484688588
 10
10.44960451895597
 20
-18.1841804258534
 10
10.44990579399249
 20
-18.1841480331198
  0
LINE
  5
200
330
70
100
AcDbEntity
  8
Layer 1
 62
     7
370
     5
100
AcDbLine
 10
10.39729701699271
 20
-18.24357862724708
 30
0.0
 11
10.3973015891192
 21
-18.24360619659336
 31
0.0
  0
LINE
  5
201
330
70
100
AcDbEntity
  8
Layer 1
 62
     7
370
     5
100
AcDbLine
 10
10.44990579399249
 20
-18.1841480331198
 30
0.0
 11
10.4502948288013
 21
-18.18411014236716
 31
0.0
  0
LINE
  5
202
330
70
100
AcDbEntity
  8
Layer 1
 62
     7
370
     5
100
AcDbLine
 10
10.4502948288013
 20
-18.18411014236716
 30
0.0
 11
10.45038403079661
 21
-18.18410222309831
 31
0.0
  0
LWPOLYLINE
  5
203
330
70
100
AcDbEntity
  8
Layer 1
 62
     7
370
     5
100
AcDbPolyline
 90
       68
 70
     0
 43
0.0
 10
10.00930106426158
 20
-18.18747348513559
 10
10.01015187583893
 20
-18.18780046972799
 10
10.01100546549442
 20
-18.18814369611623
 10
10.01186132930557
 20
-18.1885033680307
 10
10.01271904260047
 20
-18.18887971511849
 10
10.0135750287899
 20
-18.1892714901812
 10
10.01442765793063
 20
-18.18967814446776
 10
10.01527771412447
 20
-18.19010024514088
 10
10.01612528862988
 20
-18.19053807768349
 10
10.0169699482696
 20
-18.1909916712142
 10
10.01781126126719
 20
-18.19146104384466
 10
10.01864931177661
 20
-18.19194650657394
 10
10.01948375097448
 20
-18.19244813885274
 10
10.02031403131045
 20
-18.192965890449
 10
10.02113992413811
 20
-18.19349989985138
 10
10.02196095585431
 20
-18.1940501466467
 10
10.02277668067374
 20
-18.19461661492505
 10
10.02358689806806
 20
-18.19519945618319
 10
10.02439112382731
 20
-18.19579861918828
 10
10.02518889565558
 20
-18.19641405380838
 10
10.02598002673335
 20
-18.1970459193453
 10
10.02676402034265
 20
-18.19769413074476
 10
10.02754039927804
 20
-18.19835860185147
 10
10.02830898312403
 20
-18.19903949717089
 10
10.0290692621544
 20
-18.19973669452467
 10
10.02982074605526
 20
-18.20045006973337
 10
10.03056325591214
 20
-18.20117979100471
 10
10.03129627029124
 20
-18.2019256955344
 10
10.03201928727137
 20
-18.20268761841693
 10
10.03273212703738
 20
-18.20346573016142
 10
10.03343425734855
 20
-18.20425982423568
 10
10.03412516737802
 20
-18.20506969210631
 10
10.03480467360829
 20
-18.20589550518288
 10
10.03547223619381
 20
-18.20673700970309
 10
10.03612733720306
 20
-18.20759395030346
 10
10.03676978851562
 20
-18.20846649779324
 10
10.03739904488254
 20
-18.2093543478778
 10
10.03801458517028
 20
-18.21025719496133
 10
10.03861621485423
 20
-18.21117520715163
 10
10.03920338758474
 20
-18.21210802601932
 10
10.03977558242844
 20
-18.21305529293456
 10
10.0403325982565
 20
-18.21401717070193
 10
10.04087390512974
 20
-18.21499326897123
 10
10.04139897270878
 20
-18.21598314756091
 10
10.04190755513613
 20
-18.21698688552161
 10
10.04239910296022
 20
-18.21800396502175
 10
10.04287313627384
 20
-18.21903395018231
 10
10.04332946465508
 20
-18.2200770297243
 10
10.04376753515003
 20
-18.22113257884767
 10
10.04418689957181
 20
-18.2222001463636
 10
10.04458744975123
 20
-18.22328016685017
 10
10.04496866725636
 20
-18.22437203011701
 10
10.04533007398126
 20
-18.22547514658671
 10
10.04567152783498
 20
-18.22658996164432
 10
10.0459925197917
 20
-18.22771579645518
 10
10.04629258195192
 20
-18.22885199299834
 10
10.04657153620164
 20
-18.22999899595834
 10
10.04682889032581
 20
-18.23115605145262
 10
10.04706419523694
 20
-18.23232242811316
 10
10.04727723709826
 20
-18.23349856021781
 10
10.04746755031172
 20
-18.23468361353262
 10
10.04763471510854
 20
-18.23587677903975
 10
10.04777848463081
 20
-18.2370784706043
 10
10.0478984320053
 20
-18.23828777023835
 10
10.04799417828946
 20
-18.23950378757227
 10
10.04806544930774
 20
-18.24072690715201
 10
10.04811187022028
 20
-18.24195612503518
 10
10.04813311721982
 20
-18.2431904684991
  0
LINE
  5
204
330
70
100
AcDbEntity
  8
Layer 1
 62
     7
370
     5
100
AcDbLine
 10
24.30698090984257
 20
-18.2433754882243
 30
0.0
 11
24.30698090984257
 21
-21.46342158109941
 31
0.0
  0
LINE
  5
205
330
70
100
AcDbEntity
  8
Layer 1
 62
     7
370
     5
100
AcDbLine
 10
24.45707698154961
 20
-18.17099727613986
 30
0.0
 11
24.45707698154961
 21
-18.17651988808757
 31
0.0
  0
LWPOLYLINE
  5
206
330
70
100
AcDbEntity
  8
Layer 1
 62
     7
370
     5
100
AcDbPolyline
 90
       41
 70
     0
 43
0.0
 10
24.30698090994267
 20
-18.24337168348903
 10
24.3069966771347
 20
-18.24199587477778
 10
24.3070984939044
 20
-18.23961613638314
 10
24.30729276505116
 20
-18.23726051492498
 10
24.30757661883689
 20
-18.23493542610976
 10
24.3079464730688
 20
-18.2326478523068
 10
24.3084004738602
 20
-18.23039368108369
 10
24.30893534071139
 20
-18.22817812777877
 10
24.30954715341326
 20
-18.22600685661726
 10
24.31023474411811
 20
-18.22387571754322
 10
24.31099480250719
 20
-18.2217886568822
 10
24.31182326748126
 20
-18.21975047520717
 10
24.31271928329238
 20
-18.21775795635947
 10
24.31367961336905
 20
-18.21581404882618
 10
24.31470010645413
 20
-18.21392279299364
 10
24.31577957648847
 20
-18.21208247086227
 10
24.31691438474298
 20
-18.21029586721422
 10
24.31810064292899
 20
-18.20856558751741
 10
24.31933758685737
 20
-18.2068896360944
 10
24.32062171228507
 20
-18.20527004814784
 10
24.32194918896054
 20
-18.20370885457757
 10
24.3233194768381
 20
-18.20220418018354
 10
24.32472919495364
 20
-18.20075752392497
 10
24.32617468326468
 20
-18.19937035174035
 10
24.32765556993293
 20
-18.1980409493323
 10
24.3291686239906
 20
-18.19677037317706
 10
24.33071037661724
 20
-18.19555962351481
 10
24.33228056334365
 20
-18.19440716396217
 10
24.33387576538161
 20
-18.19331391060558
 10
24.33549303694556
 20
-18.19228022707774
 10
24.33713322227585
 20
-18.19130414281734
 10
24.3387942668575
 20
-18.19038570265315
 10
24.34047228690462
 20
-18.18952580906266
 10
24.34216559673817
 20
-18.1887240380746
 10
24.34387919775953
 20
-18.18797719294295
 10
24.34560233908729
 20
-18.18728905788958
 10
24.34730928004579
 20
-18.1866673179337
 10
24.34899664907688
 20
-18.1861094468582
 10
24.350661769067
 20
-18.18561267048747
 10
24.35227939585831
 20
-18.18517993470712
 10
24.35347941695353
 20
-18.18489417730292
  0
SPLINE
  5
207
330
70
100
AcDbEntity
  8
Layer 1
 62
     7
370
     5
100
AcDbSpline
210
0.0
220
0.0
230
1.0
 70
     8
 71
     3
 72
     8
 73
     4
 74
     0
 42
0.0000000001
 43
0.0000000001
 40
0.0
 40
0.0
 40
0.0
 40
0.0
 40
1.0
 40
1.0
 40
1.0
 40
1.0
 10
10.44258996651448
 20
-18.18539186412772
 30
0.0
 10
10.44108938409739
 20
-18.18577079463453
 30
0.0
 10
10.43960417296034
 20
-18.18620818482822
 30
0.0
 10
10.43813772847056
 20
-18.18670303478325
 30
0.0
  0
SPLINE
  5
208
330
70
100
AcDbEntity
  8
Layer 1
 62
     7
370
     5
100
AcDbSpline
210
0.0
220
0.0
230
1.0
 70
     8
 71
     3
 72
     8
 73
     4
 74
     0
 42
0.0000000001
 43
0.0000000001
 40
0.0
 40
0.0
 40
0.0
 40
0.0
 40
1.0
 40
1.0
 40
1.0
 40
1.0
 10
24.34752446827232
 20
-18.18603311796391
 30
0.0
 10
24.34562106782133
 20
-18.18668561128586
 30
0.0
 10
24.34375255283784
 20
-18.18743574829982
 30
0.0
 10
24.3419263549985
 20
-18.18828054547293
 30
0.0
  0
SPLINE
  5
209
330
70
100
AcDbEntity
  8
Layer 1
 62
     7
370
     5
100
AcDbSpline
210
0.0
220
0.0
230
1.0
 70
     8
 71
     3
 72
    11
 73
     7
 74
     0
 42
0.0000000001
 43
0.0000000001
 40
0.0
 40
0.0
 40
0.0
 40
0.0
 40
1.0
 40
1.0
 40
1.0
 40
2.0
 40
2.0
 40
2.0
 40
2.0
 10
24.44689594092536
 20
-18.18652476884414
 30
0.0
 10
24.45242148399105
 20
-18.18662121755735
 30
0.0
 10
24.45697900881244
 20
-18.18222006699706
 30
0.0
 10
24.45707545752569
 20
-18.17669452393134
 30
0.0
 10
24.45707647352232
 20
-18.1766363175249
 30
0.0
 10
24.45707698154961
 20
-18.17657810336042
 30
0.0
 10
24.45707698154961
 20
-18.17651988808757
 30
0.0
  0
LINE
  5
20A
330
70
100
AcDbEntity
  8
Layer 1
 62
     7
370
     5
100
AcDbLine
 10
10.0481372704782
 20
-19.89294459068067
 30
0.0
 11
10.0481372704782
 21
-19.89294459068067
 31
0.0
  0
LINE
  5
20B
330
70
100
AcDbEntity
  8
Layer 1
 62
     7
370
     5
100
AcDbLine
 10
10.04813712798698
 20
-19.79288054287601
 30
0.0
 11
10.04813712798698
 21
-19.79288054287601
 31
0.0
  0
LINE
  5
20C
330
70
100
AcDbEntity
  8
Layer 1
 62
     7
370
     5
100
AcDbLine
 10
27.93047554575891
 20
-14.83971017654527
 30
0.0
 11
27.93137254800146
 21
-14.83971017654527
 31
0.0
  0
LINE
  5
20D
330
70
100
AcDbEntity
  8
Layer 1
 62
     7
370
     5
100
AcDbLine
 10
27.93597956580652
 20
-14.5695372474727
 30
0.0
 11
27.93509009238293
 21
-14.5695372474727
 31
0.0
  0
LINE
  5
20E
330
70
100
AcDbEntity
  8
Layer 1
 62
     7
370
     5
100
AcDbLine
 10
27.93137254800146
 20
-14.83971017654527
 30
0.0
 11
27.93597956580652
 21
-14.5695372474727
 31
0.0
  0
LINE
  5
20F
330
70
100
AcDbEntity
  8
Layer 1
 62
     7
370
     5
100
AcDbLine
 10
27.91879813221903
 20
-18.7834789437153
 30
0.0
 11
27.95087122288113
 21
-20.68972215367914
 31
0.0
  0
LWPOLYLINE
  5
210
330
70
100
AcDbEntity
  8
Layer 1
 62
     7
370
     5
100
AcDbPolyline
 90
        3
 70
     0
 43
0.0
 10
27.92128268850423
 20
-18.72958169945872
 10
27.91879813221903
 20
-15.69901570399899
 10
27.95087122288113
 20
-13.79277249403508
  0
ENDSEC
  0
SECTION
  2
OBJECTS
  0
DICTIONARY
  5
C
330
0
100
AcDbDictionary
281
     1
  3
ACAD_COLOR
350
63
  3
ACAD_DETAILVIEWSTYLE
350
6A
  3
ACAD_GROUP
350
D
  3
ACAD_LAYOUT
350
62
  3
ACAD_MATERIAL
350
10
  3
ACAD_MLEADERSTYLE
350
66
  3
ACAD_MLINESTYLE
350
5F
  3
ACAD_PLOTSETTINGS
350
61
  3
ACAD_PLOTSTYLENAME
350
E
  3
ACAD_SCALELIST
350
42
  3
ACAD_SECTIONVIEWSTYLE
350
68
  3
ACAD_TABLESTYLE
350
64
  3
ACAD_VISUALSTYLE
350
29
  3
ACDB_RECOMPOSE_DATA
350
21E
  3
AcDbVariableDictionary
350
211
  0
DICTIONARY
  5
63
102
{ACAD_REACTORS
330
C
102
}
330
C
100
AcDbDictionary
281
     1
  0
DICTIONARY
  5
6A
102
{ACAD_REACTORS
330
C
102
}
330
C
100
AcDbDictionary
281
     1
  3
Imperial24
350
6B
  0
DICTIONARY
  5
D
102
{ACAD_REACTORS
330
C
102
}
330
C
100
AcDbDictionary
281
     1
  0
DICTIONARY
  5
62
102
{ACAD_REACTORS
330
C
102
}
330
C
100
AcDbDictionary
281
     1
  3
Layout1
350
6F
  3
Layout2
350
77
  3
Model
350
73
  0
DICTIONARY
  5
10
102
{ACAD_REACTORS
330
C
102
}
330
C
100
AcDbDictionary
281
     1
  3
ByBlock
350
19
  3
ByLayer
350
11
  3
Global
350
21
  0
DICTIONARY
  5
66
102
{ACAD_REACTORS
330
C
102
}
330
C
100
AcDbDictionary
281
     1
  3
Standard
350
67
  0
DICTIONARY
  5
5F
102
{ACAD_REACTORS
330
C
102
}
330
C
100
AcDbDictionary
281
     1
  3
Standard
350
60
  0
DICTIONARY
  5
61
102
{ACAD_REACTORS
330
C
102
}
330
C
100
AcDbDictionary
281
     1
  0
ACDBDICTIONARYWDFLT
  5
E
102
{ACAD_REACTORS
330
C
102
}
330
C
100
AcDbDictionary
281
     1
  3
Normal
350
F
100
AcDbDictionaryWithDefault
340
F
  0
DICTIONARY
  5
42
102
{ACAD_REACTORS
330
C
102
}
330
C
100
AcDbDictionary
281
     1
  3
A0
350
43
  3
A1
350
44
  3
A2
350
45
  3
A3
350
46
  3
A4
350
47
  3
A5
350
48
  3
A6
350
49
  3
A7
350
4A
  3
A8
350
4B
  3
A9
350
4C
  3
B0
350
4D
  3
B1
350
4E
  3
B2
350
4F
  3
B3
350
50
  3
B4
350
51
  3
B5
350
52
  3
B6
350
53
  0
DICTIONARY
  5
68
102
{ACAD_REACTORS
330
C
102
}
330
C
100
AcDbDictionary
281
     1
  3
Imperial24
350
69
  0
DICTIONARY
  5
64
102
{ACAD_REACTORS
330
C
102
}
330
C
100
AcDbDictionary
281
     1
  3
Standard
350
65
  0
DICTIONARY
  5
29
102
{ACAD_REACTORS
330
C
102
}
330
C
100
AcDbDictionary
281
     1
  3
2dWireframe
350
2F
  3
Basic
350
2E
  3
Brighten
350
35
  3
ColorChange
350
39
  3
Conceptual
350
32
  3
Dim
350
34
  3
EdgeColorOff
350
41
  3
Facepattern
350
38
  3
Flat
350
2A
  3
FlatWithEdges
350
2B
  3
Gouraud
350
2C
  3
GouraudWithEdges
350
2D
  3
Hidden
350
31
  3
JitterOff
350
3F
  3
Linepattern
350
37
  3
OverhangOff
350
40
  3
Realistic
350
33
  3
Shaded
350
3E
  3
Shaded with edges
350
3D
  3
Shades of Gray
350
3A
  3
Sketchy
350
3B
  3
Thicken
350
36
  3
Wireframe
350
30
  3
X-Ray
350
3C
  0
XRECORD
  5
21E
102
{ACAD_REACTORS
330
C
102
}
330
C
100
AcDbXrecord
280
     1
 90
        1
330
65
  0
DICTIONARY
  5
211
102
{ACAD_REACTORS
330
C
102
}
330
C
100
AcDbDictionary
281
     1
  3
CANNOSCALE
350
217
  3
CMLEADERSTYLE
350
213
  3
CTABLESTYLE
350
212
  3
CVIEWDETAILSTYLE
350
214
  3
CVIEWSECTIONSTYLE
350
215
  3
LAYEREVAL
350
219
  3
LAYERNOTIFY
350
21A
  3
LIGHTINGUNITS
350
218
  3
MSLTSCALE
350
216
  3
XCLIPFRAME
350
21B
  0
ACDBDETAILVIEWSTYLE
  5
6B
102
{ACAD_XDICTIONARY
360
258
102
}
102
{ACAD_REACTORS
330
6A
102
}
330
6A
100
AcDbModelDocViewStyle
 70
     0
  3
Imperial24
290
     0
100
AcDbDetailViewStyle
 70
     0
 71
     0
 90
        3
 71
     1
340
55
 62
   256
 40
0.24
340
0
 62
   256
 40
0.24
300

 40
0.36
280
     3
 71
     2
340
5D
 90
       25
 62
   256
 71
     3
340
55
 62
   256
 40
0.24
 90
        1
 40
0.75
 90
        1
300
%<\AcVar ViewType \f "%tc1">% %<\AcVar ViewDetailId>%\PSCALE %<\AcVar ViewScale \f "%sn">%
 71
     4
340
5D
 90
       25
 62
   256
340
5D
 90
       25
 62
   256
280
     0
  0
LAYOUT
  5
6F
102
{ACAD_REACTORS
330
62
102
}
330
62
100
AcDbPlotSettings
  1

  2

  4

  6

 40
0.0
 41
0.0
 42
0.0
 43
0.0
 44
0.0
 45
0.0
 46
0.0
 47
0.0
 48
0.0
 49
0.0
140
0.0
141
0.0
142
1.0
143
1.0
 70
   688
 72
     0
 73
     0
 74
     5
  7

 75
    16
147
1.0
 76
     0
 77
     2
 78
   300
148
0.0
149
0.0
100
AcDbLayout
  1
Layout1
 70
     1
 71
     1
 10
0.0
 20
0.0
 11
12.0
 21
9.0
 12
0.0
 22
0.0
 32
0.0
 14
0.0
 24
0.0
 34
0.0
 15
0.0
 25
0.0
 35
0.0
146
0.0
 13
0.0
 23
0.0
 33
0.0
 16
1.0
 26
0.0
 36
0.0
 17
0.0
 27
1.0
 37
0.0
 76
     0
330
6C
  0
LAYOUT
  5
77
102
{ACAD_REACTORS
330
62
102
}
330
62
100
AcDbPlotSettings
  1

  2

  4

  6

 40
0.0
 41
0.0
 42
0.0
 43
0.0
 44
0.0
 45
0.0
 46
0.0
 47
0.0
 48
0.0
 49
0.0
140
0.0
141
0.0
142
1.0
143
1.0
 70
   688
 72
     0
 73
     0
 74
     5
  7

 75
    16
147
1.0
 76
     0
 77
     2
 78
   300
148
0.0
149
0.0
100
AcDbLayout
  1
Layout2
 70
     1
 71
     2
 10
0.0
 20
0.0
 11
12.0
 21
9.0
 12
0.0
 22
0.0
 32
0.0
 14
0.0
 24
0.0
 34
0.0
 15
0.0
 25
0.0
 35
0.0
146
0.0
 13
0.0
 23
0.0
 33
0.0
 16
1.0
 26
0.0
 36
0.0
 17
0.0
 27
1.0
 37
0.0
 76
     0
330
74
  0
LAYOUT
  5
73
102
{ACAD_REACTORS
330
62
102
}
330
62
100
AcDbPlotSettings
  1

  2

  4

  6

 40
0.0
 41
0.0
 42
0.0
 43
0.0
 44
0.0
 45
0.0
 46
0.0
 47
0.0
 48
0.0
 49
0.0
140
0.0
141
0.0
142
1.0
143
1.0
 70
  1712
 72
     0
 73
     0
 74
     0
  7

 75
     0
147
1.0
 76
     0
 77
     2
 78
   300
148
0.0
149
0.0
100
AcDbLayout
  1
Model
 70
     1
 71
     0
 10
0.0
 20
0.0
 11
12.0
 21
9.0
 12
0.0
 22
0.0
 32
0.0
 14
0.0
 24
0.0
 34
0.0
 15
0.0
 25
0.0
 35
0.0
146
0.0
 13
0.0
 23
0.0
 33
0.0
 16
1.0
 26
0.0
 36
0.0
 17
0.0
 27
1.0
 37
0.0
 76
     0
330
70
  0
MATERIAL
  5
19
102
{ACAD_XDICTIONARY
360
1A
102
}
102
{ACAD_REACTORS
330
10
102
}
330
10
100
AcDbMaterial
  1
ByBlock
 72
     0
 43
0.0208333333333333
 43
0.0
 43
0.0
 43
0.0
 43
0.0
 43
0.0208333333333333
 43
0.0
 43
0.0
 43
0.0
 43
0.0
 43
1.0
 43
0.0
 43
0.0
 43
0.0
 43
0.0
 43
1.0
 77
     0
 47
0.0208333333333333
 47
0.0
 47
0.0
 47
0.0
 47
0.0
 47
0.0208333333333333
 47
0.0
 47
0.0
 47
0.0
 47
0.0
 47
1.0
 47
0.0
 47
0.0
 47
0.0
 47
0.0
 47
1.0
171
     0
 49
0.0208333333333333
 49
0.0
 49
0.0
 49
0.0
 49
0.0
 49
0.0208333333333333
 49
0.0
 49
0.0
 49
0.0
 49
0.0
 49
1.0
 49
0.0
 49
0.0
 49
0.0
 49
0.0
 49
1.0
175
     0
142
0.0208333333333333
142
0.0
142
0.0
142
0.0
142
0.0
142
0.0208333333333333
142
0.0
142
0.0
142
0.0
142
0.0
142
1.0
142
0.0
142
0.0
142
0.0
142
0.0
142
1.0
179
     0
144
0.0208333333333333
144
0.0
144
0.0
144
0.0
144
0.0
144
0.0208333333333333
144
0.0
144
0.0
144
0.0
144
0.0
144
1.0
144
0.0
144
0.0
144
0.0
144
0.0
144
1.0
147
0.0208333333333333
147
0.0
147
0.0
147
0.0
147
0.0
147
0.0208333333333333
147
0.0
147
0.0
147
0.0
147
0.0
147
1.0
147
0.0
147
0.0
147
0.0
147
0.0
147
1.0
  0
MATERIAL
  5
11
102
{ACAD_XDICTIONARY
360
12
102
}
102
{ACAD_REACTORS
330
10
102
}
330
10
100
AcDbMaterial
  1
ByLayer
 72
     0
 43
0.0208333333333333
 43
0.0
 43
0.0
 43
0.0
 43
0.0
 43
0.0208333333333333
 43
0.0
 43
0.0
 43
0.0
 43
0.0
 43
1.0
 43
0.0
 43
0.0
 43
0.0
 43
0.0
 43
1.0
 77
     0
 47
0.0208333333333333
 47
0.0
 47
0.0
 47
0.0
 47
0.0
 47
0.0208333333333333
 47
0.0
 47
0.0
 47
0.0
 47
0.0
 47
1.0
 47
0.0
 47
0.0
 47
0.0
 47
0.0
 47
1.0
171
     0
 49
0.0208333333333333
 49
0.0
 49
0.0
 49
0.0
 49
0.0
 49
0.0208333333333333
 49
0.0
 49
0.0
 49
0.0
 49
0.0
 49
1.0
 49
0.0
 49
0.0
 49
0.0
 49
0.0
 49
1.0
175
     0
142
0.0208333333333333
142
0.0
142
0.0
142
0.0
142
0.0
142
0.0208333333333333
142
0.0
142
0.0
142
0.0
142
0.0
142
1.0
142
0.0
142
0.0
142
0.0
142
0.0
142
1.0
179
     0
144
0.0208333333333333
144
0.0
144
0.0
144
0.0
144
0.0
144
0.0208333333333333
144
0.0
144
0.0
144
0.0
144
0.0
144
1.0
144
0.0
144
0.0
144
0.0
144
0.0
144
1.0
147
0.0208333333333333
147
0.0
147
0.0
147
0.0
147
0.0
147
0.0208333333333333
147
0.0
147
0.0
147
0.0
147
0.0
147
1.0
147
0.0
147
0.0
147
0.0
147
0.0
147
1.0
  0
MATERIAL
  5
21
102
{ACAD_XDICTIONARY
360
22
102
}
102
{ACAD_REACTORS
330
10
102
}
330
10
100
AcDbMaterial
  1
Global
 72
     0
 43
0.0208333333333333
 43
0.0
 43
0.0
 43
0.0
 43
0.0
 43
0.0208333333333333
 43
0.0
 43
0.0
 43
0.0
 43
0.0
 43
1.0
 43
0.0
 43
0.0
 43
0.0
 43
0.0
 43
1.0
 77
     0
 47
0.0208333333333333
 47
0.0
 47
0.0
 47
0.0
 47
0.0
 47
0.0208333333333333
 47
0.0
 47
0.0
 47
0.0
 47
0.0
 47
1.0
 47
0.0
 47
0.0
 47
0.0
 47
0.0
 47
1.0
171
     0
 49
0.0208333333333333
 49
0.0
 49
0.0
 49
0.0
 49
0.0
 49
0.0208333333333333
 49
0.0
 49
0.0
 49
0.0
 49
0.0
 49
1.0
 49
0.0
 49
0.0
 49
0.0
 49
0.0
 49
1.0
175
     0
142
0.0208333333333333
142
0.0
142
0.0
142
0.0
142
0.0
142
0.0208333333333333
142
0.0
142
0.0
142
0.0
142
0.0
142
1.0
142
0.0
142
0.0
142
0.0
142
0.0
142
1.0
179
     0
144
0.0208333333333333
144
0.0
144
0.0
144
0.0
144
0.0
144
0.0208333333333333
144
0.0
144
0.0
144
0.0
144
0.0
144
1.0
144
0.0
144
0.0
144
0.0
144
0.0
144
1.0
147
0.0208333333333333
147
0.0
147
0.0
147
0.0
147
0.0
147
0.0208333333333333
147
0.0
147
0.0
147
0.0
147
0.0
147
1.0
147
0.0
147
0.0
147
0.0
147
0.0
147
1.0
  0
MLEADERSTYLE
  5
67
102
{ACAD_XDICTIONARY
360
254
102
}
102
{ACAD_REACTORS
330
66
102
}
330
66
100
AcDbMLeaderStyle
170
     2
171
     1
172
     0
 90
        2
 40
0.0
 41
0.0
173
     1
 91
-1056964608
340
5B
 92
       -2
290
     1
 42
0.09
291
     1
 43
0.36
  3
Standard
 44
0.18
300

342
55
174
     1
178
     6
175
     1
176
     0
 93
-1056964608
 45
0.18
292
     0
297
     0
 46
0.18
 94
-1056964608
 47
1.0
 49
1.0
140
1.0
293
     1
141
0.0
294
     1
177
     0
142
1.0
295
     0
296
     0
143
0.125
1001
ACAD_MLEADERVER
1070
     2
  0
MLINESTYLE
  5
60
102
{ACAD_REACTORS
330
5F
102
}
330
5F
100
AcDbMlineStyle
  2
STANDARD
 70
     0
  3

 62
   256
 51
90.0
 52
90.0
 71
     2
 49
0.5
 62
   256
  6
BYLAYER
 49
-0.5
 62
   256
  6
BYLAYER
  0
ACDBPLACEHOLDER
  5
F
102
{ACAD_REACTORS
330
E
102
}
330
E
  0
SCALE
  5
43
102
{ACAD_REACTORS
330
42
102
}
330
42
100
AcDbScale
 70
     0
300
1:1
140
1.0
141
1.0
290
     1
  0
SCALE
  5
44
102
{ACAD_REACTORS
330
42
102
}
330
42
100
AcDbScale
 70
     0
300
1/128" = 1'-0"
140
0.0078125
141
12.0
290
     0
  0
SCALE
  5
45
102
{ACAD_REACTORS
330
42
102
}
330
42
100
AcDbScale
 70
     0
300
1/64" = 1'-0"
140
0.015625
141
12.0
290
     0
  0
SCALE
  5
46
102
{ACAD_REACTORS
330
42
102
}
330
42
100
AcDbScale
 70
     0
300
1/32" = 1'-0"
140
0.03125
141
12.0
290
     0
  0
SCALE
  5
47
102
{ACAD_REACTORS
330
42
102
}
330
42
100
AcDbScale
 70
     0
300
1/16" = 1'-0"
140
0.0625
141
12.0
290
     0
  0
SCALE
  5
48
102
{ACAD_REACTORS
330
42
102
}
330
42
100
AcDbScale
 70
     0
300
3/32" = 1'-0"
140
0.09375
141
12.0
290
     0
  0
SCALE
  5
49
102
{ACAD_REACTORS
330
42
102
}
330
42
100
AcDbScale
 70
     0
300
1/8" = 1'-0"
140
0.125
141
12.0
290
     0
  0
SCALE
  5
4A
102
{ACAD_REACTORS
330
42
102
}
330
42
100
AcDbScale
 70
     0
300
3/16" = 1'-0"
140
0.1875
141
12.0
290
     0
  0
SCALE
  5
4B
102
{ACAD_REACTORS
330
42
102
}
330
42
100
AcDbScale
 70
     0
300
1/4" = 1'-0"
140
0.25
141
12.0
290
     0
  0
SCALE
  5
4C
102
{ACAD_REACTORS
330
42
102
}
330
42
100
AcDbScale
 70
     0
300
3/8" = 1'-0"
140
0.375
141
12.0
290
     0
  0
SCALE
  5
4D
102
{ACAD_REACTORS
330
42
102
}
330
42
100
AcDbScale
 70
     0
300
1/2" = 1'-0"
140
0.5
141
12.0
290
     0
  0
SCALE
  5
4E
102
{ACAD_REACTORS
330
42
102
}
330
42
100
AcDbScale
 70
     0
300
3/4" = 1'-0"
140
0.75
141
12.0
290
     0
  0
SCALE
  5
4F
102
{ACAD_REACTORS
330
42
102
}
330
42
100
AcDbScale
 70
     0
300
1" = 1'-0"
140
1.0
141
12.0
290
     0
  0
SCALE
  5
50
102
{ACAD_REACTORS
330
42
102
}
330
42
100
AcDbScale
 70
     0
300
1-1/2" = 1'-0"
140
1.5
141
12.0
290
     0
  0
SCALE
  5
51
102
{ACAD_REACTORS
330
42
102
}
330
42
100
AcDbScale
 70
     0
300
3" = 1'-0"
140
3.0
141
12.0
290
     0
  0
SCALE
  5
52
102
{ACAD_REACTORS
330
42
102
}
330
42
100
AcDbScale
 70
     0
300
6" = 1'-0"
140
6.0
141
12.0
290
     0
  0
SCALE
  5
53
102
{ACAD_REACTORS
330
42
102
}
330
42
100
AcDbScale
 70
     0
300
1'-0" = 1'-0"
140
12.0
141
12.0
290
     0
  0
ACDBSECTIONVIEWSTYLE
  5
69
102
{ACAD_XDICTIONARY
360
256
102
}
102
{ACAD_REACTORS
330
68
102
}
330
68
100
AcDbModelDocViewStyle
 70
     0
  3
Imperial24
290
     0
100
AcDbSectionViewStyle
 70
     0
 71
     0
 90
       78
 71
     1
340
55
 62
   256
 40
0.24
340
0
340
0
 62
   256
 40
0.24
300
I, O, Q, S, X, Z
 40
0.48
 90
        3
 40
0.18
 90
        1
 71
     2
340
5D
 90
       25
 62
   256
340
5D
 90
       50
 62
   256
 40
0.24
 40
0.0
 40
0.24
 71
     3
340
55
 62
   256
 40
0.24
 90
        1
 40
0.75
 90
        1
300
%<\AcVar ViewType \f "%tc1">% %<\AcVar ViewSectionStartId>%-%<\AcVar ViewSectionEndId>%\PSCALE %<\AcVar ViewScale \f "%sn">%
 71
     4
 62
   256
 62
   257
300
ANSI31
 40
1.0
 90
        0
290
     0
290
     0
 90
        6
 40
0.0
 40
1.570796326794896
 40
0.2617993877991494
 40
1.308996938995747
 40
-0.2617993877991494
 40
1.832595714594046
  0
TABLESTYLE
  5
65
102
{ACAD_XDICTIONARY
360
21C
102
}
102
{ACAD_REACTORS
330
64
102
}
330
64
100
AcDbTableStyle
  3
Standard
 70
     0
 71
     0
 40
0.06
 41
0.06
280
     0
281
     0
  7
Standard
140
0.18
170
     2
 62
     0
 63
     7
283
     0
274
    -2
284
     1
 64
     0
275
    -2
285
     1
 65
     0
276
    -2
286
     1
 66
     0
277
    -2
287
     1
 67
     0
278
    -2
288
     1
 68
     0
279
    -2
289
     1
 69
     0
  7
Standard
140
0.25
170
     5
 62
     0
 63
     7
283
     0
274
    -2
284
     1
 64
     0
275
    -2
285
     1
 65
     0
276
    -2
286
     1
 66
     0
277
    -2
287
     1
 67
     0
278
    -2
288
     1
 68
     0
279
    -2
289
     1
 69
     0
  7
Standard
140
0.18
170
     5
 62
     0
 63
     7
283
     0
274
    -2
284
     1
 64
     0
275
    -2
285
     1
 65
     0
276
    -2
286
     1
 66
     0
277
    -2
287
     1
 67
     0
278
    -2
288
     1
 68
     0
279
    -2
289
     1
 69
     0
  0
VISUALSTYLE
  5
2F
102
{ACAD_XDICTIONARY
360
22C
102
}
102
{ACAD_REACTORS
330
29
102
}
330
29
100
AcDbVisualStyle
  2
2dWireframe
 70
     4
 71
     0
 72
     2
 73
     0
 90
        0
 40
-0.6
 41
-30.0
 62
     5
 63
     7
421
 16777215
 74
     1
 91
        4
 64
     7
 65
   257
 75
     1
175
     1
 42
1.0
 92
        0
 66
   257
 43
1.0
 76
     1
 77
     6
 78
     2
 67
     7
 79
     5
170
     0
171
     0
290
     0
174
     0
 93
        1
 44
0.0
173
     0
291
     0
 45
0.0
1001
ACAD
1000
AcDbSavedByObjectVersion
1070
     0
  0
VISUALSTYLE
  5
2E
102
{ACAD_XDICTIONARY
360
22A
102
}
102
{ACAD_REACTORS
330
29
102
}
330
29
100
AcDbVisualStyle
  2
Basic
 70
     7
 71
     1
 72
     0
 73
     1
 90
        0
 40
-0.6
 41
-30.0
 62
     5
 63
     7
421
 16777215
 74
     0
 91
        4
 64
     7
 65
   257
 75
     1
175
     1
 42
1.0
 92
        8
 66
     7
 43
1.0
 76
     1
 77
     6
 78
     2
 67
     7
 79
     5
170
     0
171
     0
290
     0
174
     0
 93
        1
 44
0.0
173
     0
291
     1
 45
0.0
1001
ACAD
1000
AcDbSavedByObjectVersion
1070
     0
  0
VISUALSTYLE
  5
35
102
{ACAD_XDICTIONARY
360
238
102
}
102
{ACAD_REACTORS
330
29
102
}
330
29
100
AcDbVisualStyle
  2
Brighten
 70
    12
 71
     2
 72
     2
 73
     0
 90
        0
 40
-0.6
 41
-30.0
 62
     5
 63
     7
421
 16777215
 74
     1
 91
        4
 64
     7
 65
   257
 75
     1
175
     1
 42
1.0
 92
        8
 66
     7
 43
1.0
 76
     1
 77
     6
 78
     2
 67
     7
 79
     5
170
     0
171
     0
290
     0
174
     0
 93
        1
 44
50.0
173
     0
291
     1
 45
0.0
1001
ACAD
1000
AcDbSavedByObjectVersion
1070
     0
  0
VISUALSTYLE
  5
39
102
{ACAD_XDICTIONARY
360
240
102
}
102
{ACAD_REACTORS
330
29
102
}
330
29
100
AcDbVisualStyle
  2
ColorChange
 70
    16
 71
     2
 72
     2
 73
     3
 90
        0
 40
-0.6
 41
-30.0
 62
     5
 63
     8
421
  8421504
 74
     1
 91
        4
 64
     7
 65
   257
 75
     1
175
     1
 42
1.0
 92
        8
 66
     8
424
  8421504
 43
1.0
 76
     1
 77
     6
 78
     2
 67
     7
 79
     5
170
     0
171
     0
290
     0
174
     0
 93
        1
 44
0.0
173
     0
291
     1
 45
0.0
1001
ACAD
1000
AcDbSavedByObjectVersion
1070
     0
  0
VISUALSTYLE
  5
32
102
{ACAD_XDICTIONARY
360
232
102
}
102
{ACAD_REACTORS
330
29
102
}
330
29
100
AcDbVisualStyle
  2
Conceptual
 70
     9
 71
     3
 72
     2
 73
     0
 90
        0
 40
-0.6
 41
-30.0
 62
     5
 63
     7
421
 16777215
 74
     2
 91
        2
 64
     7
 65
   257
 75
     1
175
     1
 42
179.0
 92
        8
 66
     7
 43
1.0
 76
     1
 77
     6
 78
     2
 67
     7
 79
     3
170
     0
171
     0
290
     0
174
     0
 93
        1
 44
0.0
173
     0
291
     0
 45
0.0
1001
ACAD
1000
AcDbSavedByObjectVersion
1070
     0
  0
VISUALSTYLE
  5
34
102
{ACAD_XDICTIONARY
360
236
102
}
102
{ACAD_REACTORS
330
29
102
}
330
29
100
AcDbVisualStyle
  2
Dim
 70
    11
 71
     2
 72
     2
 73
     0
 90
        0
 40
-0.6
 41
-30.0
 62
     5
 63
     7
421
 16777215
 74
     1
 91
        4
 64
     7
 65
   257
 75
     1
175
     1
 42
1.0
 92
        8
 66
     7
 43
1.0
 76
     1
 77
     6
 78
     2
 67
     7
 79
     5
170
     0
171
     0
290
     0
174
     0
 93
        1
 44
-50.0
173
     0
291
     1
 45
0.0
1001
ACAD
1000
AcDbSavedByObjectVersion
1070
     0
  0
VISUALSTYLE
  5
41
102
{ACAD_XDICTIONARY
360
250
102
}
102
{ACAD_REACTORS
330
29
102
}
330
29
100
AcDbVisualStyle
  2
EdgeColorOff
 70
    22
 71
     2
 72
     2
 73
     0
 90
        0
 40
-0.6
 41
-30.0
 62
     5
 63
     7
421
 16777215
 74
     1
 91
        4
 64
     7
 65
   257
 75
     1
175
     1
 42
1.0
 92
        8
 66
     7
 43
1.0
 76
     1
 77
     6
 78
     2
 67
     7
 79
     5
170
     0
171
     0
290
     0
174
     0
 93
        1
 44
0.0
173
     0
291
     1
 45
0.0
1001
ACAD
1000
AcDbSavedByObjectVersion
1070
     0
  0
VISUALSTYLE
  5
38
102
{ACAD_XDICTIONARY
360
23E
102
}
102
{ACAD_REACTORS
330
29
102
}
330
29
100
AcDbVisualStyle
  2
Facepattern
 70
    15
 71
     2
 72
     2
 73
     0
 90
        0
 40
-0.6
 41
-30.0
 62
     5
 63
     7
421
 16777215
 74
     1
 91
        4
 64
     7
 65
   257
 75
     1
175
     1
 42
1.0
 92
        8
 66
     7
 43
1.0
 76
     1
 77
     6
 78
     2
 67
     7
 79
     5
170
     0
171
     0
290
     0
174
     0
 93
        1
 44
0.0
173
     0
291
     1
 45
0.0
1001
ACAD
1000
AcDbSavedByObjectVersion
1070
     0
  0
VISUALSTYLE
  5
2A
102
{ACAD_XDICTIONARY
360
222
102
}
102
{ACAD_REACTORS
330
29
102
}
330
29
100
AcDbVisualStyle
  2
Flat
 70
     0
 71
     2
 72
     1
 73
     1
 90
        2
 40
-0.6
 41
30.0
 62
     5
 63
     7
421
 16777215
 74
     0
 91
        0
 64
     7
 65
   257
 75
     1
175
     1
 42
1.0
 92
        8
 66
     7
 43
1.0
 76
     1
 77
     6
 78
     2
 67
     7
 79
     5
170
     0
171
     0
290
     0
174
     0
 93
       13
 44
0.0
173
     0
291
     1
 45
0.0
1001
ACAD
1000
AcDbSavedByObjectVersion
1070
     0
  0
VISUALSTYLE
  5
2B
102
{ACAD_XDICTIONARY
360
224
102
}
102
{ACAD_REACTORS
330
29
102
}
330
29
100
AcDbVisualStyle
  2
FlatWithEdges
 70
     1
 71
     2
 72
     1
 73
     1
 90
        2
 40
-0.6
 41
30.0
 62
     5
 63
     7
421
 16777215
 74
     1
 91
        0
 64
     7
 65
   257
 75
     1
175
     1
 42
1.0
 92
        0
 66
   257
 43
1.0
 76
     1
 77
     6
 78
     2
 67
     7
 79
     5
170
     0
171
     0
290
     0
174
     0
 93
       13
 44
0.0
173
     0
291
     1
 45
0.0
1001
ACAD
1000
AcDbSavedByObjectVersion
1070
     0
  0
VISUALSTYLE
  5
2C
102
{ACAD_XDICTIONARY
360
226
102
}
102
{ACAD_REACTORS
330
29
102
}
330
29
100
AcDbVisualStyle
  2
Gouraud
 70
     2
 71
     2
 72
     2
 73
     1
 90
        2
 40
-0.6
 41
30.0
 62
     5
 63
     7
421
 16777215
 74
     0
 91
        0
 64
     7
 65
   257
 75
     1
175
     1
 42
1.0
 92
        0
 66
     7
 43
1.0
 76
     1
 77
     6
 78
     2
 67
     7
 79
     5
170
     0
171
     0
290
     0
174
     0
 93
       13
 44
0.0
173
     0
291
     1
 45
0.0
1001
ACAD
1000
AcDbSavedByObjectVersion
1070
     0
  0
VISUALSTYLE
  5
2D
102
{ACAD_XDICTIONARY
360
228
102
}
102
{ACAD_REACTORS
330
29
102
}
330
29
100
AcDbVisualStyle
  2
GouraudWithEdges
 70
     3
 71
     2
 72
     2
 73
     1
 90
        2
 40
-0.6
 41
30.0
 62
     5
 63
     7
421
 16777215
 74
     1
 91
        0
 64
     7
 65
   257
 75
     1
175
     1
 42
1.0
 92
        0
 66
   257
 43
1.0
 76
     1
 77
     6
 78
     2
 67
     7
 79
     5
170
     0
171
     0
290
     0
174
     0
 93
       13
 44
0.0
173
     0
291
     1
 45
0.0
1001
ACAD
1000
AcDbSavedByObjectVersion
1070
     0
  0
VISUALSTYLE
  5
31
102
{ACAD_XDICTIONARY
360
230
102
}
102
{ACAD_REACTORS
330
29
102
}
330
29
100
AcDbVisualStyle
  2
Hidden
 70
     6
 71
     1
 72
     2
 73
     2
 90
        0
 40
-0.6
 41
-30.0
 62
     5
 63
     7
421
 16777215
 74
     2
 91
        2
 64
     7
 65
   257
 75
     2
175
     1
 42
40.0
 92
        0
 66
   257
 43
1.0
 76
     1
 77
     6
 78
     2
 67
     7
 79
     3
170
     0
171
     0
290
     0
174
     0
 93
        1
 44
0.0
173
     0
291
     0
 45
0.0
1001
ACAD
1000
AcDbSavedByObjectVersion
1070
     0
  0
VISUALSTYLE
  5
3F
102
{ACAD_XDICTIONARY
360
24C
102
}
102
{ACAD_REACTORS
330
29
102
}
330
29
100
AcDbVisualStyle
  2
JitterOff
 70
    20
 71
     2
 72
     2
 73
     0
 90
        0
 40
-0.6
 41
-30.0
 62
     5
 63
     7
421
 16777215
 74
     1
 91
        4
 64
     7
 65
   257
 75
     1
175
     1
 42
1.0
 92
       10
 66
     7
 43
1.0
 76
     1
 77
     6
 78
     2
 67
     7
 79
     5
170
     0
171
     0
290
     0
174
     0
 93
        1
 44
0.0
173
     0
291
     1
 45
0.0
1001
ACAD
1000
AcDbSavedByObjectVersion
1070
     0
  0
VISUALSTYLE
  5
37
102
{ACAD_XDICTIONARY
360
23C
102
}
102
{ACAD_REACTORS
330
29
102
}
330
29
100
AcDbVisualStyle
  2
Linepattern
 70
    14
 71
     2
 72
     2
 73
     0
 90
        0
 40
-0.6
 41
-30.0
 62
     5
 63
     7
421
 16777215
 74
     1
 91
        4
 64
     7
 65
   257
 75
     7
175
     7
 42
1.0
 92
        8
 66
     7
 43
1.0
 76
     1
 77
     6
 78
     2
 67
     7
 79
     5
170
     0
171
     0
290
     0
174
     0
 93
        1
 44
0.0
173
     0
291
     1
 45
0.0
1001
ACAD
1000
AcDbSavedByObjectVersion
1070
     0
  0
VISUALSTYLE
  5
40
102
{ACAD_XDICTIONARY
360
24E
102
}
102
{ACAD_REACTORS
330
29
102
}
330
29
100
AcDbVisualStyle
  2
OverhangOff
 70
    21
 71
     2
 72
     2
 73
     0
 90
        0
 40
-0.6
 41
-30.0
 62
     5
 63
     7
421
 16777215
 74
     1
 91
        4
 64
     7
 65
   257
 75
     1
175
     1
 42
1.0
 92
        9
 66
     7
 43
1.0
 76
     1
 77
     6
 78
     2
 67
     7
 79
     5
170
     0
171
     0
290
     0
174
     0
 93
        1
 44
0.0
173
     0
291
     1
 45
0.0
1001
ACAD
1000
AcDbSavedByObjectVersion
1070
     0
  0
VISUALSTYLE
  5
33
102
{ACAD_XDICTIONARY
360
234
102
}
102
{ACAD_REACTORS
330
29
102
}
330
29
100
AcDbVisualStyle
  2
Realistic
 70
     8
 71
     2
 72
     3
 73
     0
 90
        2
 40
-0.6
 41
30.0
 62
     5
 63
     7
421
 16777215
 74
     0
 91
        0
 64
     7
 65
   257
 75
     1
175
     1
 42
1.0
 92
        8
 66
   257
 43
1.0
 76
     1
 77
     6
 78
     2
 67
     7
 79
     3
170
     0
171
     0
290
     0
174
     0
 93
       13
 44
0.0
173
     0
291
     0
 45
0.0
1001
ACAD
1000
AcDbSavedByObjectVersion
1070
     0
  0
VISUALSTYLE
  5
3E
102
{ACAD_XDICTIONARY
360
24A
102
}
102
{ACAD_REACTORS
330
29
102
}
330
29
100
AcDbVisualStyle
  2
Shaded
 70
    27
 71
     2
 72
     2
 73
     1
 90
        2
 40
-0.6
 41
30.0
 62
     5
 63
     7
421
 16777215
 74
     0
 91
        4
 64
     7
 65
   257
 75
     1
175
     1
 42
1.0
 92
        8
 66
   257
 43
1.0
 76
     1
 77
     6
 78
     2
 67
     8
425
  7895160
 79
     3
170
     0
171
     0
290
     0
174
     0
 93
        5
 44
0.0
173
     0
291
     0
 45
0.0
1001
ACAD
1000
AcDbSavedByObjectVersion
1070
     0
  0
VISUALSTYLE
  5
3D
102
{ACAD_XDICTIONARY
360
248
102
}
102
{ACAD_REACTORS
330
29
102
}
330
29
100
AcDbVisualStyle
  2
Shaded with edges
 70
    26
 71
     2
 72
     2
 73
     1
 90
        2
 40
-0.6
 41
30.0
 62
     5
 63
     7
421
 16777215
 74
     1
 91
        2
 64
     7
 65
   257
 75
     2
175
     1
 42
1.0
 92
        8
 66
   257
 43
1.0
 76
     1
 77
     6
 78
     2
 67
     7
 79
     3
170
     0
171
     0
290
     0
174
     0
 93
        5
 44
0.0
173
     0
291
     0
 45
0.0
1001
ACAD
1000
AcDbSavedByObjectVersion
1070
     0
  0
VISUALSTYLE
  5
3A
102
{ACAD_XDICTIONARY
360
242
102
}
102
{ACAD_REACTORS
330
29
102
}
330
29
100
AcDbVisualStyle
  2
Shades of Gray
 70
    23
 71
     2
 72
     2
 73
     3
 90
        0
 40
-0.6
 41
-30.0
 62
     5
 63
     7
421
 16777215
 74
     2
 91
        2
 64
     7
 65
     7
 75
     1
175
     1
 42
40.0
 92
        8
 66
     7
 43
1.0
 76
     1
 77
     6
 78
     2
 67
     7
 79
     3
170
     0
171
     0
290
     0
174
     0
 93
        1
 44
0.0
173
     0
291
     0
 45
0.0
1001
ACAD
1000
AcDbSavedByObjectVersion
1070
     0
  0
VISUALSTYLE
  5
3B
102
{ACAD_XDICTIONARY
360
244
102
}
102
{ACAD_REACTORS
330
29
102
}
330
29
100
AcDbVisualStyle
  2
Sketchy
 70
    24
 71
     1
 72
     2
 73
     2
 90
        0
 40
-0.6
 41
-30.0
 62
     5
 63
     7
421
 16777215
 74
     2
 91
        2
 64
     7
 65
     7
 75
     1
175
     1
 42
40.0
 92
       11
 66
     7
 43
1.0
 76
     1
 77
     6
 78
     2
 67
     7
 79
     6
170
     0
171
     0
290
     0
174
     0
 93
        1
 44
0.0
173
     0
291
     0
 45
0.0
1001
ACAD
1000
AcDbSavedByObjectVersion
1070
     0
  0
VISUALSTYLE
  5
36
102
{ACAD_XDICTIONARY
360
23A
102
}
102
{ACAD_REACTORS
330
29
102
}
330
29
100
AcDbVisualStyle
  2
Thicken
 70
    13
 71
     2
 72
     2
 73
     0
 90
        0
 40
-0.6
 41
-30.0
 62
     5
 63
     7
421
 16777215
 74
     1
 91
        4
 64
     7
 65
   257
 75
     1
175
     1
 42
1.0
 92
       12
 66
     7
 43
1.0
 76
     1
 77
     6
 78
     2
 67
     7
 79
     5
170
     0
171
     0
290
     0
174
     0
 93
        1
 44
0.0
173
     0
291
     1
 45
0.0
1001
ACAD
1000
AcDbSavedByObjectVersion
1070
     0
  0
VISUALSTYLE
  5
30
102
{ACAD_XDICTIONARY
360
22E
102
}
102
{ACAD_REACTORS
330
29
102
}
330
29
100
AcDbVisualStyle
  2
Wireframe
 70
     5
 71
     0
 72
     2
 73
     0
 90
        0
 40
-0.6
 41
-30.0
 62
     5
 63
     7
421
 16777215
 74
     1
 91
        4
 64
     7
 65
   257
 75
     1
175
     1
 42
1.0
 92
        0
 66
   257
 43
1.0
 76
     1
 77
     6
 78
     2
 67
     7
 79
     3
170
     0
171
     0
290
     0
174
     0
 93
        1
 44
0.0
173
     0
291
     0
 45
0.0
1001
ACAD
1000
AcDbSavedByObjectVersion
1070
     0
  0
VISUALSTYLE
  5
3C
102
{ACAD_XDICTIONARY
360
246
102
}
102
{ACAD_REACTORS
330
29
102
}
330
29
100
AcDbVisualStyle
  2
X-Ray
 70
    25
 71
     2
 72
     2
 73
     1
 90
        1
 40
0.5
 41
-30.0
 62
     5
 63
     7
421
 16777215
 74
     1
 91
        0
 64
     7
 65
   257
 75
     1
175
     1
 42
1.0
 92
        8
 66
     7
 43
1.0
 76
     1
 77
     6
 78
     2
 67
     7
 79
     3
170
     0
171
     0
290
     0
174
     0
 93
       13
 44
0.0
173
     0
291
     0
 45
0.0
1001
ACAD
1000
AcDbSavedByObjectVersion
1070
     0
  0
DICTIONARYVAR
  5
217
102
{ACAD_REACTORS
330
211
102
}
330
211
100
DictionaryVariables
280
     0
  1
1:1
  0
DICTIONARYVAR
  5
213
102
{ACAD_REACTORS
330
211
102
}
330
211
100
DictionaryVariables
280
     0
  1
STANDARD
  0
DICTIONARYVAR
  5
212
102
{ACAD_REACTORS
330
211
102
}
330
211
100
DictionaryVariables
280
     0
  1
STANDARD
  0
DICTIONARYVAR
  5
214
102
{ACAD_REACTORS
330
211
102
}
330
211
100
DictionaryVariables
280
     0
  1
Imperial24
  0
DICTIONARYVAR
  5
215
102
{ACAD_REACTORS
330
211
102
}
330
211
100
DictionaryVariables
280
     0
  1
Imperial24
  0
DICTIONARYVAR
  5
219
102
{ACAD_REACTORS
330
211
102
}
330
211
100
DictionaryVariables
280
     0
  1
0
  0
DICTIONARYVAR
  5
21A
102
{ACAD_REACTORS
330
211
102
}
330
211
100
DictionaryVariables
280
     0
  1
0
  0
DICTIONARYVAR
  5
218
102
{ACAD_REACTORS
330
211
102
}
330
211
100
DictionaryVariables
280
     0
  1
2
  0
DICTIONARYVAR
  5
216
102
{ACAD_REACTORS
330
211
102
}
330
211
100
DictionaryVariables
280
     0
  1
1
  0
DICTIONARYVAR
  5
21B
102
{ACAD_REACTORS
330
211
102
}
330
211
100
DictionaryVariables
280
     0
  1
2
  0
DICTIONARY
  5
258
330
6B
100
AcDbDictionary
280
     1
281
     1
  3
ACAD_XREC_ROUNDTRIP
360
259
  0
DICTIONARY
  5
1A
330
19
100
AcDbDictionary
280
     1
281
     1
  3
ACAD_XREC_ROUNDTRIP
360
220
  3
BUMPTILE
360
1C
  3
DIFFUSETILE
360
1B
  3
OPACITYTILE
360
1F
  3
REFLECTIONTILE
360
1E
  3
REFRACTIONTILE
360
20
  3
SPECULARTILE
360
1D
  0
DICTIONARY
  5
12
330
11
100
AcDbDictionary
280
     1
281
     1
  3
ACAD_XREC_ROUNDTRIP
360
21F
  3
BUMPTILE
360
14
  3
DIFFUSETILE
360
13
  3
OPACITYTILE
360
17
  3
REFLECTIONTILE
360
16
  3
REFRACTIONTILE
360
18
  3
SPECULARTILE
360
15
  0
DICTIONARY
  5
22
330
21
100
AcDbDictionary
280
     1
281
     1
  3
ACAD_XREC_ROUNDTRIP
360
221
  3
BUMPTILE
360
24
  3
DIFFUSETILE
360
23
  3
OPACITYTILE
360
27
  3
REFLECTIONTILE
360
26
  3
REFRACTIONTILE
360
28
  3
SPECULARTILE
360
25
  0
DICTIONARY
  5
254
330
67
100
AcDbDictionary
280
     1
281
     1
  3
ACAD_XREC_ROUNDTRIP
360
255
  0
DICTIONARY
  5
256
330
69
100
AcDbDictionary
280
     1
281
     1
  3
ACAD_XREC_ROUNDTRIP
360
257
  0
DICTIONARY
  5
21C
330
65
100
AcDbDictionary
280
     1
281
     1
  3
ACAD_ROUNDTRIP_2008_TABLESTYLE_CELLSTYLEMAP
360
21D
  3
ACAD_XREC_ROUNDTRIP
360
252
  0
DICTIONARY
  5
22C
330
2F
100
AcDbDictionary
280
     1
281
     1
  3
ACAD_XREC_ROUNDTRIP
360
22D
  0
DICTIONARY
  5
22A
330
2E
100
AcDbDictionary
280
     1
281
     1
  3
ACAD_XREC_ROUNDTRIP
360
22B
  0
DICTIONARY
  5
238
330
35
100
AcDbDictionary
280
     1
281
     1
  3
ACAD_XREC_ROUNDTRIP
360
239
  0
DICTIONARY
  5
240
330
39
100
AcDbDictionary
280
     1
281
     1
  3
ACAD_XREC_ROUNDTRIP
360
241
  0
DICTIONARY
  5
232
330
32
100
AcDbDictionary
280
     1
281
     1
  3
ACAD_XREC_ROUNDTRIP
360
233
  0
DICTIONARY
  5
236
330
34
100
AcDbDictionary
280
     1
281
     1
  3
ACAD_XREC_ROUNDTRIP
360
237
  0
DICTIONARY
  5
250
330
41
100
AcDbDictionary
280
     1
281
     1
  3
ACAD_XREC_ROUNDTRIP
360
251
  0
DICTIONARY
  5
23E
330
38
100
AcDbDictionary
280
     1
281
     1
  3
ACAD_XREC_ROUNDTRIP
360
23F
  0
DICTIONARY
  5
222
330
2A
100
AcDbDictionary
280
     1
281
     1
  3
ACAD_XREC_ROUNDTRIP
360
223
  0
DICTIONARY
  5
224
330
2B
100
AcDbDictionary
280
     1
281
     1
  3
ACAD_XREC_ROUNDTRIP
360
225
  0
DICTIONARY
  5
226
330
2C
100
AcDbDictionary
280
     1
281
     1
  3
ACAD_XREC_ROUNDTRIP
360
227
  0
DICTIONARY
  5
228
330
2D
100
AcDbDictionary
280
     1
281
     1
  3
ACAD_XREC_ROUNDTRIP
360
229
  0
DICTIONARY
  5
230
330
31
100
AcDbDictionary
280
     1
281
     1
  3
ACAD_XREC_ROUNDTRIP
360
231
  0
DICTIONARY
  5
24C
330
3F
100
AcDbDictionary
280
     1
281
     1
  3
ACAD_XREC_ROUNDTRIP
360
24D
  0
DICTIONARY
  5
23C
330
37
100
AcDbDictionary
280
     1
281
     1
  3
ACAD_XREC_ROUNDTRIP
360
23D
  0
DICTIONARY
  5
24E
330
40
100
AcDbDictionary
280
     1
281
     1
  3
ACAD_XREC_ROUNDTRIP
360
24F
  0
DICTIONARY
  5
234
330
33
100
AcDbDictionary
280
     1
281
     1
  3
ACAD_XREC_ROUNDTRIP
360
235
  0
DICTIONARY
  5
24A
330
3E
100
AcDbDictionary
280
     1
281
     1
  3
ACAD_XREC_ROUNDTRIP
360
24B
  0
DICTIONARY
  5
248
330
3D
100
AcDbDictionary
280
     1
281
     1
  3
ACAD_XREC_ROUNDTRIP
360
249
  0
DICTIONARY
  5
242
330
3A
100
AcDbDictionary
280
     1
281
     1
  3
ACAD_XREC_ROUNDTRIP
360
243
  0
DICTIONARY
  5
244
330
3B
100
AcDbDictionary
280
     1
281
     1
  3
ACAD_XREC_ROUNDTRIP
360
245
  0
DICTIONARY
  5
23A
330
36
100
AcDbDictionary
280
     1
281
     1
  3
ACAD_XREC_ROUNDTRIP
360
23B
  0
DICTIONARY
  5
22E
330
30
100
AcDbDictionary
280
     1
281
     1
  3
ACAD_XREC_ROUNDTRIP
360
22F
  0
DICTIONARY
  5
246
330
3C
100
AcDbDictionary
280
     1
281
     1
  3
ACAD_XREC_ROUNDTRIP
360
247
  0
XRECORD
  5
259
102
{ACAD_REACTORS
330
258
102
}
330
258
100
AcDbXrecord
280
     1
102
DISPLAYNAME
  1
Imperial24
102
FLAGS
 90
        0
  0
XRECORD
  5
220
102
{ACAD_REACTORS
330
1A
102
}
330
1A
100
AcDbXrecord
280
     1
102
MATERIAL
148
0.0
149
0.0
149
0.0
 93
        0
 94
      127
282
     0
 72
     0
 77
     0
171
     0
175
     0
179
     0
273
     0
  0
XRECORD
  5
1C
102
{ACAD_REACTORS
330
1A
102
}
330
1A
100
AcDbXrecord
280
     1
270
     1
271
     1
  0
XRECORD
  5
1B
102
{ACAD_REACTORS
330
1A
102
}
330
1A
100
AcDbXrecord
280
     1
270
     1
271
     1
  0
XRECORD
  5
1F
102
{ACAD_REACTORS
330
1A
102
}
330
1A
100
AcDbXrecord
280
     1
270
     1
271
     1
  0
XRECORD
  5
1E
102
{ACAD_REACTORS
330
1A
102
}
330
1A
100
AcDbXrecord
280
     1
270
     1
271
     1
  0
XRECORD
  5
20
102
{ACAD_REACTORS
330
1A
102
}
330
1A
100
AcDbXrecord
280
     1
270
     1
271
     1
  0
XRECORD
  5
1D
102
{ACAD_REACTORS
330
1A
102
}
330
1A
100
AcDbXrecord
280
     1
270
     1
271
     1
  0
XRECORD
  5
21F
102
{ACAD_REACTORS
330
12
102
}
330
12
100
AcDbXrecord
280
     1
102
MATERIAL
148
0.0
149
0.0
149
0.0
 93
        0
 94
      127
282
     0
 72
     0
 77
     0
171
     0
175
     0
179
     0
273
     0
  0
XRECORD
  5
14
102
{ACAD_REACTORS
330
12
102
}
330
12
100
AcDbXrecord
280
     1
270
     1
271
     1
  0
XRECORD
  5
13
102
{ACAD_REACTORS
330
12
102
}
330
12
100
AcDbXrecord
280
     1
270
     1
271
     1
  0
XRECORD
  5
17
102
{ACAD_REACTORS
330
12
102
}
330
12
100
AcDbXrecord
280
     1
270
     1
271
     1
  0
XRECORD
  5
16
102
{ACAD_REACTORS
330
12
102
}
330
12
100
AcDbXrecord
280
     1
270
     1
271
     1
  0
XRECORD
  5
18
102
{ACAD_REACTORS
330
12
102
}
330
12
100
AcDbXrecord
280
     1
270
     1
271
     1
  0
XRECORD
  5
15
102
{ACAD_REACTORS
330
12
102
}
330
12
100
AcDbXrecord
280
     1
270
     1
271
     1
  0
XRECORD
  5
221
102
{ACAD_REACTORS
330
22
102
}
330
22
100
AcDbXrecord
280
     1
102
MATERIAL
148
0.0
149
0.0
149
0.0
 93
        0
 94
      127
282
     0
 72
     0
 77
     0
171
     0
175
     0
179
     0
273
     0
  0
XRECORD
  5
24
102
{ACAD_REACTORS
330
22
102
}
330
22
100
AcDbXrecord
280
     1
270
     1
271
     1
  0
XRECORD
  5
23
102
{ACAD_REACTORS
330
22
102
}
330
22
100
AcDbXrecord
280
     1
270
     1
271
     1
  0
XRECORD
  5
27
102
{ACAD_REACTORS
330
22
102
}
330
22
100
AcDbXrecord
280
     1
270
     1
271
     1
  0
XRECORD
  5
26
102
{ACAD_REACTORS
330
22
102
}
330
22
100
AcDbXrecord
280
     1
270
     1
271
     1
  0
XRECORD
  5
28
102
{ACAD_REACTORS
330
22
102
}
330
22
100
AcDbXrecord
280
     1
270
     1
271
     1
  0
XRECORD
  5
25
102
{ACAD_REACTORS
330
22
102
}
330
22
100
AcDbXrecord
280
     1
270
     1
271
     1
  0
XRECORD
  5
255
102
{ACAD_REACTORS
330
254
102
}
330
254
100
AcDbXrecord
280
     1
102
ACAD_ROUNDTRIP_2012_MLEADER_STYLE
298
     1
  0
XRECORD
  5
257
102
{ACAD_REACTORS
330
256
102
}
330
256
100
AcDbXrecord
280
     1
102
DISPLAYNAME
  1
Imperial24
102
FLAGS
 90
        0
  0
CELLSTYLEMAP
  5
21D
102
{ACAD_REACTORS
330
21C
102
}
330
21C
100
AcDbCellStyleMap
 90
        3
300
CELLSTYLE
  1
TABLEFORMAT_BEGIN
 90
        5
170
     1
 91
        0
 92
    32768
 62
   257
 93
        1
300
CONTENTFORMAT
  1
CONTENTFORMAT_BEGIN
 90
        0
 91
        0
 92
      512
 93
        0
300

 40
0.0
140
1.0
 94
        5
 62
     0
340
55
144
0.25
309
CONTENTFORMAT_END
171
     0
 94
        0
309
TABLEFORMAT_END
  1
CELLSTYLE_BEGIN
 90
        1
 91
        1
300
_TITLE
309
CELLSTYLE_END
300
CELLSTYLE
  1
TABLEFORMAT_BEGIN
 90
        5
170
     1
 91
        0
 92
        0
 62
   257
 93
        1
300
CONTENTFORMAT
  1
CONTENTFORMAT_BEGIN
 90
        0
 91
        0
 92
      512
 93
        0
300

 40
0.0
140
1.0
 94
        5
 62
     0
340
55
144
0.18
309
CONTENTFORMAT_END
171
     0
 94
        0
309
TABLEFORMAT_END
  1
CELLSTYLE_BEGIN
 90
        2
 91
        1
300
_HEADER
309
CELLSTYLE_END
300
CELLSTYLE
  1
TABLEFORMAT_BEGIN
 90
        5
170
     1
 91
        0
 92
        0
 62
   257
 93
        1
300
CONTENTFORMAT
  1
CONTENTFORMAT_BEGIN
 90
        0
 91
        0
 92
      512
 93
        0
300

 40
0.0
140
1.0
 94
        2
 62
     0
340
55
144
0.18
309
CONTENTFORMAT_END
171
     0
 94
        0
309
TABLEFORMAT_END
  1
CELLSTYLE_BEGIN
 90
        3
 91
        2
300
_DATA
309
CELLSTYLE_END
  0
XRECORD
  5
252
102
{ACAD_REACTORS
330
21C
102
}
330
21C
100
AcDbXrecord
280
     1
102
ACAD_ROUNDTRIP_PRE2007_TABLESTYLE
 90
      512
 91
        0
  1

 92
      512
 93
        0
  2

 94
      512
 95
        0
  3

  0
XRECORD
  5
22D
102
{ACAD_REACTORS
330
22C
102
}
330
22C
100
AcDbXrecord
280
     1
102
RTVSPost2010Prop28
280
     1
102
RTVSPost2010PropOp28
 70
     1
102
RTVSPost2010Prop29
280
     1
102
RTVSPost2010PropOp29
 70
     1
102
RTVSPost2010Prop30
280
     0
102
RTVSPost2010PropOp30
 70
     1
102
RTVSPost2010Prop31
280
     0
102
RTVSPost2010PropOp31
 70
     1
102
RTVSPost2010Prop32
280
     0
102
RTVSPost2010PropOp32
 70
     1
102
RTVSPost2010Prop33
280
     0
102
RTVSPost2010PropOp33
 70
     1
102
RTVSPost2010Prop34
280
     0
102
RTVSPost2010PropOp34
 70
     1
102
RTVSPost2010Prop35
280
     0
102
RTVSPost2010PropOp35
 70
     1
102
RTVSPost2010Prop36
280
     0
102
RTVSPost2010PropOp36
 70
     1
102
RTVSPost2010Prop37
 90
       50
102
RTVSPost2010PropOp37
 70
     1
102
RTVSPost2010Prop38
140
0.0
102
RTVSPost2010PropOp38
 70
     1
102
RTVSPost2010Prop39
140
1.0
102
RTVSPost2010PropOp39
 70
     1
102
RTVSPost2010Prop40
 90
        0
102
RTVSPost2010PropOp40
 70
     1
102
RTVSPost2010Prop41ColorIndex
 90
       18
102
RTVSPost2010Prop41ColorRGB
 90
        0
102
RTVSPost2010PropOp41
 70
     1
102
RTVSPost2010Prop42
 90
       50
102
RTVSPost2010PropOp42
 70
     1
102
RTVSPost2010Prop43
 90
        3
102
RTVSPost2010PropOp43
 70
     1
102
RTVSPost2010Prop44ColorIndex
 90
        5
102
RTVSPost2010Prop44ColorRGB
 90
      255
102
RTVSPost2010PropOp44
 70
     1
102
RTVSPost2010Prop45
280
     0
102
RTVSPost2010PropOp45
 70
     1
102
RTVSPost2010Prop46
 90
       50
102
RTVSPost2010PropOp46
 70
     1
102
RTVSPost2010Prop47
 90
       50
102
RTVSPost2010PropOp47
 70
     1
102
RTVSPost2010Prop48
 90
       50
102
RTVSPost2010PropOp48
 70
     1
102
RTVSPost2010Prop49
280
     0
102
RTVSPost2010PropOp49
 70
     1
102
RTVSPost2010Prop50
 90
       50
102
RTVSPost2010PropOp50
 70
     1
102
RTVSPost2010Prop51ColorIndex
 90
      256
102
RTVSPost2010Prop51ColorRGB
 90
-16777216
102
RTVSPost2010PropOp51
 70
     0
102
RTVSPost2010Prop52
140
1.0
102
RTVSPost2010PropOp52
 70
     0
102
RTVSPost2010Prop53
 90
        2
102
RTVSPost2010PropOp53
 70
     1
102
RTVSPost2010Prop54
  1
strokes_ogs.tif
102
RTVSPost2010PropOp54
 70
     1
102
RTVSPost2010Prop55
280
     0
102
RTVSPost2010PropOp55
 70
     1
102
RTVSPost2010Prop56
140
1.0
102
RTVSPost2010PropOp56
 70
     1
102
RTVSPost2010Prop57
140
1.0
102
RTVSPost2010PropOp57
 70
     1
102
RTVSPropertyOp0
 70
     1
102
RTVSPropertyOp1
 70
     1
102
RTVSPropertyOp2
 70
     1
102
RTVSPropertyOp3
 70
     1
102
RTVSPropertyOp4
 70
     1
102
RTVSPropertyOp5
 70
     1
102
RTVSPropertyOp6
 70
     1
102
RTVSPropertyOp7
 70
     1
102
RTVSPropertyOp8
 70
     1
102
RTVSPropertyOp9
 70
     1
102
RTVSPropertyOp10
 70
     1
102
RTVSPropertyOp11
 70
     1
102
RTVSPropertyOp12
 70
     1
102
RTVSPropertyOp13
 70
     1
102
RTVSPropertyOp14
 70
     1
102
RTVSPropertyOp15
 70
     1
102
RTVSPropertyOp16
 70
     1
102
RTVSPropertyOp17
 70
     1
102
RTVSPropertyOp18
 70
     1
102
RTVSPropertyOp19
 70
     1
102
RTVSPropertyOp20
 70
     1
102
RTVSPropertyOp21
 70
     1
102
RTVSPropertyOp22
 70
     1
102
RTVSPropertyOp23
 70
     1
102
RTVSPropertyOp24
 70
     1
102
RTVSPropertyOp25
 70
     1
102
RTVSPropertyOp26
 70
     1
102
RTVSPropertyOp27
 70
     1
102
RTVSPropertyOp28
 70
     1
102
RTVSPropertyOp29
 70
     1
102
RTVSPropertyOp30
 70
     1
102
RTVSPropertyOp31
 70
     1
102
RTVSPropertyOp32
 70
     1
102
RTVSPropertyOp33
 70
     1
102
RTVSPropertyOp34
 70
     1
102
RTVSPropertyOp35
 70
     1
102
RTVSPropertyOp36
 70
     1
102
RTVSPropertyOp37
 70
     1
102
RTVSPropertyOp38
 70
     1
102
RTVSPropertyOp39
 70
     1
102
RTVSPropertyOp40
 70
     1
102
RTVSPropertyOp41
 70
     1
102
RTVSPropertyOp42
 70
     1
102
RTVSPropertyOp43
 70
     1
102
RTVSPropertyOp44
 70
     1
102
RTVSPropertyOp45
 70
     1
102
RTVSPropertyOp46
 70
     1
102
RTVSPropertyOp47
 70
     1
102
RTVSPropertyOp48
 70
     1
102
RTVSPropertyOp49
 70
     1
102
RTVSPropertyOp50
 70
     1
102
RTVSPropertyOp51
 70
     0
102
RTVSPropertyOp52
 70
     0
102
RTVSPropertyOp53
 70
     1
102
RTVSPropertyOp54
 70
     1
102
RTVSPropertyOp55
 70
     1
102
RTVSPropertyOp56
 70
     1
102
RTVSPropertyOp57
 70
     1
102
RTVSPropertyOp58
 70
     1
102
RTVSPropertyOp59
 70
     1
102
RTVSPropertyOp60
 70
     1
102
RTVSPropertyOp61
 70
     1
102
RTVSPropertyOp62
 70
     1
  0
XRECORD
  5
22B
102
{ACAD_REACTORS
330
22A
102
}
330
22A
100
AcDbXrecord
280
     1
102
RTVSPost2010Prop28
280
     0
102
RTVSPost2010PropOp28
 70
     1
102
RTVSPost2010Prop29
280
     1
102
RTVSPost2010PropOp29
 70
     1
102
RTVSPost2010Prop30
280
     1
102
RTVSPost2010PropOp30
 70
     1
102
RTVSPost2010Prop31
280
     0
102
RTVSPost2010PropOp31
 70
     1
102
RTVSPost2010Prop32
280
     0
102
RTVSPost2010PropOp32
 70
     1
102
RTVSPost2010Prop33
280
     0
102
RTVSPost2010PropOp33
 70
     1
102
RTVSPost2010Prop34
280
     0
102
RTVSPost2010PropOp34
 70
     1
102
RTVSPost2010Prop35
280
     0
102
RTVSPost2010PropOp35
 70
     1
102
RTVSPost2010Prop36
280
     0
102
RTVSPost2010PropOp36
 70
     1
102
RTVSPost2010Prop37
 90
       50
102
RTVSPost2010PropOp37
 70
     1
102
RTVSPost2010Prop38
140
0.0
102
RTVSPost2010PropOp38
 70
     1
102
RTVSPost2010Prop39
140
1.0
102
RTVSPost2010PropOp39
 70
     1
102
RTVSPost2010Prop40
 90
        0
102
RTVSPost2010PropOp40
 70
     1
102
RTVSPost2010Prop41ColorIndex
 90
       18
102
RTVSPost2010Prop41ColorRGB
 90
        0
102
RTVSPost2010PropOp41
 70
     1
102
RTVSPost2010Prop42
 90
       50
102
RTVSPost2010PropOp42
 70
     1
102
RTVSPost2010Prop43
 90
        3
102
RTVSPost2010PropOp43
 70
     1
102
RTVSPost2010Prop44ColorIndex
 90
        5
102
RTVSPost2010Prop44ColorRGB
 90
      255
102
RTVSPost2010PropOp44
 70
     1
102
RTVSPost2010Prop45
280
     0
102
RTVSPost2010PropOp45
 70
     1
102
RTVSPost2010Prop46
 90
       50
102
RTVSPost2010PropOp46
 70
     1
102
RTVSPost2010Prop47
 90
       50
102
RTVSPost2010PropOp47
 70
     1
102
RTVSPost2010Prop48
 90
       50
102
RTVSPost2010PropOp48
 70
     1
102
RTVSPost2010Prop49
280
     0
102
RTVSPost2010PropOp49
 70
     1
102
RTVSPost2010Prop50
 90
       50
102
RTVSPost2010PropOp50
 70
     1
102
RTVSPost2010Prop51ColorIndex
 90
      256
102
RTVSPost2010Prop51ColorRGB
 90
-16777216
102
RTVSPost2010PropOp51
 70
     0
102
RTVSPost2010Prop52
140
1.0
102
RTVSPost2010PropOp52
 70
     0
102
RTVSPost2010Prop53
 90
        2
102
RTVSPost2010PropOp53
 70
     1
102
RTVSPost2010Prop54
  1
strokes_ogs.tif
102
RTVSPost2010PropOp54
 70
     1
102
RTVSPost2010Prop55
280
     0
102
RTVSPost2010PropOp55
 70
     1
102
RTVSPost2010Prop56
140
1.0
102
RTVSPost2010PropOp56
 70
     1
102
RTVSPost2010Prop57
140
1.0
102
RTVSPost2010PropOp57
 70
     1
102
RTVSPropertyOp0
 70
     1
102
RTVSPropertyOp1
 70
     1
102
RTVSPropertyOp2
 70
     1
102
RTVSPropertyOp3
 70
     1
102
RTVSPropertyOp4
 70
     1
102
RTVSPropertyOp5
 70
     1
102
RTVSPropertyOp6
 70
     1
102
RTVSPropertyOp7
 70
     1
102
RTVSPropertyOp8
 70
     1
102
RTVSPropertyOp9
 70
     1
102
RTVSPropertyOp10
 70
     1
102
RTVSPropertyOp11
 70
     1
102
RTVSPropertyOp12
 70
     1
102
RTVSPropertyOp13
 70
     1
102
RTVSPropertyOp14
 70
     1
102
RTVSPropertyOp15
 70
     1
102
RTVSPropertyOp16
 70
     1
102
RTVSPropertyOp17
 70
     1
102
RTVSPropertyOp18
 70
     1
102
RTVSPropertyOp19
 70
     1
102
RTVSPropertyOp20
 70
     1
102
RTVSPropertyOp21
 70
     1
102
RTVSPropertyOp22
 70
     1
102
RTVSPropertyOp23
 70
     1
102
RTVSPropertyOp24
 70
     1
102
RTVSPropertyOp25
 70
     1
102
RTVSPropertyOp26
 70
     1
102
RTVSPropertyOp27
 70
     1
102
RTVSPropertyOp28
 70
     1
102
RTVSPropertyOp29
 70
     1
102
RTVSPropertyOp30
 70
     1
102
RTVSPropertyOp31
 70
     1
102
RTVSPropertyOp32
 70
     1
102
RTVSPropertyOp33
 70
     1
102
RTVSPropertyOp34
 70
     1
102
RTVSPropertyOp35
 70
     1
102
RTVSPropertyOp36
 70
     1
102
RTVSPropertyOp37
 70
     1
102
RTVSPropertyOp38
 70
     1
102
RTVSPropertyOp39
 70
     1
102
RTVSPropertyOp40
 70
     1
102
RTVSPropertyOp41
 70
     1
102
RTVSPropertyOp42
 70
     1
102
RTVSPropertyOp43
 70
     1
102
RTVSPropertyOp44
 70
     1
102
RTVSPropertyOp45
 70
     1
102
RTVSPropertyOp46
 70
     1
102
RTVSPropertyOp47
 70
     1
102
RTVSPropertyOp48
 70
     1
102
RTVSPropertyOp49
 70
     1
102
RTVSPropertyOp50
 70
     1
102
RTVSPropertyOp51
 70
     0
102
RTVSPropertyOp52
 70
     0
102
RTVSPropertyOp53
 70
     1
102
RTVSPropertyOp54
 70
     1
102
RTVSPropertyOp55
 70
     1
102
RTVSPropertyOp56
 70
     1
102
RTVSPropertyOp57
 70
     1
102
RTVSPropertyOp58
 70
     1
102
RTVSPropertyOp59
 70
     1
102
RTVSPropertyOp60
 70
     1
102
RTVSPropertyOp61
 70
     1
102
RTVSPropertyOp62
 70
     1
  0
XRECORD
  5
239
102
{ACAD_REACTORS
330
238
102
}
330
238
100
AcDbXrecord
280
     1
102
RTVSPost2010Prop28
280
     0
102
RTVSPost2010PropOp28
 70
     1
102
RTVSPost2010Prop29
280
     1
102
RTVSPost2010PropOp29
 70
     1
102
RTVSPost2010Prop30
280
     1
102
RTVSPost2010PropOp30
 70
     1
102
RTVSPost2010Prop31
280
     0
102
RTVSPost2010PropOp31
 70
     1
102
RTVSPost2010Prop32
280
     0
102
RTVSPost2010PropOp32
 70
     1
102
RTVSPost2010Prop33
280
     0
102
RTVSPost2010PropOp33
 70
     1
102
RTVSPost2010Prop34
280
     0
102
RTVSPost2010PropOp34
 70
     1
102
RTVSPost2010Prop35
280
     0
102
RTVSPost2010PropOp35
 70
     1
102
RTVSPost2010Prop36
280
     0
102
RTVSPost2010PropOp36
 70
     1
102
RTVSPost2010Prop37
 90
       50
102
RTVSPost2010PropOp37
 70
     1
102
RTVSPost2010Prop38
140
0.0
102
RTVSPost2010PropOp38
 70
     1
102
RTVSPost2010Prop39
140
1.0
102
RTVSPost2010PropOp39
 70
     1
102
RTVSPost2010Prop40
 90
        0
102
RTVSPost2010PropOp40
 70
     1
102
RTVSPost2010Prop41ColorIndex
 90
       18
102
RTVSPost2010Prop41ColorRGB
 90
        0
102
RTVSPost2010PropOp41
 70
     1
102
RTVSPost2010Prop42
 90
       50
102
RTVSPost2010PropOp42
 70
     1
102
RTVSPost2010Prop43
 90
        3
102
RTVSPost2010PropOp43
 70
     1
102
RTVSPost2010Prop44ColorIndex
 90
        5
102
RTVSPost2010Prop44ColorRGB
 90
      255
102
RTVSPost2010PropOp44
 70
     1
102
RTVSPost2010Prop45
280
     0
102
RTVSPost2010PropOp45
 70
     1
102
RTVSPost2010Prop46
 90
       50
102
RTVSPost2010PropOp46
 70
     1
102
RTVSPost2010Prop47
 90
       50
102
RTVSPost2010PropOp47
 70
     1
102
RTVSPost2010Prop48
 90
       50
102
RTVSPost2010PropOp48
 70
     1
102
RTVSPost2010Prop49
280
     0
102
RTVSPost2010PropOp49
 70
     1
102
RTVSPost2010Prop50
 90
       50
102
RTVSPost2010PropOp50
 70
     1
102
RTVSPost2010Prop51ColorIndex
 90
      256
102
RTVSPost2010Prop51ColorRGB
 90
-16777216
102
RTVSPost2010PropOp51
 70
     0
102
RTVSPost2010Prop52
140
1.0
102
RTVSPost2010PropOp52
 70
     0
102
RTVSPost2010Prop53
 90
        2
102
RTVSPost2010PropOp53
 70
     1
102
RTVSPost2010Prop54
  1
strokes_ogs.tif
102
RTVSPost2010PropOp54
 70
     1
102
RTVSPost2010Prop55
280
     0
102
RTVSPost2010PropOp55
 70
     1
102
RTVSPost2010Prop56
140
1.0
102
RTVSPost2010PropOp56
 70
     1
102
RTVSPost2010Prop57
140
1.0
102
RTVSPost2010PropOp57
 70
     1
102
RTVSPropertyOp0
 70
     1
102
RTVSPropertyOp1
 70
     1
102
RTVSPropertyOp2
 70
     1
102
RTVSPropertyOp3
 70
     1
102
RTVSPropertyOp4
 70
     1
102
RTVSPropertyOp5
 70
     1
102
RTVSPropertyOp6
 70
     1
102
RTVSPropertyOp7
 70
     1
102
RTVSPropertyOp8
 70
     1
102
RTVSPropertyOp9
 70
     1
102
RTVSPropertyOp10
 70
     1
102
RTVSPropertyOp11
 70
     1
102
RTVSPropertyOp12
 70
     1
102
RTVSPropertyOp13
 70
     1
102
RTVSPropertyOp14
 70
     1
102
RTVSPropertyOp15
 70
     1
102
RTVSPropertyOp16
 70
     1
102
RTVSPropertyOp17
 70
     1
102
RTVSPropertyOp18
 70
     1
102
RTVSPropertyOp19
 70
     1
102
RTVSPropertyOp20
 70
     1
102
RTVSPropertyOp21
 70
     1
102
RTVSPropertyOp22
 70
     1
102
RTVSPropertyOp23
 70
     1
102
RTVSPropertyOp24
 70
     1
102
RTVSPropertyOp25
 70
     1
102
RTVSPropertyOp26
 70
     1
102
RTVSPropertyOp27
 70
     1
102
RTVSPropertyOp28
 70
     1
102
RTVSPropertyOp29
 70
     1
102
RTVSPropertyOp30
 70
     1
102
RTVSPropertyOp31
 70
     1
102
RTVSPropertyOp32
 70
     1
102
RTVSPropertyOp33
 70
     1
102
RTVSPropertyOp34
 70
     1
102
RTVSPropertyOp35
 70
     1
102
RTVSPropertyOp36
 70
     1
102
RTVSPropertyOp37
 70
     1
102
RTVSPropertyOp38
 70
     1
102
RTVSPropertyOp39
 70
     1
102
RTVSPropertyOp40
 70
     1
102
RTVSPropertyOp41
 70
     1
102
RTVSPropertyOp42
 70
     1
102
RTVSPropertyOp43
 70
     1
102
RTVSPropertyOp44
 70
     1
102
RTVSPropertyOp45
 70
     1
102
RTVSPropertyOp46
 70
     1
102
RTVSPropertyOp47
 70
     1
102
RTVSPropertyOp48
 70
     1
102
RTVSPropertyOp49
 70
     1
102
RTVSPropertyOp50
 70
     1
102
RTVSPropertyOp51
 70
     0
102
RTVSPropertyOp52
 70
     0
102
RTVSPropertyOp53
 70
     1
102
RTVSPropertyOp54
 70
     1
102
RTVSPropertyOp55
 70
     1
102
RTVSPropertyOp56
 70
     1
102
RTVSPropertyOp57
 70
     1
102
RTVSPropertyOp58
 70
     1
102
RTVSPropertyOp59
 70
     1
102
RTVSPropertyOp60
 70
     1
102
RTVSPropertyOp61
 70
     1
102
RTVSPropertyOp62
 70
     1
  0
XRECORD
  5
241
102
{ACAD_REACTORS
330
240
102
}
330
240
100
AcDbXrecord
280
     1
102
RTVSPost2010Prop28
280
     0
102
RTVSPost2010PropOp28
 70
     1
102
RTVSPost2010Prop29
280
     1
102
RTVSPost2010PropOp29
 70
     1
102
RTVSPost2010Prop30
280
     1
102
RTVSPost2010PropOp30
 70
     1
102
RTVSPost2010Prop31
280
     0
102
RTVSPost2010PropOp31
 70
     1
102
RTVSPost2010Prop32
280
     0
102
RTVSPost2010PropOp32
 70
     1
102
RTVSPost2010Prop33
280
     0
102
RTVSPost2010PropOp33
 70
     1
102
RTVSPost2010Prop34
280
     0
102
RTVSPost2010PropOp34
 70
     1
102
RTVSPost2010Prop35
280
     0
102
RTVSPost2010PropOp35
 70
     1
102
RTVSPost2010Prop36
280
     0
102
RTVSPost2010PropOp36
 70
     1
102
RTVSPost2010Prop37
 90
       50
102
RTVSPost2010PropOp37
 70
     1
102
RTVSPost2010Prop38
140
0.0
102
RTVSPost2010PropOp38
 70
     1
102
RTVSPost2010Prop39
140
1.0
102
RTVSPost2010PropOp39
 70
     1
102
RTVSPost2010Prop40
 90
        0
102
RTVSPost2010PropOp40
 70
     1
102
RTVSPost2010Prop41ColorIndex
 90
       18
102
RTVSPost2010Prop41ColorRGB
 90
        0
102
RTVSPost2010PropOp41
 70
     1
102
RTVSPost2010Prop42
 90
       50
102
RTVSPost2010PropOp42
 70
     1
102
RTVSPost2010Prop43
 90
        3
102
RTVSPost2010PropOp43
 70
     1
102
RTVSPost2010Prop44ColorIndex
 90
        5
102
RTVSPost2010Prop44ColorRGB
 90
      255
102
RTVSPost2010PropOp44
 70
     1
102
RTVSPost2010Prop45
280
     0
102
RTVSPost2010PropOp45
 70
     1
102
RTVSPost2010Prop46
 90
       50
102
RTVSPost2010PropOp46
 70
     1
102
RTVSPost2010Prop47
 90
       50
102
RTVSPost2010PropOp47
 70
     1
102
RTVSPost2010Prop48
 90
       50
102
RTVSPost2010PropOp48
 70
     1
102
RTVSPost2010Prop49
280
     0
102
RTVSPost2010PropOp49
 70
     1
102
RTVSPost2010Prop50
 90
       50
102
RTVSPost2010PropOp50
 70
     1
102
RTVSPost2010Prop51ColorIndex
 90
      256
102
RTVSPost2010Prop51ColorRGB
 90
-16777216
102
RTVSPost2010PropOp51
 70
     0
102
RTVSPost2010Prop52
140
1.0
102
RTVSPost2010PropOp52
 70
     0
102
RTVSPost2010Prop53
 90
        2
102
RTVSPost2010PropOp53
 70
     1
102
RTVSPost2010Prop54
  1
strokes_ogs.tif
102
RTVSPost2010PropOp54
 70
     1
102
RTVSPost2010Prop55
280
     0
102
RTVSPost2010PropOp55
 70
     1
102
RTVSPost2010Prop56
140
1.0
102
RTVSPost2010PropOp56
 70
     1
102
RTVSPost2010Prop57
140
1.0
102
RTVSPost2010PropOp57
 70
     1
102
RTVSPropertyOp0
 70
     1
102
RTVSPropertyOp1
 70
     1
102
RTVSPropertyOp2
 70
     1
102
RTVSPropertyOp3
 70
     1
102
RTVSPropertyOp4
 70
     1
102
RTVSPropertyOp5
 70
     1
102
RTVSPropertyOp6
 70
     1
102
RTVSPropertyOp7
 70
     1
102
RTVSPropertyOp8
 70
     1
102
RTVSPropertyOp9
 70
     1
102
RTVSPropertyOp10
 70
     1
102
RTVSPropertyOp11
 70
     1
102
RTVSPropertyOp12
 70
     1
102
RTVSPropertyOp13
 70
     1
102
RTVSPropertyOp14
 70
     1
102
RTVSPropertyOp15
 70
     1
102
RTVSPropertyOp16
 70
     1
102
RTVSPropertyOp17
 70
     1
102
RTVSPropertyOp18
 70
     1
102
RTVSPropertyOp19
 70
     1
102
RTVSPropertyOp20
 70
     1
102
RTVSPropertyOp21
 70
     1
102
RTVSPropertyOp22
 70
     1
102
RTVSPropertyOp23
 70
     1
102
RTVSPropertyOp24
 70
     1
102
RTVSPropertyOp25
 70
     1
102
RTVSPropertyOp26
 70
     1
102
RTVSPropertyOp27
 70
     1
102
RTVSPropertyOp28
 70
     1
102
RTVSPropertyOp29
 70
     1
102
RTVSPropertyOp30
 70
     1
102
RTVSPropertyOp31
 70
     1
102
RTVSPropertyOp32
 70
     1
102
RTVSPropertyOp33
 70
     1
102
RTVSPropertyOp34
 70
     1
102
RTVSPropertyOp35
 70
     1
102
RTVSPropertyOp36
 70
     1
102
RTVSPropertyOp37
 70
     1
102
RTVSPropertyOp38
 70
     1
102
RTVSPropertyOp39
 70
     1
102
RTVSPropertyOp40
 70
     1
102
RTVSPropertyOp41
 70
     1
102
RTVSPropertyOp42
 70
     1
102
RTVSPropertyOp43
 70
     1
102
RTVSPropertyOp44
 70
     1
102
RTVSPropertyOp45
 70
     1
102
RTVSPropertyOp46
 70
     1
102
RTVSPropertyOp47
 70
     1
102
RTVSPropertyOp48
 70
     1
102
RTVSPropertyOp49
 70
     1
102
RTVSPropertyOp50
 70
     1
102
RTVSPropertyOp51
 70
     0
102
RTVSPropertyOp52
 70
     0
102
RTVSPropertyOp53
 70
     1
102
RTVSPropertyOp54
 70
     1
102
RTVSPropertyOp55
 70
     1
102
RTVSPropertyOp56
 70
     1
102
RTVSPropertyOp57
 70
     1
102
RTVSPropertyOp58
 70
     1
102
RTVSPropertyOp59
 70
     1
102
RTVSPropertyOp60
 70
     1
102
RTVSPropertyOp61
 70
     1
102
RTVSPropertyOp62
 70
     1
  0
XRECORD
  5
233
102
{ACAD_REACTORS
330
232
102
}
330
232
100
AcDbXrecord
280
     1
102
RTVSPost2010Prop28
280
     0
102
RTVSPost2010PropOp28
 70
     1
102
RTVSPost2010Prop29
280
     1
102
RTVSPost2010PropOp29
 70
     1
102
RTVSPost2010Prop30
280
     1
102
RTVSPost2010PropOp30
 70
     1
102
RTVSPost2010Prop31
280
     0
102
RTVSPost2010PropOp31
 70
     1
102
RTVSPost2010Prop32
280
     0
102
RTVSPost2010PropOp32
 70
     1
102
RTVSPost2010Prop33
280
     0
102
RTVSPost2010PropOp33
 70
     1
102
RTVSPost2010Prop34
280
     0
102
RTVSPost2010PropOp34
 70
     1
102
RTVSPost2010Prop35
280
     0
102
RTVSPost2010PropOp35
 70
     1
102
RTVSPost2010Prop36
280
     0
102
RTVSPost2010PropOp36
 70
     1
102
RTVSPost2010Prop37
 90
       50
102
RTVSPost2010PropOp37
 70
     1
102
RTVSPost2010Prop38
140
0.0
102
RTVSPost2010PropOp38
 70
     1
102
RTVSPost2010Prop39
140
1.0
102
RTVSPost2010PropOp39
 70
     1
102
RTVSPost2010Prop40
 90
        0
102
RTVSPost2010PropOp40
 70
     1
102
RTVSPost2010Prop41ColorIndex
 90
       18
102
RTVSPost2010Prop41ColorRGB
 90
        0
102
RTVSPost2010PropOp41
 70
     1
102
RTVSPost2010Prop42
 90
       50
102
RTVSPost2010PropOp42
 70
     1
102
RTVSPost2010Prop43
 90
        3
102
RTVSPost2010PropOp43
 70
     1
102
RTVSPost2010Prop44ColorIndex
 90
        5
102
RTVSPost2010Prop44ColorRGB
 90
      255
102
RTVSPost2010PropOp44
 70
     1
102
RTVSPost2010Prop45
280
     0
102
RTVSPost2010PropOp45
 70
     1
102
RTVSPost2010Prop46
 90
       50
102
RTVSPost2010PropOp46
 70
     1
102
RTVSPost2010Prop47
 90
       50
102
RTVSPost2010PropOp47
 70
     1
102
RTVSPost2010Prop48
 90
       50
102
RTVSPost2010PropOp48
 70
     1
102
RTVSPost2010Prop49
280
     0
102
RTVSPost2010PropOp49
 70
     1
102
RTVSPost2010Prop50
 90
       50
102
RTVSPost2010PropOp50
 70
     1
102
RTVSPost2010Prop51ColorIndex
 90
      256
102
RTVSPost2010Prop51ColorRGB
 90
-16777216
102
RTVSPost2010PropOp51
 70
     0
102
RTVSPost2010Prop52
140
1.0
102
RTVSPost2010PropOp52
 70
     0
102
RTVSPost2010Prop53
 90
        2
102
RTVSPost2010PropOp53
 70
     1
102
RTVSPost2010Prop54
  1
strokes_ogs.tif
102
RTVSPost2010PropOp54
 70
     1
102
RTVSPost2010Prop55
280
     0
102
RTVSPost2010PropOp55
 70
     1
102
RTVSPost2010Prop56
140
1.0
102
RTVSPost2010PropOp56
 70
     1
102
RTVSPost2010Prop57
140
1.0
102
RTVSPost2010PropOp57
 70
     1
102
RTVSPropertyOp0
 70
     1
102
RTVSPropertyOp1
 70
     1
102
RTVSPropertyOp2
 70
     1
102
RTVSPropertyOp3
 70
     1
102
RTVSPropertyOp4
 70
     1
102
RTVSPropertyOp5
 70
     1
102
RTVSPropertyOp6
 70
     1
102
RTVSPropertyOp7
 70
     1
102
RTVSPropertyOp8
 70
     1
102
RTVSPropertyOp9
 70
     1
102
RTVSPropertyOp10
 70
     1
102
RTVSPropertyOp11
 70
     1
102
RTVSPropertyOp12
 70
     1
102
RTVSPropertyOp13
 70
     1
102
RTVSPropertyOp14
 70
     1
102
RTVSPropertyOp15
 70
     1
102
RTVSPropertyOp16
 70
     1
102
RTVSPropertyOp17
 70
     1
102
RTVSPropertyOp18
 70
     1
102
RTVSPropertyOp19
 70
     1
102
RTVSPropertyOp20
 70
     1
102
RTVSPropertyOp21
 70
     1
102
RTVSPropertyOp22
 70
     1
102
RTVSPropertyOp23
 70
     1
102
RTVSPropertyOp24
 70
     1
102
RTVSPropertyOp25
 70
     1
102
RTVSPropertyOp26
 70
     1
102
RTVSPropertyOp27
 70
     1
102
RTVSPropertyOp28
 70
     1
102
RTVSPropertyOp29
 70
     1
102
RTVSPropertyOp30
 70
     1
102
RTVSPropertyOp31
 70
     1
102
RTVSPropertyOp32
 70
     1
102
RTVSPropertyOp33
 70
     1
102
RTVSPropertyOp34
 70
     1
102
RTVSPropertyOp35
 70
     1
102
RTVSPropertyOp36
 70
     1
102
RTVSPropertyOp37
 70
     1
102
RTVSPropertyOp38
 70
     1
102
RTVSPropertyOp39
 70
     1
102
RTVSPropertyOp40
 70
     1
102
RTVSPropertyOp41
 70
     1
102
RTVSPropertyOp42
 70
     1
102
RTVSPropertyOp43
 70
     1
102
RTVSPropertyOp44
 70
     1
102
RTVSPropertyOp45
 70
     1
102
RTVSPropertyOp46
 70
     1
102
RTVSPropertyOp47
 70
     1
102
RTVSPropertyOp48
 70
     1
102
RTVSPropertyOp49
 70
     1
102
RTVSPropertyOp50
 70
     1
102
RTVSPropertyOp51
 70
     0
102
RTVSPropertyOp52
 70
     0
102
RTVSPropertyOp53
 70
     1
102
RTVSPropertyOp54
 70
     1
102
RTVSPropertyOp55
 70
     1
102
RTVSPropertyOp56
 70
     1
102
RTVSPropertyOp57
 70
     1
102
RTVSPropertyOp58
 70
     1
102
RTVSPropertyOp59
 70
     1
102
RTVSPropertyOp60
 70
     1
102
RTVSPropertyOp61
 70
     1
102
RTVSPropertyOp62
 70
     1
  0
XRECORD
  5
237
102
{ACAD_REACTORS
330
236
102
}
330
236
100
AcDbXrecord
280
     1
102
RTVSPost2010Prop28
280
     0
102
RTVSPost2010PropOp28
 70
     1
102
RTVSPost2010Prop29
280
     1
102
RTVSPost2010PropOp29
 70
     1
102
RTVSPost2010Prop30
280
     1
102
RTVSPost2010PropOp30
 70
     1
102
RTVSPost2010Prop31
280
     0
102
RTVSPost2010PropOp31
 70
     1
102
RTVSPost2010Prop32
280
     0
102
RTVSPost2010PropOp32
 70
     1
102
RTVSPost2010Prop33
280
     0
102
RTVSPost2010PropOp33
 70
     1
102
RTVSPost2010Prop34
280
     0
102
RTVSPost2010PropOp34
 70
     1
102
RTVSPost2010Prop35
280
     0
102
RTVSPost2010PropOp35
 70
     1
102
RTVSPost2010Prop36
280
     0
102
RTVSPost2010PropOp36
 70
     1
102
RTVSPost2010Prop37
 90
       50
102
RTVSPost2010PropOp37
 70
     1
102
RTVSPost2010Prop38
140
0.0
102
RTVSPost2010PropOp38
 70
     1
102
RTVSPost2010Prop39
140
1.0
102
RTVSPost2010PropOp39
 70
     1
102
RTVSPost2010Prop40
 90
        0
102
RTVSPost2010PropOp40
 70
     1
102
RTVSPost2010Prop41ColorIndex
 90
       18
102
RTVSPost2010Prop41ColorRGB
 90
        0
102
RTVSPost2010PropOp41
 70
     1
102
RTVSPost2010Prop42
 90
       50
102
RTVSPost2010PropOp42
 70
     1
102
RTVSPost2010Prop43
 90
        3
102
RTVSPost2010PropOp43
 70
     1
102
RTVSPost2010Prop44ColorIndex
 90
        5
102
RTVSPost2010Prop44ColorRGB
 90
      255
102
RTVSPost2010PropOp44
 70
     1
102
RTVSPost2010Prop45
280
     0
102
RTVSPost2010PropOp45
 70
     1
102
RTVSPost2010Prop46
 90
       50
102
RTVSPost2010PropOp46
 70
     1
102
RTVSPost2010Prop47
 90
       50
102
RTVSPost2010PropOp47
 70
     1
102
RTVSPost2010Prop48
 90
       50
102
RTVSPost2010PropOp48
 70
     1
102
RTVSPost2010Prop49
280
     0
102
RTVSPost2010PropOp49
 70
     1
102
RTVSPost2010Prop50
 90
       50
102
RTVSPost2010PropOp50
 70
     1
102
RTVSPost2010Prop51ColorIndex
 90
      256
102
RTVSPost2010Prop51ColorRGB
 90
-16777216
102
RTVSPost2010PropOp51
 70
     0
102
RTVSPost2010Prop52
140
1.0
102
RTVSPost2010PropOp52
 70
     0
102
RTVSPost2010Prop53
 90
        2
102
RTVSPost2010PropOp53
 70
     1
102
RTVSPost2010Prop54
  1
strokes_ogs.tif
102
RTVSPost2010PropOp54
 70
     1
102
RTVSPost2010Prop55
280
     0
102
RTVSPost2010PropOp55
 70
     1
102
RTVSPost2010Prop56
140
1.0
102
RTVSPost2010PropOp56
 70
     1
102
RTVSPost2010Prop57
140
1.0
102
RTVSPost2010PropOp57
 70
     1
102
RTVSPropertyOp0
 70
     1
102
RTVSPropertyOp1
 70
     1
102
RTVSPropertyOp2
 70
     1
102
RTVSPropertyOp3
 70
     1
102
RTVSPropertyOp4
 70
     1
102
RTVSPropertyOp5
 70
     1
102
RTVSPropertyOp6
 70
     1
102
RTVSPropertyOp7
 70
     1
102
RTVSPropertyOp8
 70
     1
102
RTVSPropertyOp9
 70
     1
102
RTVSPropertyOp10
 70
     1
102
RTVSPropertyOp11
 70
     1
102
RTVSPropertyOp12
 70
     1
102
RTVSPropertyOp13
 70
     1
102
RTVSPropertyOp14
 70
     1
102
RTVSPropertyOp15
 70
     1
102
RTVSPropertyOp16
 70
     1
102
RTVSPropertyOp17
 70
     1
102
RTVSPropertyOp18
 70
     1
102
RTVSPropertyOp19
 70
     1
102
RTVSPropertyOp20
 70
     1
102
RTVSPropertyOp21
 70
     1
102
RTVSPropertyOp22
 70
     1
102
RTVSPropertyOp23
 70
     1
102
RTVSPropertyOp24
 70
     1
102
RTVSPropertyOp25
 70
     1
102
RTVSPropertyOp26
 70
     1
102
RTVSPropertyOp27
 70
     1
102
RTVSPropertyOp28
 70
     1
102
RTVSPropertyOp29
 70
     1
102
RTVSPropertyOp30
 70
     1
102
RTVSPropertyOp31
 70
     1
102
RTVSPropertyOp32
 70
     1
102
RTVSPropertyOp33
 70
     1
102
RTVSPropertyOp34
 70
     1
102
RTVSPropertyOp35
 70
     1
102
RTVSPropertyOp36
 70
     1
102
RTVSPropertyOp37
 70
     1
102
RTVSPropertyOp38
 70
     1
102
RTVSPropertyOp39
 70
     1
102
RTVSPropertyOp40
 70
     1
102
RTVSPropertyOp41
 70
     1
102
RTVSPropertyOp42
 70
     1
102
RTVSPropertyOp43
 70
     1
102
RTVSPropertyOp44
 70
     1
102
RTVSPropertyOp45
 70
     1
102
RTVSPropertyOp46
 70
     1
102
RTVSPropertyOp47
 70
     1
102
RTVSPropertyOp48
 70
     1
102
RTVSPropertyOp49
 70
     1
102
RTVSPropertyOp50
 70
     1
102
RTVSPropertyOp51
 70
     0
102
RTVSPropertyOp52
 70
     0
102
RTVSPropertyOp53
 70
     1
102
RTVSPropertyOp54
 70
     1
102
RTVSPropertyOp55
 70
     1
102
RTVSPropertyOp56
 70
     1
102
RTVSPropertyOp57
 70
     1
102
RTVSPropertyOp58
 70
     1
102
RTVSPropertyOp59
 70
     1
102
RTVSPropertyOp60
 70
     1
102
RTVSPropertyOp61
 70
     1
102
RTVSPropertyOp62
 70
     1
  0
XRECORD
  5
251
102
{ACAD_REACTORS
330
250
102
}
330
250
100
AcDbXrecord
280
     1
102
RTVSPost2010Prop28
280
     0
102
RTVSPost2010PropOp28
 70
     0
102
RTVSPost2010Prop29
280
     1
102
RTVSPost2010PropOp29
 70
     0
102
RTVSPost2010Prop30
280
     1
102
RTVSPost2010PropOp30
 70
     0
102
RTVSPost2010Prop31
280
     0
102
RTVSPost2010PropOp31
 70
     0
102
RTVSPost2010Prop32
280
     0
102
RTVSPost2010PropOp32
 70
     0
102
RTVSPost2010Prop33
280
     0
102
RTVSPost2010PropOp33
 70
     0
102
RTVSPost2010Prop34
280
     0
102
RTVSPost2010PropOp34
 70
     0
102
RTVSPost2010Prop35
280
     0
102
RTVSPost2010PropOp35
 70
     0
102
RTVSPost2010Prop36
280
     0
102
RTVSPost2010PropOp36
 70
     0
102
RTVSPost2010Prop37
 90
       50
102
RTVSPost2010PropOp37
 70
     0
102
RTVSPost2010Prop38
140
0.0
102
RTVSPost2010PropOp38
 70
     0
102
RTVSPost2010Prop39
140
1.0
102
RTVSPost2010PropOp39
 70
     0
102
RTVSPost2010Prop40
 90
        0
102
RTVSPost2010PropOp40
 70
     0
102
RTVSPost2010Prop41ColorIndex
 90
       18
102
RTVSPost2010Prop41ColorRGB
 90
        0
102
RTVSPost2010PropOp41
 70
     0
102
RTVSPost2010Prop42
 90
       50
102
RTVSPost2010PropOp42
 70
     0
102
RTVSPost2010Prop43
 90
        3
102
RTVSPost2010PropOp43
 70
     0
102
RTVSPost2010Prop44ColorIndex
 90
        5
102
RTVSPost2010Prop44ColorRGB
 90
      255
102
RTVSPost2010PropOp44
 70
     0
102
RTVSPost2010Prop45
280
     0
102
RTVSPost2010PropOp45
 70
     0
102
RTVSPost2010Prop46
 90
       50
102
RTVSPost2010PropOp46
 70
     0
102
RTVSPost2010Prop47
 90
       50
102
RTVSPost2010PropOp47
 70
     0
102
RTVSPost2010Prop48
 90
       50
102
RTVSPost2010PropOp48
 70
     0
102
RTVSPost2010Prop49
280
     0
102
RTVSPost2010PropOp49
 70
     0
102
RTVSPost2010Prop50
 90
       50
102
RTVSPost2010PropOp50
 70
     0
102
RTVSPost2010Prop51ColorIndex
 90
      256
102
RTVSPost2010Prop51ColorRGB
 90
-16777216
102
RTVSPost2010PropOp51
 70
     0
102
RTVSPost2010Prop52
140
1.0
102
RTVSPost2010PropOp52
 70
     0
102
RTVSPost2010Prop53
 90
        2
102
RTVSPost2010PropOp53
 70
     0
102
RTVSPost2010Prop54
  1
strokes_ogs.tif
102
RTVSPost2010PropOp54
 70
     0
102
RTVSPost2010Prop55
280
     0
102
RTVSPost2010PropOp55
 70
     0
102
RTVSPost2010Prop56
140
1.0
102
RTVSPost2010PropOp56
 70
     0
102
RTVSPost2010Prop57
140
1.0
102
RTVSPost2010PropOp57
 70
     0
102
RTVSPropertyOp0
 70
     0
102
RTVSPropertyOp1
 70
     0
102
RTVSPropertyOp2
 70
     0
102
RTVSPropertyOp3
 70
     0
102
RTVSPropertyOp4
 70
     0
102
RTVSPropertyOp5
 70
     0
102
RTVSPropertyOp6
 70
     0
102
RTVSPropertyOp7
 70
     0
102
RTVSPropertyOp8
 70
     0
102
RTVSPropertyOp9
 70
     0
102
RTVSPropertyOp10
 70
     0
102
RTVSPropertyOp11
 70
     0
102
RTVSPropertyOp12
 70
     0
102
RTVSPropertyOp13
 70
     0
102
RTVSPropertyOp14
 70
     2
102
RTVSPropertyOp15
 70
     0
102
RTVSPropertyOp16
 70
     0
102
RTVSPropertyOp17
 70
     0
102
RTVSPropertyOp18
 70
     0
102
RTVSPropertyOp19
 70
     0
102
RTVSPropertyOp20
 70
     0
102
RTVSPropertyOp21
 70
     0
102
RTVSPropertyOp22
 70
     0
102
RTVSPropertyOp23
 70
     0
102
RTVSPropertyOp24
 70
     0
102
RTVSPropertyOp25
 70
     0
102
RTVSPropertyOp26
 70
     0
102
RTVSPropertyOp27
 70
     0
102
RTVSPropertyOp28
 70
     0
102
RTVSPropertyOp29
 70
     0
102
RTVSPropertyOp30
 70
     0
102
RTVSPropertyOp31
 70
     0
102
RTVSPropertyOp32
 70
     0
102
RTVSPropertyOp33
 70
     0
102
RTVSPropertyOp34
 70
     0
102
RTVSPropertyOp35
 70
     0
102
RTVSPropertyOp36
 70
     0
102
RTVSPropertyOp37
 70
     0
102
RTVSPropertyOp38
 70
     0
102
RTVSPropertyOp39
 70
     0
102
RTVSPropertyOp40
 70
     0
102
RTVSPropertyOp41
 70
     0
102
RTVSPropertyOp42
 70
     0
102
RTVSPropertyOp43
 70
     0
102
RTVSPropertyOp44
 70
     0
102
RTVSPropertyOp45
 70
     0
102
RTVSPropertyOp46
 70
     0
102
RTVSPropertyOp47
 70
     0
102
RTVSPropertyOp48
 70
     0
102
RTVSPropertyOp49
 70
     0
102
RTVSPropertyOp50
 70
     0
102
RTVSPropertyOp51
 70
     0
102
RTVSPropertyOp52
 70
     0
102
RTVSPropertyOp53
 70
     0
102
RTVSPropertyOp54
 70
     0
102
RTVSPropertyOp55
 70
     0
102
RTVSPropertyOp56
 70
     0
102
RTVSPropertyOp57
 70
     0
102
RTVSPropertyOp58
 70
     0
102
RTVSPropertyOp59
 70
     0
102
RTVSPropertyOp60
 70
     0
102
RTVSPropertyOp61
 70
     0
102
RTVSPropertyOp62
 70
     0
  0
XRECORD
  5
23F
102
{ACAD_REACTORS
330
23E
102
}
330
23E
100
AcDbXrecord
280
     1
102
RTVSPost2010Prop28
280
     0
102
RTVSPost2010PropOp28
 70
     1
102
RTVSPost2010Prop29
280
     1
102
RTVSPost2010PropOp29
 70
     1
102
RTVSPost2010Prop30
280
     1
102
RTVSPost2010PropOp30
 70
     1
102
RTVSPost2010Prop31
280
     0
102
RTVSPost2010PropOp31
 70
     1
102
RTVSPost2010Prop32
280
     0
102
RTVSPost2010PropOp32
 70
     1
102
RTVSPost2010Prop33
280
     0
102
RTVSPost2010PropOp33
 70
     1
102
RTVSPost2010Prop34
280
     0
102
RTVSPost2010PropOp34
 70
     1
102
RTVSPost2010Prop35
280
     0
102
RTVSPost2010PropOp35
 70
     1
102
RTVSPost2010Prop36
280
     0
102
RTVSPost2010PropOp36
 70
     1
102
RTVSPost2010Prop37
 90
       50
102
RTVSPost2010PropOp37
 70
     1
102
RTVSPost2010Prop38
140
0.0
102
RTVSPost2010PropOp38
 70
     1
102
RTVSPost2010Prop39
140
1.0
102
RTVSPost2010PropOp39
 70
     1
102
RTVSPost2010Prop40
 90
        0
102
RTVSPost2010PropOp40
 70
     1
102
RTVSPost2010Prop41ColorIndex
 90
       18
102
RTVSPost2010Prop41ColorRGB
 90
        0
102
RTVSPost2010PropOp41
 70
     1
102
RTVSPost2010Prop42
 90
       50
102
RTVSPost2010PropOp42
 70
     1
102
RTVSPost2010Prop43
 90
        3
102
RTVSPost2010PropOp43
 70
     1
102
RTVSPost2010Prop44ColorIndex
 90
        5
102
RTVSPost2010Prop44ColorRGB
 90
      255
102
RTVSPost2010PropOp44
 70
     1
102
RTVSPost2010Prop45
280
     0
102
RTVSPost2010PropOp45
 70
     1
102
RTVSPost2010Prop46
 90
       50
102
RTVSPost2010PropOp46
 70
     1
102
RTVSPost2010Prop47
 90
       50
102
RTVSPost2010PropOp47
 70
     1
102
RTVSPost2010Prop48
 90
       50
102
RTVSPost2010PropOp48
 70
     1
102
RTVSPost2010Prop49
280
     0
102
RTVSPost2010PropOp49
 70
     1
102
RTVSPost2010Prop50
 90
       50
102
RTVSPost2010PropOp50
 70
     1
102
RTVSPost2010Prop51ColorIndex
 90
      256
102
RTVSPost2010Prop51ColorRGB
 90
-16777216
102
RTVSPost2010PropOp51
 70
     0
102
RTVSPost2010Prop52
140
1.0
102
RTVSPost2010PropOp52
 70
     0
102
RTVSPost2010Prop53
 90
        2
102
RTVSPost2010PropOp53
 70
     1
102
RTVSPost2010Prop54
  1
strokes_ogs.tif
102
RTVSPost2010PropOp54
 70
     1
102
RTVSPost2010Prop55
280
     0
102
RTVSPost2010PropOp55
 70
     1
102
RTVSPost2010Prop56
140
1.0
102
RTVSPost2010PropOp56
 70
     1
102
RTVSPost2010Prop57
140
1.0
102
RTVSPost2010PropOp57
 70
     1
102
RTVSPropertyOp0
 70
     1
102
RTVSPropertyOp1
 70
     1
102
RTVSPropertyOp2
 70
     1
102
RTVSPropertyOp3
 70
     1
102
RTVSPropertyOp4
 70
     1
102
RTVSPropertyOp5
 70
     1
102
RTVSPropertyOp6
 70
     1
102
RTVSPropertyOp7
 70
     1
102
RTVSPropertyOp8
 70
     1
102
RTVSPropertyOp9
 70
     1
102
RTVSPropertyOp10
 70
     1
102
RTVSPropertyOp11
 70
     1
102
RTVSPropertyOp12
 70
     1
102
RTVSPropertyOp13
 70
     1
102
RTVSPropertyOp14
 70
     1
102
RTVSPropertyOp15
 70
     1
102
RTVSPropertyOp16
 70
     1
102
RTVSPropertyOp17
 70
     1
102
RTVSPropertyOp18
 70
     1
102
RTVSPropertyOp19
 70
     1
102
RTVSPropertyOp20
 70
     1
102
RTVSPropertyOp21
 70
     1
102
RTVSPropertyOp22
 70
     1
102
RTVSPropertyOp23
 70
     1
102
RTVSPropertyOp24
 70
     1
102
RTVSPropertyOp25
 70
     1
102
RTVSPropertyOp26
 70
     1
102
RTVSPropertyOp27
 70
     1
102
RTVSPropertyOp28
 70
     1
102
RTVSPropertyOp29
 70
     1
102
RTVSPropertyOp30
 70
     1
102
RTVSPropertyOp31
 70
     1
102
RTVSPropertyOp32
 70
     1
102
RTVSPropertyOp33
 70
     1
102
RTVSPropertyOp34
 70
     1
102
RTVSPropertyOp35
 70
     1
102
RTVSPropertyOp36
 70
     1
102
RTVSPropertyOp37
 70
     1
102
RTVSPropertyOp38
 70
     1
102
RTVSPropertyOp39
 70
     1
102
RTVSPropertyOp40
 70
     1
102
RTVSPropertyOp41
 70
     1
102
RTVSPropertyOp42
 70
     1
102
RTVSPropertyOp43
 70
     1
102
RTVSPropertyOp44
 70
     1
102
RTVSPropertyOp45
 70
     1
102
RTVSPropertyOp46
 70
     1
102
RTVSPropertyOp47
 70
     1
102
RTVSPropertyOp48
 70
     1
102
RTVSPropertyOp49
 70
     1
102
RTVSPropertyOp50
 70
     1
102
RTVSPropertyOp51
 70
     0
102
RTVSPropertyOp52
 70
     0
102
RTVSPropertyOp53
 70
     1
102
RTVSPropertyOp54
 70
     1
102
RTVSPropertyOp55
 70
     1
102
RTVSPropertyOp56
 70
     1
102
RTVSPropertyOp57
 70
     1
102
RTVSPropertyOp58
 70
     1
102
RTVSPropertyOp59
 70
     1
102
RTVSPropertyOp60
 70
     1
102
RTVSPropertyOp61
 70
     1
102
RTVSPropertyOp62
 70
     1
  0
XRECORD
  5
223
102
{ACAD_REACTORS
330
222
102
}
330
222
100
AcDbXrecord
280
     1
102
RTVSPost2010Prop28
280
     0
102
RTVSPost2010PropOp28
 70
     1
102
RTVSPost2010Prop29
280
     1
102
RTVSPost2010PropOp29
 70
     1
102
RTVSPost2010Prop30
280
     1
102
RTVSPost2010PropOp30
 70
     1
102
RTVSPost2010Prop31
280
     0
102
RTVSPost2010PropOp31
 70
     1
102
RTVSPost2010Prop32
280
     0
102
RTVSPost2010PropOp32
 70
     1
102
RTVSPost2010Prop33
280
     0
102
RTVSPost2010PropOp33
 70
     1
102
RTVSPost2010Prop34
280
     0
102
RTVSPost2010PropOp34
 70
     1
102
RTVSPost2010Prop35
280
     0
102
RTVSPost2010PropOp35
 70
     1
102
RTVSPost2010Prop36
280
     0
102
RTVSPost2010PropOp36
 70
     1
102
RTVSPost2010Prop37
 90
       50
102
RTVSPost2010PropOp37
 70
     1
102
RTVSPost2010Prop38
140
0.0
102
RTVSPost2010PropOp38
 70
     1
102
RTVSPost2010Prop39
140
1.0
102
RTVSPost2010PropOp39
 70
     1
102
RTVSPost2010Prop40
 90
        0
102
RTVSPost2010PropOp40
 70
     1
102
RTVSPost2010Prop41ColorIndex
 90
       18
102
RTVSPost2010Prop41ColorRGB
 90
        0
102
RTVSPost2010PropOp41
 70
     1
102
RTVSPost2010Prop42
 90
       50
102
RTVSPost2010PropOp42
 70
     1
102
RTVSPost2010Prop43
 90
        3
102
RTVSPost2010PropOp43
 70
     1
102
RTVSPost2010Prop44ColorIndex
 90
        5
102
RTVSPost2010Prop44ColorRGB
 90
      255
102
RTVSPost2010PropOp44
 70
     1
102
RTVSPost2010Prop45
280
     0
102
RTVSPost2010PropOp45
 70
     1
102
RTVSPost2010Prop46
 90
       50
102
RTVSPost2010PropOp46
 70
     1
102
RTVSPost2010Prop47
 90
       50
102
RTVSPost2010PropOp47
 70
     1
102
RTVSPost2010Prop48
 90
       50
102
RTVSPost2010PropOp48
 70
     1
102
RTVSPost2010Prop49
280
     0
102
RTVSPost2010PropOp49
 70
     1
102
RTVSPost2010Prop50
 90
       50
102
RTVSPost2010PropOp50
 70
     1
102
RTVSPost2010Prop51ColorIndex
 90
      256
102
RTVSPost2010Prop51ColorRGB
 90
-16777216
102
RTVSPost2010PropOp51
 70
     0
102
RTVSPost2010Prop52
140
1.0
102
RTVSPost2010PropOp52
 70
     0
102
RTVSPost2010Prop53
 90
        2
102
RTVSPost2010PropOp53
 70
     1
102
RTVSPost2010Prop54
  1
strokes_ogs.tif
102
RTVSPost2010PropOp54
 70
     1
102
RTVSPost2010Prop55
280
     0
102
RTVSPost2010PropOp55
 70
     1
102
RTVSPost2010Prop56
140
1.0
102
RTVSPost2010PropOp56
 70
     1
102
RTVSPost2010Prop57
140
1.0
102
RTVSPost2010PropOp57
 70
     1
102
RTVSPropertyOp0
 70
     1
102
RTVSPropertyOp1
 70
     1
102
RTVSPropertyOp2
 70
     1
102
RTVSPropertyOp3
 70
     1
102
RTVSPropertyOp4
 70
     1
102
RTVSPropertyOp5
 70
     1
102
RTVSPropertyOp6
 70
     1
102
RTVSPropertyOp7
 70
     1
102
RTVSPropertyOp8
 70
     1
102
RTVSPropertyOp9
 70
     1
102
RTVSPropertyOp10
 70
     1
102
RTVSPropertyOp11
 70
     1
102
RTVSPropertyOp12
 70
     1
102
RTVSPropertyOp13
 70
     1
102
RTVSPropertyOp14
 70
     1
102
RTVSPropertyOp15
 70
     1
102
RTVSPropertyOp16
 70
     1
102
RTVSPropertyOp17
 70
     1
102
RTVSPropertyOp18
 70
     1
102
RTVSPropertyOp19
 70
     1
102
RTVSPropertyOp20
 70
     1
102
RTVSPropertyOp21
 70
     1
102
RTVSPropertyOp22
 70
     1
102
RTVSPropertyOp23
 70
     1
102
RTVSPropertyOp24
 70
     1
102
RTVSPropertyOp25
 70
     1
102
RTVSPropertyOp26
 70
     1
102
RTVSPropertyOp27
 70
     1
102
RTVSPropertyOp28
 70
     1
102
RTVSPropertyOp29
 70
     1
102
RTVSPropertyOp30
 70
     1
102
RTVSPropertyOp31
 70
     1
102
RTVSPropertyOp32
 70
     1
102
RTVSPropertyOp33
 70
     1
102
RTVSPropertyOp34
 70
     1
102
RTVSPropertyOp35
 70
     1
102
RTVSPropertyOp36
 70
     1
102
RTVSPropertyOp37
 70
     1
102
RTVSPropertyOp38
 70
     1
102
RTVSPropertyOp39
 70
     1
102
RTVSPropertyOp40
 70
     1
102
RTVSPropertyOp41
 70
     1
102
RTVSPropertyOp42
 70
     1
102
RTVSPropertyOp43
 70
     1
102
RTVSPropertyOp44
 70
     1
102
RTVSPropertyOp45
 70
     1
102
RTVSPropertyOp46
 70
     1
102
RTVSPropertyOp47
 70
     1
102
RTVSPropertyOp48
 70
     1
102
RTVSPropertyOp49
 70
     1
102
RTVSPropertyOp50
 70
     1
102
RTVSPropertyOp51
 70
     0
102
RTVSPropertyOp52
 70
     0
102
RTVSPropertyOp53
 70
     1
102
RTVSPropertyOp54
 70
     1
102
RTVSPropertyOp55
 70
     1
102
RTVSPropertyOp56
 70
     1
102
RTVSPropertyOp57
 70
     1
102
RTVSPropertyOp58
 70
     1
102
RTVSPropertyOp59
 70
     1
102
RTVSPropertyOp60
 70
     1
102
RTVSPropertyOp61
 70
     1
102
RTVSPropertyOp62
 70
     1
  0
XRECORD
  5
225
102
{ACAD_REACTORS
330
224
102
}
330
224
100
AcDbXrecord
280
     1
102
RTVSPost2010Prop28
280
     0
102
RTVSPost2010PropOp28
 70
     1
102
RTVSPost2010Prop29
280
     1
102
RTVSPost2010PropOp29
 70
     1
102
RTVSPost2010Prop30
280
     1
102
RTVSPost2010PropOp30
 70
     1
102
RTVSPost2010Prop31
280
     0
102
RTVSPost2010PropOp31
 70
     1
102
RTVSPost2010Prop32
280
     0
102
RTVSPost2010PropOp32
 70
     1
102
RTVSPost2010Prop33
280
     0
102
RTVSPost2010PropOp33
 70
     1
102
RTVSPost2010Prop34
280
     0
102
RTVSPost2010PropOp34
 70
     1
102
RTVSPost2010Prop35
280
     0
102
RTVSPost2010PropOp35
 70
     1
102
RTVSPost2010Prop36
280
     0
102
RTVSPost2010PropOp36
 70
     1
102
RTVSPost2010Prop37
 90
       50
102
RTVSPost2010PropOp37
 70
     1
102
RTVSPost2010Prop38
140
0.0
102
RTVSPost2010PropOp38
 70
     1
102
RTVSPost2010Prop39
140
1.0
102
RTVSPost2010PropOp39
 70
     1
102
RTVSPost2010Prop40
 90
        0
102
RTVSPost2010PropOp40
 70
     1
102
RTVSPost2010Prop41ColorIndex
 90
       18
102
RTVSPost2010Prop41ColorRGB
 90
        0
102
RTVSPost2010PropOp41
 70
     1
102
RTVSPost2010Prop42
 90
       50
102
RTVSPost2010PropOp42
 70
     1
102
RTVSPost2010Prop43
 90
        3
102
RTVSPost2010PropOp43
 70
     1
102
RTVSPost2010Prop44ColorIndex
 90
        5
102
RTVSPost2010Prop44ColorRGB
 90
      255
102
RTVSPost2010PropOp44
 70
     1
102
RTVSPost2010Prop45
280
     0
102
RTVSPost2010PropOp45
 70
     1
102
RTVSPost2010Prop46
 90
       50
102
RTVSPost2010PropOp46
 70
     1
102
RTVSPost2010Prop47
 90
       50
102
RTVSPost2010PropOp47
 70
     1
102
RTVSPost2010Prop48
 90
       50
102
RTVSPost2010PropOp48
 70
     1
102
RTVSPost2010Prop49
280
     0
102
RTVSPost2010PropOp49
 70
     1
102
RTVSPost2010Prop50
 90
       50
102
RTVSPost2010PropOp50
 70
     1
102
RTVSPost2010Prop51ColorIndex
 90
      256
102
RTVSPost2010Prop51ColorRGB
 90
-16777216
102
RTVSPost2010PropOp51
 70
     0
102
RTVSPost2010Prop52
140
1.0
102
RTVSPost2010PropOp52
 70
     0
102
RTVSPost2010Prop53
 90
        2
102
RTVSPost2010PropOp53
 70
     1
102
RTVSPost2010Prop54
  1
strokes_ogs.tif
102
RTVSPost2010PropOp54
 70
     1
102
RTVSPost2010Prop55
280
     0
102
RTVSPost2010PropOp55
 70
     1
102
RTVSPost2010Prop56
140
1.0
102
RTVSPost2010PropOp56
 70
     1
102
RTVSPost2010Prop57
140
1.0
102
RTVSPost2010PropOp57
 70
     1
102
RTVSPropertyOp0
 70
     1
102
RTVSPropertyOp1
 70
     1
102
RTVSPropertyOp2
 70
     1
102
RTVSPropertyOp3
 70
     1
102
RTVSPropertyOp4
 70
     1
102
RTVSPropertyOp5
 70
     1
102
RTVSPropertyOp6
 70
     1
102
RTVSPropertyOp7
 70
     1
102
RTVSPropertyOp8
 70
     1
102
RTVSPropertyOp9
 70
     1
102
RTVSPropertyOp10
 70
     1
102
RTVSPropertyOp11
 70
     1
102
RTVSPropertyOp12
 70
     1
102
RTVSPropertyOp13
 70
     1
102
RTVSPropertyOp14
 70
     1
102
RTVSPropertyOp15
 70
     1
102
RTVSPropertyOp16
 70
     1
102
RTVSPropertyOp17
 70
     1
102
RTVSPropertyOp18
 70
     1
102
RTVSPropertyOp19
 70
     1
102
RTVSPropertyOp20
 70
     1
102
RTVSPropertyOp21
 70
     1
102
RTVSPropertyOp22
 70
     1
102
RTVSPropertyOp23
 70
     1
102
RTVSPropertyOp24
 70
     1
102
RTVSPropertyOp25
 70
     1
102
RTVSPropertyOp26
 70
     1
102
RTVSPropertyOp27
 70
     1
102
RTVSPropertyOp28
 70
     1
102
RTVSPropertyOp29
 70
     1
102
RTVSPropertyOp30
 70
     1
102
RTVSPropertyOp31
 70
     1
102
RTVSPropertyOp32
 70
     1
102
RTVSPropertyOp33
 70
     1
102
RTVSPropertyOp34
 70
     1
102
RTVSPropertyOp35
 70
     1
102
RTVSPropertyOp36
 70
     1
102
RTVSPropertyOp37
 70
     1
102
RTVSPropertyOp38
 70
     1
102
RTVSPropertyOp39
 70
     1
102
RTVSPropertyOp40
 70
     1
102
RTVSPropertyOp41
 70
     1
102
RTVSPropertyOp42
 70
     1
102
RTVSPropertyOp43
 70
     1
102
RTVSPropertyOp44
 70
     1
102
RTVSPropertyOp45
 70
     1
102
RTVSPropertyOp46
 70
     1
102
RTVSPropertyOp47
 70
     1
102
RTVSPropertyOp48
 70
     1
102
RTVSPropertyOp49
 70
     1
102
RTVSPropertyOp50
 70
     1
102
RTVSPropertyOp51
 70
     0
102
RTVSPropertyOp52
 70
     0
102
RTVSPropertyOp53
 70
     1
102
RTVSPropertyOp54
 70
     1
102
RTVSPropertyOp55
 70
     1
102
RTVSPropertyOp56
 70
     1
102
RTVSPropertyOp57
 70
     1
102
RTVSPropertyOp58
 70
     1
102
RTVSPropertyOp59
 70
     1
102
RTVSPropertyOp60
 70
     1
102
RTVSPropertyOp61
 70
     1
102
RTVSPropertyOp62
 70
     1
  0
XRECORD
  5
227
102
{ACAD_REACTORS
330
226
102
}
330
226
100
AcDbXrecord
280
     1
102
RTVSPost2010Prop28
280
     0
102
RTVSPost2010PropOp28
 70
     1
102
RTVSPost2010Prop29
280
     1
102
RTVSPost2010PropOp29
 70
     1
102
RTVSPost2010Prop30
280
     1
102
RTVSPost2010PropOp30
 70
     1
102
RTVSPost2010Prop31
280
     0
102
RTVSPost2010PropOp31
 70
     1
102
RTVSPost2010Prop32
280
     0
102
RTVSPost2010PropOp32
 70
     1
102
RTVSPost2010Prop33
280
     0
102
RTVSPost2010PropOp33
 70
     1
102
RTVSPost2010Prop34
280
     0
102
RTVSPost2010PropOp34
 70
     1
102
RTVSPost2010Prop35
280
     0
102
RTVSPost2010PropOp35
 70
     1
102
RTVSPost2010Prop36
280
     0
102
RTVSPost2010PropOp36
 70
     1
102
RTVSPost2010Prop37
 90
       50
102
RTVSPost2010PropOp37
 70
     1
102
RTVSPost2010Prop38
140
0.0
102
RTVSPost2010PropOp38
 70
     1
102
RTVSPost2010Prop39
140
1.0
102
RTVSPost2010PropOp39
 70
     1
102
RTVSPost2010Prop40
 90
        0
102
RTVSPost2010PropOp40
 70
     1
102
RTVSPost2010Prop41ColorIndex
 90
       18
102
RTVSPost2010Prop41ColorRGB
 90
        0
102
RTVSPost2010PropOp41
 70
     1
102
RTVSPost2010Prop42
 90
       50
102
RTVSPost2010PropOp42
 70
     1
102
RTVSPost2010Prop43
 90
        3
102
RTVSPost2010PropOp43
 70
     1
102
RTVSPost2010Prop44ColorIndex
 90
        5
102
RTVSPost2010Prop44ColorRGB
 90
      255
102
RTVSPost2010PropOp44
 70
     1
102
RTVSPost2010Prop45
280
     0
102
RTVSPost2010PropOp45
 70
     1
102
RTVSPost2010Prop46
 90
       50
102
RTVSPost2010PropOp46
 70
     1
102
RTVSPost2010Prop47
 90
       50
102
RTVSPost2010PropOp47
 70
     1
102
RTVSPost2010Prop48
 90
       50
102
RTVSPost2010PropOp48
 70
     1
102
RTVSPost2010Prop49
280
     0
102
RTVSPost2010PropOp49
 70
     1
102
RTVSPost2010Prop50
 90
       50
102
RTVSPost2010PropOp50
 70
     1
102
RTVSPost2010Prop51ColorIndex
 90
      256
102
RTVSPost2010Prop51ColorRGB
 90
-16777216
102
RTVSPost2010PropOp51
 70
     0
102
RTVSPost2010Prop52
140
1.0
102
RTVSPost2010PropOp52
 70
     0
102
RTVSPost2010Prop53
 90
        2
102
RTVSPost2010PropOp53
 70
     1
102
RTVSPost2010Prop54
  1
strokes_ogs.tif
102
RTVSPost2010PropOp54
 70
     1
102
RTVSPost2010Prop55
280
     0
102
RTVSPost2010PropOp55
 70
     1
102
RTVSPost2010Prop56
140
1.0
102
RTVSPost2010PropOp56
 70
     1
102
RTVSPost2010Prop57
140
1.0
102
RTVSPost2010PropOp57
 70
     1
102
RTVSPropertyOp0
 70
     1
102
RTVSPropertyOp1
 70
     1
102
RTVSPropertyOp2
 70
     1
102
RTVSPropertyOp3
 70
     1
102
RTVSPropertyOp4
 70
     1
102
RTVSPropertyOp5
 70
     1
102
RTVSPropertyOp6
 70
     1
102
RTVSPropertyOp7
 70
     1
102
RTVSPropertyOp8
 70
     1
102
RTVSPropertyOp9
 70
     1
102
RTVSPropertyOp10
 70
     1
102
RTVSPropertyOp11
 70
     1
102
RTVSPropertyOp12
 70
     1
102
RTVSPropertyOp13
 70
     1
102
RTVSPropertyOp14
 70
     1
102
RTVSPropertyOp15
 70
     1
102
RTVSPropertyOp16
 70
     1
102
RTVSPropertyOp17
 70
     1
102
RTVSPropertyOp18
 70
     1
102
RTVSPropertyOp19
 70
     1
102
RTVSPropertyOp20
 70
     1
102
RTVSPropertyOp21
 70
     1
102
RTVSPropertyOp22
 70
     1
102
RTVSPropertyOp23
 70
     1
102
RTVSPropertyOp24
 70
     1
102
RTVSPropertyOp25
 70
     1
102
RTVSPropertyOp26
 70
     1
102
RTVSPropertyOp27
 70
     1
102
RTVSPropertyOp28
 70
     1
102
RTVSPropertyOp29
 70
     1
102
RTVSPropertyOp30
 70
     1
102
RTVSPropertyOp31
 70
     1
102
RTVSPropertyOp32
 70
     1
102
RTVSPropertyOp33
 70
     1
102
RTVSPropertyOp34
 70
     1
102
RTVSPropertyOp35
 70
     1
102
RTVSPropertyOp36
 70
     1
102
RTVSPropertyOp37
 70
     1
102
RTVSPropertyOp38
 70
     1
102
RTVSPropertyOp39
 70
     1
102
RTVSPropertyOp40
 70
     1
102
RTVSPropertyOp41
 70
     1
102
RTVSPropertyOp42
 70
     1
102
RTVSPropertyOp43
 70
     1
102
RTVSPropertyOp44
 70
     1
102
RTVSPropertyOp45
 70
     1
102
RTVSPropertyOp46
 70
     1
102
RTVSPropertyOp47
 70
     1
102
RTVSPropertyOp48
 70
     1
102
RTVSPropertyOp49
 70
     1
102
RTVSPropertyOp50
 70
     1
102
RTVSPropertyOp51
 70
     0
102
RTVSPropertyOp52
 70
     0
102
RTVSPropertyOp53
 70
     1
102
RTVSPropertyOp54
 70
     1
102
RTVSPropertyOp55
 70
     1
102
RTVSPropertyOp56
 70
     1
102
RTVSPropertyOp57
 70
     1
102
RTVSPropertyOp58
 70
     1
102
RTVSPropertyOp59
 70
     1
102
RTVSPropertyOp60
 70
     1
102
RTVSPropertyOp61
 70
     1
102
RTVSPropertyOp62
 70
     1
  0
XRECORD
  5
229
102
{ACAD_REACTORS
330
228
102
}
330
228
100
AcDbXrecord
280
     1
102
RTVSPost2010Prop28
280
     0
102
RTVSPost2010PropOp28
 70
     1
102
RTVSPost2010Prop29
280
     1
102
RTVSPost2010PropOp29
 70
     1
102
RTVSPost2010Prop30
280
     1
102
RTVSPost2010PropOp30
 70
     1
102
RTVSPost2010Prop31
280
     0
102
RTVSPost2010PropOp31
 70
     1
102
RTVSPost2010Prop32
280
     0
102
RTVSPost2010PropOp32
 70
     1
102
RTVSPost2010Prop33
280
     0
102
RTVSPost2010PropOp33
 70
     1
102
RTVSPost2010Prop34
280
     0
102
RTVSPost2010PropOp34
 70
     1
102
RTVSPost2010Prop35
280
     0
102
RTVSPost2010PropOp35
 70
     1
102
RTVSPost2010Prop36
280
     0
102
RTVSPost2010PropOp36
 70
     1
102
RTVSPost2010Prop37
 90
       50
102
RTVSPost2010PropOp37
 70
     1
102
RTVSPost2010Prop38
140
0.0
102
RTVSPost2010PropOp38
 70
     1
102
RTVSPost2010Prop39
140
1.0
102
RTVSPost2010PropOp39
 70
     1
102
RTVSPost2010Prop40
 90
        0
102
RTVSPost2010PropOp40
 70
     1
102
RTVSPost2010Prop41ColorIndex
 90
       18
102
RTVSPost2010Prop41ColorRGB
 90
        0
102
RTVSPost2010PropOp41
 70
     1
102
RTVSPost2010Prop42
 90
       50
102
RTVSPost2010PropOp42
 70
     1
102
RTVSPost2010Prop43
 90
        3
102
RTVSPost2010PropOp43
 70
     1
102
RTVSPost2010Prop44ColorIndex
 90
        5
102
RTVSPost2010Prop44ColorRGB
 90
      255
102
RTVSPost2010PropOp44
 70
     1
102
RTVSPost2010Prop45
280
     0
102
RTVSPost2010PropOp45
 70
     1
102
RTVSPost2010Prop46
 90
       50
102
RTVSPost2010PropOp46
 70
     1
102
RTVSPost2010Prop47
 90
       50
102
RTVSPost2010PropOp47
 70
     1
102
RTVSPost2010Prop48
 90
       50
102
RTVSPost2010PropOp48
 70
     1
102
RTVSPost2010Prop49
280
     0
102
RTVSPost2010PropOp49
 70
     1
102
RTVSPost2010Prop50
 90
       50
102
RTVSPost2010PropOp50
 70
     1
102
RTVSPost2010Prop51ColorIndex
 90
      256
102
RTVSPost2010Prop51ColorRGB
 90
-16777216
102
RTVSPost2010PropOp51
 70
     0
102
RTVSPost2010Prop52
140
1.0
102
RTVSPost2010PropOp52
 70
     0
102
RTVSPost2010Prop53
 90
        2
102
RTVSPost2010PropOp53
 70
     1
102
RTVSPost2010Prop54
  1
strokes_ogs.tif
102
RTVSPost2010PropOp54
 70
     1
102
RTVSPost2010Prop55
280
     0
102
RTVSPost2010PropOp55
 70
     1
102
RTVSPost2010Prop56
140
1.0
102
RTVSPost2010PropOp56
 70
     1
102
RTVSPost2010Prop57
140
1.0
102
RTVSPost2010PropOp57
 70
     1
102
RTVSPropertyOp0
 70
     1
102
RTVSPropertyOp1
 70
     1
102
RTVSPropertyOp2
 70
     1
102
RTVSPropertyOp3
 70
     1
102
RTVSPropertyOp4
 70
     1
102
RTVSPropertyOp5
 70
     1
102
RTVSPropertyOp6
 70
     1
102
RTVSPropertyOp7
 70
     1
102
RTVSPropertyOp8
 70
     1
102
RTVSPropertyOp9
 70
     1
102
RTVSPropertyOp10
 70
     1
102
RTVSPropertyOp11
 70
     1
102
RTVSPropertyOp12
 70
     1
102
RTVSPropertyOp13
 70
     1
102
RTVSPropertyOp14
 70
     1
102
RTVSPropertyOp15
 70
     1
102
RTVSPropertyOp16
 70
     1
102
RTVSPropertyOp17
 70
     1
102
RTVSPropertyOp18
 70
     1
102
RTVSPropertyOp19
 70
     1
102
RTVSPropertyOp20
 70
     1
102
RTVSPropertyOp21
 70
     1
102
RTVSPropertyOp22
 70
     1
102
RTVSPropertyOp23
 70
     1
102
RTVSPropertyOp24
 70
     1
102
RTVSPropertyOp25
 70
     1
102
RTVSPropertyOp26
 70
     1
102
RTVSPropertyOp27
 70
     1
102
RTVSPropertyOp28
 70
     1
102
RTVSPropertyOp29
 70
     1
102
RTVSPropertyOp30
 70
     1
102
RTVSPropertyOp31
 70
     1
102
RTVSPropertyOp32
 70
     1
102
RTVSPropertyOp33
 70
     1
102
RTVSPropertyOp34
 70
     1
102
RTVSPropertyOp35
 70
     1
102
RTVSPropertyOp36
 70
     1
102
RTVSPropertyOp37
 70
     1
102
RTVSPropertyOp38
 70
     1
102
RTVSPropertyOp39
 70
     1
102
RTVSPropertyOp40
 70
     1
102
RTVSPropertyOp41
 70
     1
102
RTVSPropertyOp42
 70
     1
102
RTVSPropertyOp43
 70
     1
102
RTVSPropertyOp44
 70
     1
102
RTVSPropertyOp45
 70
     1
102
RTVSPropertyOp46
 70
     1
102
RTVSPropertyOp47
 70
     1
102
RTVSPropertyOp48
 70
     1
102
RTVSPropertyOp49
 70
     1
102
RTVSPropertyOp50
 70
     1
102
RTVSPropertyOp51
 70
     0
102
RTVSPropertyOp52
 70
     0
102
RTVSPropertyOp53
 70
     1
102
RTVSPropertyOp54
 70
     1
102
RTVSPropertyOp55
 70
     1
102
RTVSPropertyOp56
 70
     1
102
RTVSPropertyOp57
 70
     1
102
RTVSPropertyOp58
 70
     1
102
RTVSPropertyOp59
 70
     1
102
RTVSPropertyOp60
 70
     1
102
RTVSPropertyOp61
 70
     1
102
RTVSPropertyOp62
 70
     1
  0
XRECORD
  5
231
102
{ACAD_REACTORS
330
230
102
}
330
230
100
AcDbXrecord
280
     1
102
RTVSPost2010Prop28
280
     0
102
RTVSPost2010PropOp28
 70
     1
102
RTVSPost2010Prop29
280
     1
102
RTVSPost2010PropOp29
 70
     1
102
RTVSPost2010Prop30
280
     1
102
RTVSPost2010PropOp30
 70
     1
102
RTVSPost2010Prop31
280
     0
102
RTVSPost2010PropOp31
 70
     1
102
RTVSPost2010Prop32
280
     0
102
RTVSPost2010PropOp32
 70
     1
102
RTVSPost2010Prop33
280
     0
102
RTVSPost2010PropOp33
 70
     1
102
RTVSPost2010Prop34
280
     0
102
RTVSPost2010PropOp34
 70
     1
102
RTVSPost2010Prop35
280
     0
102
RTVSPost2010PropOp35
 70
     1
102
RTVSPost2010Prop36
280
     0
102
RTVSPost2010PropOp36
 70
     1
102
RTVSPost2010Prop37
 90
       50
102
RTVSPost2010PropOp37
 70
     1
102
RTVSPost2010Prop38
140
0.0
102
RTVSPost2010PropOp38
 70
     1
102
RTVSPost2010Prop39
140
1.0
102
RTVSPost2010PropOp39
 70
     1
102
RTVSPost2010Prop40
 90
        0
102
RTVSPost2010PropOp40
 70
     1
102
RTVSPost2010Prop41ColorIndex
 90
       18
102
RTVSPost2010Prop41ColorRGB
 90
        0
102
RTVSPost2010PropOp41
 70
     1
102
RTVSPost2010Prop42
 90
       50
102
RTVSPost2010PropOp42
 70
     1
102
RTVSPost2010Prop43
 90
        3
102
RTVSPost2010PropOp43
 70
     1
102
RTVSPost2010Prop44ColorIndex
 90
        5
102
RTVSPost2010Prop44ColorRGB
 90
      255
102
RTVSPost2010PropOp44
 70
     1
102
RTVSPost2010Prop45
280
     0
102
RTVSPost2010PropOp45
 70
     1
102
RTVSPost2010Prop46
 90
       50
102
RTVSPost2010PropOp46
 70
     1
102
RTVSPost2010Prop47
 90
       50
102
RTVSPost2010PropOp47
 70
     1
102
RTVSPost2010Prop48
 90
       50
102
RTVSPost2010PropOp48
 70
     1
102
RTVSPost2010Prop49
280
     0
102
RTVSPost2010PropOp49
 70
     1
102
RTVSPost2010Prop50
 90
       50
102
RTVSPost2010PropOp50
 70
     1
102
RTVSPost2010Prop51ColorIndex
 90
      256
102
RTVSPost2010Prop51ColorRGB
 90
-16777216
102
RTVSPost2010PropOp51
 70
     0
102
RTVSPost2010Prop52
140
1.0
102
RTVSPost2010PropOp52
 70
     0
102
RTVSPost2010Prop53
 90
        2
102
RTVSPost2010PropOp53
 70
     1
102
RTVSPost2010Prop54
  1
strokes_ogs.tif
102
RTVSPost2010PropOp54
 70
     1
102
RTVSPost2010Prop55
280
     0
102
RTVSPost2010PropOp55
 70
     1
102
RTVSPost2010Prop56
140
1.0
102
RTVSPost2010PropOp56
 70
     1
102
RTVSPost2010Prop57
140
1.0
102
RTVSPost2010PropOp57
 70
     1
102
RTVSPropertyOp0
 70
     1
102
RTVSPropertyOp1
 70
     1
102
RTVSPropertyOp2
 70
     1
102
RTVSPropertyOp3
 70
     1
102
RTVSPropertyOp4
 70
     1
102
RTVSPropertyOp5
 70
     1
102
RTVSPropertyOp6
 70
     1
102
RTVSPropertyOp7
 70
     1
102
RTVSPropertyOp8
 70
     1
102
RTVSPropertyOp9
 70
     1
102
RTVSPropertyOp10
 70
     1
102
RTVSPropertyOp11
 70
     1
102
RTVSPropertyOp12
 70
     1
102
RTVSPropertyOp13
 70
     1
102
RTVSPropertyOp14
 70
     1
102
RTVSPropertyOp15
 70
     1
102
RTVSPropertyOp16
 70
     1
102
RTVSPropertyOp17
 70
     1
102
RTVSPropertyOp18
 70
     1
102
RTVSPropertyOp19
 70
     1
102
RTVSPropertyOp20
 70
     1
102
RTVSPropertyOp21
 70
     1
102
RTVSPropertyOp22
 70
     1
102
RTVSPropertyOp23
 70
     1
102
RTVSPropertyOp24
 70
     1
102
RTVSPropertyOp25
 70
     1
102
RTVSPropertyOp26
 70
     1
102
RTVSPropertyOp27
 70
     1
102
RTVSPropertyOp28
 70
     1
102
RTVSPropertyOp29
 70
     1
102
RTVSPropertyOp30
 70
     1
102
RTVSPropertyOp31
 70
     1
102
RTVSPropertyOp32
 70
     1
102
RTVSPropertyOp33
 70
     1
102
RTVSPropertyOp34
 70
     1
102
RTVSPropertyOp35
 70
     1
102
RTVSPropertyOp36
 70
     1
102
RTVSPropertyOp37
 70
     1
102
RTVSPropertyOp38
 70
     1
102
RTVSPropertyOp39
 70
     1
102
RTVSPropertyOp40
 70
     1
102
RTVSPropertyOp41
 70
     1
102
RTVSPropertyOp42
 70
     1
102
RTVSPropertyOp43
 70
     1
102
RTVSPropertyOp44
 70
     1
102
RTVSPropertyOp45
 70
     1
102
RTVSPropertyOp46
 70
     1
102
RTVSPropertyOp47
 70
     1
102
RTVSPropertyOp48
 70
     1
102
RTVSPropertyOp49
 70
     1
102
RTVSPropertyOp50
 70
     1
102
RTVSPropertyOp51
 70
     0
102
RTVSPropertyOp52
 70
     0
102
RTVSPropertyOp53
 70
     1
102
RTVSPropertyOp54
 70
     1
102
RTVSPropertyOp55
 70
     1
102
RTVSPropertyOp56
 70
     1
102
RTVSPropertyOp57
 70
     1
102
RTVSPropertyOp58
 70
     1
102
RTVSPropertyOp59
 70
     1
102
RTVSPropertyOp60
 70
     1
102
RTVSPropertyOp61
 70
     1
102
RTVSPropertyOp62
 70
     1
  0
XRECORD
  5
24D
102
{ACAD_REACTORS
330
24C
102
}
330
24C
100
AcDbXrecord
280
     1
102
RTVSPost2010Prop28
280
     0
102
RTVSPost2010PropOp28
 70
     0
102
RTVSPost2010Prop29
280
     1
102
RTVSPost2010PropOp29
 70
     0
102
RTVSPost2010Prop30
280
     1
102
RTVSPost2010PropOp30
 70
     0
102
RTVSPost2010Prop31
280
     0
102
RTVSPost2010PropOp31
 70
     0
102
RTVSPost2010Prop32
280
     0
102
RTVSPost2010PropOp32
 70
     0
102
RTVSPost2010Prop33
280
     0
102
RTVSPost2010PropOp33
 70
     0
102
RTVSPost2010Prop34
280
     0
102
RTVSPost2010PropOp34
 70
     0
102
RTVSPost2010Prop35
280
     0
102
RTVSPost2010PropOp35
 70
     0
102
RTVSPost2010Prop36
280
     0
102
RTVSPost2010PropOp36
 70
     0
102
RTVSPost2010Prop37
 90
       50
102
RTVSPost2010PropOp37
 70
     0
102
RTVSPost2010Prop38
140
0.0
102
RTVSPost2010PropOp38
 70
     0
102
RTVSPost2010Prop39
140
1.0
102
RTVSPost2010PropOp39
 70
     0
102
RTVSPost2010Prop40
 90
        0
102
RTVSPost2010PropOp40
 70
     0
102
RTVSPost2010Prop41ColorIndex
 90
       18
102
RTVSPost2010Prop41ColorRGB
 90
        0
102
RTVSPost2010PropOp41
 70
     0
102
RTVSPost2010Prop42
 90
       50
102
RTVSPost2010PropOp42
 70
     0
102
RTVSPost2010Prop43
 90
        3
102
RTVSPost2010PropOp43
 70
     0
102
RTVSPost2010Prop44ColorIndex
 90
        5
102
RTVSPost2010Prop44ColorRGB
 90
      255
102
RTVSPost2010PropOp44
 70
     0
102
RTVSPost2010Prop45
280
     0
102
RTVSPost2010PropOp45
 70
     0
102
RTVSPost2010Prop46
 90
       50
102
RTVSPost2010PropOp46
 70
     0
102
RTVSPost2010Prop47
 90
       50
102
RTVSPost2010PropOp47
 70
     0
102
RTVSPost2010Prop48
 90
       50
102
RTVSPost2010PropOp48
 70
     0
102
RTVSPost2010Prop49
280
     0
102
RTVSPost2010PropOp49
 70
     0
102
RTVSPost2010Prop50
 90
       50
102
RTVSPost2010PropOp50
 70
     0
102
RTVSPost2010Prop51ColorIndex
 90
      256
102
RTVSPost2010Prop51ColorRGB
 90
-16777216
102
RTVSPost2010PropOp51
 70
     0
102
RTVSPost2010Prop52
140
1.0
102
RTVSPost2010PropOp52
 70
     0
102
RTVSPost2010Prop53
 90
        2
102
RTVSPost2010PropOp53
 70
     0
102
RTVSPost2010Prop54
  1
strokes_ogs.tif
102
RTVSPost2010PropOp54
 70
     0
102
RTVSPost2010Prop55
280
     0
102
RTVSPost2010PropOp55
 70
     0
102
RTVSPost2010Prop56
140
1.0
102
RTVSPost2010PropOp56
 70
     0
102
RTVSPost2010Prop57
140
1.0
102
RTVSPost2010PropOp57
 70
     0
102
RTVSPropertyOp0
 70
     0
102
RTVSPropertyOp1
 70
     0
102
RTVSPropertyOp2
 70
     0
102
RTVSPropertyOp3
 70
     0
102
RTVSPropertyOp4
 70
     0
102
RTVSPropertyOp5
 70
     0
102
RTVSPropertyOp6
 70
     0
102
RTVSPropertyOp7
 70
     0
102
RTVSPropertyOp8
 70
     0
102
RTVSPropertyOp9
 70
     0
102
RTVSPropertyOp10
 70
     0
102
RTVSPropertyOp11
 70
     0
102
RTVSPropertyOp12
 70
     0
102
RTVSPropertyOp13
 70
     0
102
RTVSPropertyOp14
 70
     2
102
RTVSPropertyOp15
 70
     0
102
RTVSPropertyOp16
 70
     0
102
RTVSPropertyOp17
 70
     0
102
RTVSPropertyOp18
 70
     0
102
RTVSPropertyOp19
 70
     0
102
RTVSPropertyOp20
 70
     0
102
RTVSPropertyOp21
 70
     0
102
RTVSPropertyOp22
 70
     0
102
RTVSPropertyOp23
 70
     0
102
RTVSPropertyOp24
 70
     0
102
RTVSPropertyOp25
 70
     0
102
RTVSPropertyOp26
 70
     0
102
RTVSPropertyOp27
 70
     0
102
RTVSPropertyOp28
 70
     0
102
RTVSPropertyOp29
 70
     0
102
RTVSPropertyOp30
 70
     0
102
RTVSPropertyOp31
 70
     0
102
RTVSPropertyOp32
 70
     0
102
RTVSPropertyOp33
 70
     0
102
RTVSPropertyOp34
 70
     0
102
RTVSPropertyOp35
 70
     0
102
RTVSPropertyOp36
 70
     0
102
RTVSPropertyOp37
 70
     0
102
RTVSPropertyOp38
 70
     0
102
RTVSPropertyOp39
 70
     0
102
RTVSPropertyOp40
 70
     0
102
RTVSPropertyOp41
 70
     0
102
RTVSPropertyOp42
 70
     0
102
RTVSPropertyOp43
 70
     0
102
RTVSPropertyOp44
 70
     0
102
RTVSPropertyOp45
 70
     0
102
RTVSPropertyOp46
 70
     0
102
RTVSPropertyOp47
 70
     0
102
RTVSPropertyOp48
 70
     0
102
RTVSPropertyOp49
 70
     0
102
RTVSPropertyOp50
 70
     0
102
RTVSPropertyOp51
 70
     0
102
RTVSPropertyOp52
 70
     0
102
RTVSPropertyOp53
 70
     0
102
RTVSPropertyOp54
 70
     0
102
RTVSPropertyOp55
 70
     0
102
RTVSPropertyOp56
 70
     0
102
RTVSPropertyOp57
 70
     0
102
RTVSPropertyOp58
 70
     0
102
RTVSPropertyOp59
 70
     0
102
RTVSPropertyOp60
 70
     0
102
RTVSPropertyOp61
 70
     0
102
RTVSPropertyOp62
 70
     0
  0
XRECORD
  5
23D
102
{ACAD_REACTORS
330
23C
102
}
330
23C
100
AcDbXrecord
280
     1
102
RTVSPost2010Prop28
280
     0
102
RTVSPost2010PropOp28
 70
     1
102
RTVSPost2010Prop29
280
     1
102
RTVSPost2010PropOp29
 70
     1
102
RTVSPost2010Prop30
280
     1
102
RTVSPost2010PropOp30
 70
     1
102
RTVSPost2010Prop31
280
     0
102
RTVSPost2010PropOp31
 70
     1
102
RTVSPost2010Prop32
280
     0
102
RTVSPost2010PropOp32
 70
     1
102
RTVSPost2010Prop33
280
     0
102
RTVSPost2010PropOp33
 70
     1
102
RTVSPost2010Prop34
280
     0
102
RTVSPost2010PropOp34
 70
     1
102
RTVSPost2010Prop35
280
     0
102
RTVSPost2010PropOp35
 70
     1
102
RTVSPost2010Prop36
280
     0
102
RTVSPost2010PropOp36
 70
     1
102
RTVSPost2010Prop37
 90
       50
102
RTVSPost2010PropOp37
 70
     1
102
RTVSPost2010Prop38
140
0.0
102
RTVSPost2010PropOp38
 70
     1
102
RTVSPost2010Prop39
140
1.0
102
RTVSPost2010PropOp39
 70
     1
102
RTVSPost2010Prop40
 90
        0
102
RTVSPost2010PropOp40
 70
     1
102
RTVSPost2010Prop41ColorIndex
 90
       18
102
RTVSPost2010Prop41ColorRGB
 90
        0
102
RTVSPost2010PropOp41
 70
     1
102
RTVSPost2010Prop42
 90
       50
102
RTVSPost2010PropOp42
 70
     1
102
RTVSPost2010Prop43
 90
        3
102
RTVSPost2010PropOp43
 70
     1
102
RTVSPost2010Prop44ColorIndex
 90
        5
102
RTVSPost2010Prop44ColorRGB
 90
      255
102
RTVSPost2010PropOp44
 70
     1
102
RTVSPost2010Prop45
280
     0
102
RTVSPost2010PropOp45
 70
     1
102
RTVSPost2010Prop46
 90
       50
102
RTVSPost2010PropOp46
 70
     1
102
RTVSPost2010Prop47
 90
       50
102
RTVSPost2010PropOp47
 70
     1
102
RTVSPost2010Prop48
 90
       50
102
RTVSPost2010PropOp48
 70
     1
102
RTVSPost2010Prop49
280
     0
102
RTVSPost2010PropOp49
 70
     1
102
RTVSPost2010Prop50
 90
       50
102
RTVSPost2010PropOp50
 70
     1
102
RTVSPost2010Prop51ColorIndex
 90
      256
102
RTVSPost2010Prop51ColorRGB
 90
-16777216
102
RTVSPost2010PropOp51
 70
     0
102
RTVSPost2010Prop52
140
1.0
102
RTVSPost2010PropOp52
 70
     0
102
RTVSPost2010Prop53
 90
        2
102
RTVSPost2010PropOp53
 70
     1
102
RTVSPost2010Prop54
  1
strokes_ogs.tif
102
RTVSPost2010PropOp54
 70
     1
102
RTVSPost2010Prop55
280
     0
102
RTVSPost2010PropOp55
 70
     1
102
RTVSPost2010Prop56
140
1.0
102
RTVSPost2010PropOp56
 70
     1
102
RTVSPost2010Prop57
140
1.0
102
RTVSPost2010PropOp57
 70
     1
102
RTVSPropertyOp0
 70
     1
102
RTVSPropertyOp1
 70
     1
102
RTVSPropertyOp2
 70
     1
102
RTVSPropertyOp3
 70
     1
102
RTVSPropertyOp4
 70
     1
102
RTVSPropertyOp5
 70
     1
102
RTVSPropertyOp6
 70
     1
102
RTVSPropertyOp7
 70
     1
102
RTVSPropertyOp8
 70
     1
102
RTVSPropertyOp9
 70
     1
102
RTVSPropertyOp10
 70
     1
102
RTVSPropertyOp11
 70
     1
102
RTVSPropertyOp12
 70
     1
102
RTVSPropertyOp13
 70
     1
102
RTVSPropertyOp14
 70
     1
102
RTVSPropertyOp15
 70
     1
102
RTVSPropertyOp16
 70
     1
102
RTVSPropertyOp17
 70
     1
102
RTVSPropertyOp18
 70
     1
102
RTVSPropertyOp19
 70
     1
102
RTVSPropertyOp20
 70
     1
102
RTVSPropertyOp21
 70
     1
102
RTVSPropertyOp22
 70
     1
102
RTVSPropertyOp23
 70
     1
102
RTVSPropertyOp24
 70
     1
102
RTVSPropertyOp25
 70
     1
102
RTVSPropertyOp26
 70
     1
102
RTVSPropertyOp27
 70
     1
102
RTVSPropertyOp28
 70
     1
102
RTVSPropertyOp29
 70
     1
102
RTVSPropertyOp30
 70
     1
102
RTVSPropertyOp31
 70
     1
102
RTVSPropertyOp32
 70
     1
102
RTVSPropertyOp33
 70
     1
102
RTVSPropertyOp34
 70
     1
102
RTVSPropertyOp35
 70
     1
102
RTVSPropertyOp36
 70
     1
102
RTVSPropertyOp37
 70
     1
102
RTVSPropertyOp38
 70
     1
102
RTVSPropertyOp39
 70
     1
102
RTVSPropertyOp40
 70
     1
102
RTVSPropertyOp41
 70
     1
102
RTVSPropertyOp42
 70
     1
102
RTVSPropertyOp43
 70
     1
102
RTVSPropertyOp44
 70
     1
102
RTVSPropertyOp45
 70
     1
102
RTVSPropertyOp46
 70
     1
102
RTVSPropertyOp47
 70
     1
102
RTVSPropertyOp48
 70
     1
102
RTVSPropertyOp49
 70
     1
102
RTVSPropertyOp50
 70
     1
102
RTVSPropertyOp51
 70
     0
102
RTVSPropertyOp52
 70
     0
102
RTVSPropertyOp53
 70
     1
102
RTVSPropertyOp54
 70
     1
102
RTVSPropertyOp55
 70
     1
102
RTVSPropertyOp56
 70
     1
102
RTVSPropertyOp57
 70
     1
102
RTVSPropertyOp58
 70
     1
102
RTVSPropertyOp59
 70
     1
102
RTVSPropertyOp60
 70
     1
102
RTVSPropertyOp61
 70
     1
102
RTVSPropertyOp62
 70
     1
  0
XRECORD
  5
24F
102
{ACAD_REACTORS
330
24E
102
}
330
24E
100
AcDbXrecord
280
     1
102
RTVSPost2010Prop28
280
     0
102
RTVSPost2010PropOp28
 70
     0
102
RTVSPost2010Prop29
280
     1
102
RTVSPost2010PropOp29
 70
     0
102
RTVSPost2010Prop30
280
     1
102
RTVSPost2010PropOp30
 70
     0
102
RTVSPost2010Prop31
280
     0
102
RTVSPost2010PropOp31
 70
     0
102
RTVSPost2010Prop32
280
     0
102
RTVSPost2010PropOp32
 70
     0
102
RTVSPost2010Prop33
280
     0
102
RTVSPost2010PropOp33
 70
     0
102
RTVSPost2010Prop34
280
     0
102
RTVSPost2010PropOp34
 70
     0
102
RTVSPost2010Prop35
280
     0
102
RTVSPost2010PropOp35
 70
     0
102
RTVSPost2010Prop36
280
     0
102
RTVSPost2010PropOp36
 70
     0
102
RTVSPost2010Prop37
 90
       50
102
RTVSPost2010PropOp37
 70
     0
102
RTVSPost2010Prop38
140
0.0
102
RTVSPost2010PropOp38
 70
     0
102
RTVSPost2010Prop39
140
1.0
102
RTVSPost2010PropOp39
 70
     0
102
RTVSPost2010Prop40
 90
        0
102
RTVSPost2010PropOp40
 70
     0
102
RTVSPost2010Prop41ColorIndex
 90
       18
102
RTVSPost2010Prop41ColorRGB
 90
        0
102
RTVSPost2010PropOp41
 70
     0
102
RTVSPost2010Prop42
 90
       50
102
RTVSPost2010PropOp42
 70
     0
102
RTVSPost2010Prop43
 90
        3
102
RTVSPost2010PropOp43
 70
     0
102
RTVSPost2010Prop44ColorIndex
 90
        5
102
RTVSPost2010Prop44ColorRGB
 90
      255
102
RTVSPost2010PropOp44
 70
     0
102
RTVSPost2010Prop45
280
     0
102
RTVSPost2010PropOp45
 70
     0
102
RTVSPost2010Prop46
 90
       50
102
RTVSPost2010PropOp46
 70
     0
102
RTVSPost2010Prop47
 90
       50
102
RTVSPost2010PropOp47
 70
     0
102
RTVSPost2010Prop48
 90
       50
102
RTVSPost2010PropOp48
 70
     0
102
RTVSPost2010Prop49
280
     0
102
RTVSPost2010PropOp49
 70
     0
102
RTVSPost2010Prop50
 90
       50
102
RTVSPost2010PropOp50
 70
     0
102
RTVSPost2010Prop51ColorIndex
 90
      256
102
RTVSPost2010Prop51ColorRGB
 90
-16777216
102
RTVSPost2010PropOp51
 70
     0
102
RTVSPost2010Prop52
140
1.0
102
RTVSPost2010PropOp52
 70
     0
102
RTVSPost2010Prop53
 90
        2
102
RTVSPost2010PropOp53
 70
     0
102
RTVSPost2010Prop54
  1
strokes_ogs.tif
102
RTVSPost2010PropOp54
 70
     0
102
RTVSPost2010Prop55
280
     0
102
RTVSPost2010PropOp55
 70
     0
102
RTVSPost2010Prop56
140
1.0
102
RTVSPost2010PropOp56
 70
     0
102
RTVSPost2010Prop57
140
1.0
102
RTVSPost2010PropOp57
 70
     0
102
RTVSPropertyOp0
 70
     0
102
RTVSPropertyOp1
 70
     0
102
RTVSPropertyOp2
 70
     0
102
RTVSPropertyOp3
 70
     0
102
RTVSPropertyOp4
 70
     0
102
RTVSPropertyOp5
 70
     0
102
RTVSPropertyOp6
 70
     0
102
RTVSPropertyOp7
 70
     0
102
RTVSPropertyOp8
 70
     0
102
RTVSPropertyOp9
 70
     0
102
RTVSPropertyOp10
 70
     0
102
RTVSPropertyOp11
 70
     0
102
RTVSPropertyOp12
 70
     0
102
RTVSPropertyOp13
 70
     0
102
RTVSPropertyOp14
 70
     2
102
RTVSPropertyOp15
 70
     0
102
RTVSPropertyOp16
 70
     0
102
RTVSPropertyOp17
 70
     0
102
RTVSPropertyOp18
 70
     0
102
RTVSPropertyOp19
 70
     0
102
RTVSPropertyOp20
 70
     0
102
RTVSPropertyOp21
 70
     0
102
RTVSPropertyOp22
 70
     0
102
RTVSPropertyOp23
 70
     0
102
RTVSPropertyOp24
 70
     0
102
RTVSPropertyOp25
 70
     0
102
RTVSPropertyOp26
 70
     0
102
RTVSPropertyOp27
 70
     0
102
RTVSPropertyOp28
 70
     0
102
RTVSPropertyOp29
 70
     0
102
RTVSPropertyOp30
 70
     0
102
RTVSPropertyOp31
 70
     0
102
RTVSPropertyOp32
 70
     0
102
RTVSPropertyOp33
 70
     0
102
RTVSPropertyOp34
 70
     0
102
RTVSPropertyOp35
 70
     0
102
RTVSPropertyOp36
 70
     0
102
RTVSPropertyOp37
 70
     0
102
RTVSPropertyOp38
 70
     0
102
RTVSPropertyOp39
 70
     0
102
RTVSPropertyOp40
 70
     0
102
RTVSPropertyOp41
 70
     0
102
RTVSPropertyOp42
 70
     0
102
RTVSPropertyOp43
 70
     0
102
RTVSPropertyOp44
 70
     0
102
RTVSPropertyOp45
 70
     0
102
RTVSPropertyOp46
 70
     0
102
RTVSPropertyOp47
 70
     0
102
RTVSPropertyOp48
 70
     0
102
RTVSPropertyOp49
 70
     0
102
RTVSPropertyOp50
 70
     0
102
RTVSPropertyOp51
 70
     0
102
RTVSPropertyOp52
 70
     0
102
RTVSPropertyOp53
 70
     0
102
RTVSPropertyOp54
 70
     0
102
RTVSPropertyOp55
 70
     0
102
RTVSPropertyOp56
 70
     0
102
RTVSPropertyOp57
 70
     0
102
RTVSPropertyOp58
 70
     0
102
RTVSPropertyOp59
 70
     0
102
RTVSPropertyOp60
 70
     0
102
RTVSPropertyOp61
 70
     0
102
RTVSPropertyOp62
 70
     0
  0
XRECORD
  5
235
102
{ACAD_REACTORS
330
234
102
}
330
234
100
AcDbXrecord
280
     1
102
RTVSPost2010Prop28
280
     0
102
RTVSPost2010PropOp28
 70
     1
102
RTVSPost2010Prop29
280
     1
102
RTVSPost2010PropOp29
 70
     1
102
RTVSPost2010Prop30
280
     1
102
RTVSPost2010PropOp30
 70
     1
102
RTVSPost2010Prop31
280
     0
102
RTVSPost2010PropOp31
 70
     1
102
RTVSPost2010Prop32
280
     0
102
RTVSPost2010PropOp32
 70
     1
102
RTVSPost2010Prop33
280
     0
102
RTVSPost2010PropOp33
 70
     1
102
RTVSPost2010Prop34
280
     0
102
RTVSPost2010PropOp34
 70
     1
102
RTVSPost2010Prop35
280
     0
102
RTVSPost2010PropOp35
 70
     1
102
RTVSPost2010Prop36
280
     0
102
RTVSPost2010PropOp36
 70
     1
102
RTVSPost2010Prop37
 90
       50
102
RTVSPost2010PropOp37
 70
     1
102
RTVSPost2010Prop38
140
0.0
102
RTVSPost2010PropOp38
 70
     1
102
RTVSPost2010Prop39
140
1.0
102
RTVSPost2010PropOp39
 70
     1
102
RTVSPost2010Prop40
 90
        0
102
RTVSPost2010PropOp40
 70
     1
102
RTVSPost2010Prop41ColorIndex
 90
       18
102
RTVSPost2010Prop41ColorRGB
 90
        0
102
RTVSPost2010PropOp41
 70
     1
102
RTVSPost2010Prop42
 90
       50
102
RTVSPost2010PropOp42
 70
     1
102
RTVSPost2010Prop43
 90
        3
102
RTVSPost2010PropOp43
 70
     1
102
RTVSPost2010Prop44ColorIndex
 90
        5
102
RTVSPost2010Prop44ColorRGB
 90
      255
102
RTVSPost2010PropOp44
 70
     1
102
RTVSPost2010Prop45
280
     0
102
RTVSPost2010PropOp45
 70
     1
102
RTVSPost2010Prop46
 90
       50
102
RTVSPost2010PropOp46
 70
     1
102
RTVSPost2010Prop47
 90
       50
102
RTVSPost2010PropOp47
 70
     1
102
RTVSPost2010Prop48
 90
       50
102
RTVSPost2010PropOp48
 70
     1
102
RTVSPost2010Prop49
280
     0
102
RTVSPost2010PropOp49
 70
     1
102
RTVSPost2010Prop50
 90
       50
102
RTVSPost2010PropOp50
 70
     1
102
RTVSPost2010Prop51ColorIndex
 90
      256
102
RTVSPost2010Prop51ColorRGB
 90
-16777216
102
RTVSPost2010PropOp51
 70
     0
102
RTVSPost2010Prop52
140
1.0
102
RTVSPost2010PropOp52
 70
     0
102
RTVSPost2010Prop53
 90
        2
102
RTVSPost2010PropOp53
 70
     1
102
RTVSPost2010Prop54
  1
strokes_ogs.tif
102
RTVSPost2010PropOp54
 70
     1
102
RTVSPost2010Prop55
280
     0
102
RTVSPost2010PropOp55
 70
     1
102
RTVSPost2010Prop56
140
1.0
102
RTVSPost2010PropOp56
 70
     1
102
RTVSPost2010Prop57
140
1.0
102
RTVSPost2010PropOp57
 70
     1
102
RTVSPropertyOp0
 70
     1
102
RTVSPropertyOp1
 70
     1
102
RTVSPropertyOp2
 70
     1
102
RTVSPropertyOp3
 70
     1
102
RTVSPropertyOp4
 70
     1
102
RTVSPropertyOp5
 70
     1
102
RTVSPropertyOp6
 70
     1
102
RTVSPropertyOp7
 70
     1
102
RTVSPropertyOp8
 70
     1
102
RTVSPropertyOp9
 70
     1
102
RTVSPropertyOp10
 70
     1
102
RTVSPropertyOp11
 70
     1
102
RTVSPropertyOp12
 70
     1
102
RTVSPropertyOp13
 70
     1
102
RTVSPropertyOp14
 70
     1
102
RTVSPropertyOp15
 70
     1
102
RTVSPropertyOp16
 70
     1
102
RTVSPropertyOp17
 70
     1
102
RTVSPropertyOp18
 70
     1
102
RTVSPropertyOp19
 70
     1
102
RTVSPropertyOp20
 70
     1
102
RTVSPropertyOp21
 70
     1
102
RTVSPropertyOp22
 70
     1
102
RTVSPropertyOp23
 70
     1
102
RTVSPropertyOp24
 70
     1
102
RTVSPropertyOp25
 70
     1
102
RTVSPropertyOp26
 70
     1
102
RTVSPropertyOp27
 70
     1
102
RTVSPropertyOp28
 70
     1
102
RTVSPropertyOp29
 70
     1
102
RTVSPropertyOp30
 70
     1
102
RTVSPropertyOp31
 70
     1
102
RTVSPropertyOp32
 70
     1
102
RTVSPropertyOp33
 70
     1
102
RTVSPropertyOp34
 70
     1
102
RTVSPropertyOp35
 70
     1
102
RTVSPropertyOp36
 70
     1
102
RTVSPropertyOp37
 70
     1
102
RTVSPropertyOp38
 70
     1
102
RTVSPropertyOp39
 70
     1
102
RTVSPropertyOp40
 70
     1
102
RTVSPropertyOp41
 70
     1
102
RTVSPropertyOp42
 70
     1
102
RTVSPropertyOp43
 70
     1
102
RTVSPropertyOp44
 70
     1
102
RTVSPropertyOp45
 70
     1
102
RTVSPropertyOp46
 70
     1
102
RTVSPropertyOp47
 70
     1
102
RTVSPropertyOp48
 70
     1
102
RTVSPropertyOp49
 70
     1
102
RTVSPropertyOp50
 70
     1
102
RTVSPropertyOp51
 70
     0
102
RTVSPropertyOp52
 70
     0
102
RTVSPropertyOp53
 70
     1
102
RTVSPropertyOp54
 70
     1
102
RTVSPropertyOp55
 70
     1
102
RTVSPropertyOp56
 70
     1
102
RTVSPropertyOp57
 70
     1
102
RTVSPropertyOp58
 70
     1
102
RTVSPropertyOp59
 70
     1
102
RTVSPropertyOp60
 70
     1
102
RTVSPropertyOp61
 70
     1
102
RTVSPropertyOp62
 70
     1
  0
XRECORD
  5
24B
102
{ACAD_REACTORS
330
24A
102
}
330
24A
100
AcDbXrecord
280
     1
102
RTVSPost2010Prop28
280
     0
102
RTVSPost2010PropOp28
 70
     1
102
RTVSPost2010Prop29
280
     1
102
RTVSPost2010PropOp29
 70
     1
102
RTVSPost2010Prop30
280
     1
102
RTVSPost2010PropOp30
 70
     1
102
RTVSPost2010Prop31
280
     0
102
RTVSPost2010PropOp31
 70
     1
102
RTVSPost2010Prop32
280
     0
102
RTVSPost2010PropOp32
 70
     1
102
RTVSPost2010Prop33
280
     0
102
RTVSPost2010PropOp33
 70
     1
102
RTVSPost2010Prop34
280
     0
102
RTVSPost2010PropOp34
 70
     1
102
RTVSPost2010Prop35
280
     0
102
RTVSPost2010PropOp35
 70
     1
102
RTVSPost2010Prop36
280
     0
102
RTVSPost2010PropOp36
 70
     1
102
RTVSPost2010Prop37
 90
       50
102
RTVSPost2010PropOp37
 70
     1
102
RTVSPost2010Prop38
140
0.0
102
RTVSPost2010PropOp38
 70
     1
102
RTVSPost2010Prop39
140
1.0
102
RTVSPost2010PropOp39
 70
     1
102
RTVSPost2010Prop40
 90
        0
102
RTVSPost2010PropOp40
 70
     1
102
RTVSPost2010Prop41ColorIndex
 90
       18
102
RTVSPost2010Prop41ColorRGB
 90
        0
102
RTVSPost2010PropOp41
 70
     1
102
RTVSPost2010Prop42
 90
       50
102
RTVSPost2010PropOp42
 70
     1
102
RTVSPost2010Prop43
 90
        3
102
RTVSPost2010PropOp43
 70
     1
102
RTVSPost2010Prop44ColorIndex
 90
        5
102
RTVSPost2010Prop44ColorRGB
 90
      255
102
RTVSPost2010PropOp44
 70
     1
102
RTVSPost2010Prop45
280
     0
102
RTVSPost2010PropOp45
 70
     1
102
RTVSPost2010Prop46
 90
       50
102
RTVSPost2010PropOp46
 70
     1
102
RTVSPost2010Prop47
 90
       50
102
RTVSPost2010PropOp47
 70
     1
102
RTVSPost2010Prop48
 90
       50
102
RTVSPost2010PropOp48
 70
     1
102
RTVSPost2010Prop49
280
     0
102
RTVSPost2010PropOp49
 70
     1
102
RTVSPost2010Prop50
 90
       50
102
RTVSPost2010PropOp50
 70
     1
102
RTVSPost2010Prop51ColorIndex
 90
      256
102
RTVSPost2010Prop51ColorRGB
 90
-16777216
102
RTVSPost2010PropOp51
 70
     0
102
RTVSPost2010Prop52
140
1.0
102
RTVSPost2010PropOp52
 70
     0
102
RTVSPost2010Prop53
 90
        2
102
RTVSPost2010PropOp53
 70
     1
102
RTVSPost2010Prop54
  1
strokes_ogs.tif
102
RTVSPost2010PropOp54
 70
     1
102
RTVSPost2010Prop55
280
     0
102
RTVSPost2010PropOp55
 70
     1
102
RTVSPost2010Prop56
140
1.0
102
RTVSPost2010PropOp56
 70
     1
102
RTVSPost2010Prop57
140
1.0
102
RTVSPost2010PropOp57
 70
     1
102
RTVSPropertyOp0
 70
     1
102
RTVSPropertyOp1
 70
     1
102
RTVSPropertyOp2
 70
     1
102
RTVSPropertyOp3
 70
     1
102
RTVSPropertyOp4
 70
     1
102
RTVSPropertyOp5
 70
     1
102
RTVSPropertyOp6
 70
     1
102
RTVSPropertyOp7
 70
     1
102
RTVSPropertyOp8
 70
     1
102
RTVSPropertyOp9
 70
     1
102
RTVSPropertyOp10
 70
     1
102
RTVSPropertyOp11
 70
     1
102
RTVSPropertyOp12
 70
     1
102
RTVSPropertyOp13
 70
     1
102
RTVSPropertyOp14
 70
     1
102
RTVSPropertyOp15
 70
     1
102
RTVSPropertyOp16
 70
     1
102
RTVSPropertyOp17
 70
     1
102
RTVSPropertyOp18
 70
     1
102
RTVSPropertyOp19
 70
     1
102
RTVSPropertyOp20
 70
     1
102
RTVSPropertyOp21
 70
     1
102
RTVSPropertyOp22
 70
     1
102
RTVSPropertyOp23
 70
     1
102
RTVSPropertyOp24
 70
     1
102
RTVSPropertyOp25
 70
     1
102
RTVSPropertyOp26
 70
     1
102
RTVSPropertyOp27
 70
     1
102
RTVSPropertyOp28
 70
     1
102
RTVSPropertyOp29
 70
     1
102
RTVSPropertyOp30
 70
     1
102
RTVSPropertyOp31
 70
     1
102
RTVSPropertyOp32
 70
     1
102
RTVSPropertyOp33
 70
     1
102
RTVSPropertyOp34
 70
     1
102
RTVSPropertyOp35
 70
     1
102
RTVSPropertyOp36
 70
     1
102
RTVSPropertyOp37
 70
     1
102
RTVSPropertyOp38
 70
     1
102
RTVSPropertyOp39
 70
     1
102
RTVSPropertyOp40
 70
     1
102
RTVSPropertyOp41
 70
     1
102
RTVSPropertyOp42
 70
     1
102
RTVSPropertyOp43
 70
     1
102
RTVSPropertyOp44
 70
     1
102
RTVSPropertyOp45
 70
     1
102
RTVSPropertyOp46
 70
     1
102
RTVSPropertyOp47
 70
     1
102
RTVSPropertyOp48
 70
     1
102
RTVSPropertyOp49
 70
     1
102
RTVSPropertyOp50
 70
     1
102
RTVSPropertyOp51
 70
     0
102
RTVSPropertyOp52
 70
     0
102
RTVSPropertyOp53
 70
     1
102
RTVSPropertyOp54
 70
     1
102
RTVSPropertyOp55
 70
     1
102
RTVSPropertyOp56
 70
     1
102
RTVSPropertyOp57
 70
     1
102
RTVSPropertyOp58
 70
     1
102
RTVSPropertyOp59
 70
     1
102
RTVSPropertyOp60
 70
     1
102
RTVSPropertyOp61
 70
     1
102
RTVSPropertyOp62
 70
     1
  0
XRECORD
  5
249
102
{ACAD_REACTORS
330
248
102
}
330
248
100
AcDbXrecord
280
     1
102
RTVSPost2010Prop28
280
     0
102
RTVSPost2010PropOp28
 70
     1
102
RTVSPost2010Prop29
280
     1
102
RTVSPost2010PropOp29
 70
     1
102
RTVSPost2010Prop30
280
     1
102
RTVSPost2010PropOp30
 70
     1
102
RTVSPost2010Prop31
280
     0
102
RTVSPost2010PropOp31
 70
     1
102
RTVSPost2010Prop32
280
     0
102
RTVSPost2010PropOp32
 70
     1
102
RTVSPost2010Prop33
280
     0
102
RTVSPost2010PropOp33
 70
     1
102
RTVSPost2010Prop34
280
     0
102
RTVSPost2010PropOp34
 70
     1
102
RTVSPost2010Prop35
280
     0
102
RTVSPost2010PropOp35
 70
     1
102
RTVSPost2010Prop36
280
     0
102
RTVSPost2010PropOp36
 70
     1
102
RTVSPost2010Prop37
 90
       50
102
RTVSPost2010PropOp37
 70
     1
102
RTVSPost2010Prop38
140
0.0
102
RTVSPost2010PropOp38
 70
     1
102
RTVSPost2010Prop39
140
1.0
102
RTVSPost2010PropOp39
 70
     1
102
RTVSPost2010Prop40
 90
        0
102
RTVSPost2010PropOp40
 70
     1
102
RTVSPost2010Prop41ColorIndex
 90
       18
102
RTVSPost2010Prop41ColorRGB
 90
        0
102
RTVSPost2010PropOp41
 70
     1
102
RTVSPost2010Prop42
 90
       50
102
RTVSPost2010PropOp42
 70
     1
102
RTVSPost2010Prop43
 90
        3
102
RTVSPost2010PropOp43
 70
     1
102
RTVSPost2010Prop44ColorIndex
 90
        5
102
RTVSPost2010Prop44ColorRGB
 90
      255
102
RTVSPost2010PropOp44
 70
     1
102
RTVSPost2010Prop45
280
     0
102
RTVSPost2010PropOp45
 70
     1
102
RTVSPost2010Prop46
 90
       50
102
RTVSPost2010PropOp46
 70
     1
102
RTVSPost2010Prop47
 90
       50
102
RTVSPost2010PropOp47
 70
     1
102
RTVSPost2010Prop48
 90
       50
102
RTVSPost2010PropOp48
 70
     1
102
RTVSPost2010Prop49
280
     0
102
RTVSPost2010PropOp49
 70
     1
102
RTVSPost2010Prop50
 90
       50
102
RTVSPost2010PropOp50
 70
     1
102
RTVSPost2010Prop51ColorIndex
 90
      256
102
RTVSPost2010Prop51ColorRGB
 90
-16777216
102
RTVSPost2010PropOp51
 70
     0
102
RTVSPost2010Prop52
140
1.0
102
RTVSPost2010PropOp52
 70
     0
102
RTVSPost2010Prop53
 90
        2
102
RTVSPost2010PropOp53
 70
     1
102
RTVSPost2010Prop54
  1
strokes_ogs.tif
102
RTVSPost2010PropOp54
 70
     1
102
RTVSPost2010Prop55
280
     0
102
RTVSPost2010PropOp55
 70
     1
102
RTVSPost2010Prop56
140
1.0
102
RTVSPost2010PropOp56
 70
     1
102
RTVSPost2010Prop57
140
1.0
102
RTVSPost2010PropOp57
 70
     1
102
RTVSPropertyOp0
 70
     1
102
RTVSPropertyOp1
 70
     1
102
RTVSPropertyOp2
 70
     1
102
RTVSPropertyOp3
 70
     1
102
RTVSPropertyOp4
 70
     1
102
RTVSPropertyOp5
 70
     1
102
RTVSPropertyOp6
 70
     1
102
RTVSPropertyOp7
 70
     1
102
RTVSPropertyOp8
 70
     1
102
RTVSPropertyOp9
 70
     1
102
RTVSPropertyOp10
 70
     1
102
RTVSPropertyOp11
 70
     1
102
RTVSPropertyOp12
 70
     1
102
RTVSPropertyOp13
 70
     1
102
RTVSPropertyOp14
 70
     1
102
RTVSPropertyOp15
 70
     1
102
RTVSPropertyOp16
 70
     1
102
RTVSPropertyOp17
 70
     1
102
RTVSPropertyOp18
 70
     1
102
RTVSPropertyOp19
 70
     1
102
RTVSPropertyOp20
 70
     1
102
RTVSPropertyOp21
 70
     1
102
RTVSPropertyOp22
 70
     1
102
RTVSPropertyOp23
 70
     1
102
RTVSPropertyOp24
 70
     1
102
RTVSPropertyOp25
 70
     1
102
RTVSPropertyOp26
 70
     1
102
RTVSPropertyOp27
 70
     1
102
RTVSPropertyOp28
 70
     1
102
RTVSPropertyOp29
 70
     1
102
RTVSPropertyOp30
 70
     1
102
RTVSPropertyOp31
 70
     1
102
RTVSPropertyOp32
 70
     1
102
RTVSPropertyOp33
 70
     1
102
RTVSPropertyOp34
 70
     1
102
RTVSPropertyOp35
 70
     1
102
RTVSPropertyOp36
 70
     1
102
RTVSPropertyOp37
 70
     1
102
RTVSPropertyOp38
 70
     1
102
RTVSPropertyOp39
 70
     1
102
RTVSPropertyOp40
 70
     1
102
RTVSPropertyOp41
 70
     1
102
RTVSPropertyOp42
 70
     1
102
RTVSPropertyOp43
 70
     1
102
RTVSPropertyOp44
 70
     1
102
RTVSPropertyOp45
 70
     1
102
RTVSPropertyOp46
 70
     1
102
RTVSPropertyOp47
 70
     1
102
RTVSPropertyOp48
 70
     1
102
RTVSPropertyOp49
 70
     1
102
RTVSPropertyOp50
 70
     1
102
RTVSPropertyOp51
 70
     0
102
RTVSPropertyOp52
 70
     0
102
RTVSPropertyOp53
 70
     1
102
RTVSPropertyOp54
 70
     1
102
RTVSPropertyOp55
 70
     1
102
RTVSPropertyOp56
 70
     1
102
RTVSPropertyOp57
 70
     1
102
RTVSPropertyOp58
 70
     1
102
RTVSPropertyOp59
 70
     1
102
RTVSPropertyOp60
 70
     1
102
RTVSPropertyOp61
 70
     1
102
RTVSPropertyOp62
 70
     1
  0
XRECORD
  5
243
102
{ACAD_REACTORS
330
242
102
}
330
242
100
AcDbXrecord
280
     1
102
RTVSPost2010Prop28
280
     0
102
RTVSPost2010PropOp28
 70
     1
102
RTVSPost2010Prop29
280
     1
102
RTVSPost2010PropOp29
 70
     1
102
RTVSPost2010Prop30
280
     1
102
RTVSPost2010PropOp30
 70
     1
102
RTVSPost2010Prop31
280
     0
102
RTVSPost2010PropOp31
 70
     1
102
RTVSPost2010Prop32
280
     0
102
RTVSPost2010PropOp32
 70
     1
102
RTVSPost2010Prop33
280
     0
102
RTVSPost2010PropOp33
 70
     1
102
RTVSPost2010Prop34
280
     0
102
RTVSPost2010PropOp34
 70
     1
102
RTVSPost2010Prop35
280
     0
102
RTVSPost2010PropOp35
 70
     1
102
RTVSPost2010Prop36
280
     0
102
RTVSPost2010PropOp36
 70
     1
102
RTVSPost2010Prop37
 90
       50
102
RTVSPost2010PropOp37
 70
     1
102
RTVSPost2010Prop38
140
0.0
102
RTVSPost2010PropOp38
 70
     1
102
RTVSPost2010Prop39
140
1.0
102
RTVSPost2010PropOp39
 70
     1
102
RTVSPost2010Prop40
 90
        0
102
RTVSPost2010PropOp40
 70
     1
102
RTVSPost2010Prop41ColorIndex
 90
       18
102
RTVSPost2010Prop41ColorRGB
 90
        0
102
RTVSPost2010PropOp41
 70
     1
102
RTVSPost2010Prop42
 90
       50
102
RTVSPost2010PropOp42
 70
     1
102
RTVSPost2010Prop43
 90
        3
102
RTVSPost2010PropOp43
 70
     1
102
RTVSPost2010Prop44ColorIndex
 90
        5
102
RTVSPost2010Prop44ColorRGB
 90
      255
102
RTVSPost2010PropOp44
 70
     1
102
RTVSPost2010Prop45
280
     0
102
RTVSPost2010PropOp45
 70
     1
102
RTVSPost2010Prop46
 90
       50
102
RTVSPost2010PropOp46
 70
     1
102
RTVSPost2010Prop47
 90
       50
102
RTVSPost2010PropOp47
 70
     1
102
RTVSPost2010Prop48
 90
       50
102
RTVSPost2010PropOp48
 70
     1
102
RTVSPost2010Prop49
280
     0
102
RTVSPost2010PropOp49
 70
     1
102
RTVSPost2010Prop50
 90
       50
102
RTVSPost2010PropOp50
 70
     1
102
RTVSPost2010Prop51ColorIndex
 90
      256
102
RTVSPost2010Prop51ColorRGB
 90
-16777216
102
RTVSPost2010PropOp51
 70
     0
102
RTVSPost2010Prop52
140
1.0
102
RTVSPost2010PropOp52
 70
     0
102
RTVSPost2010Prop53
 90
        2
102
RTVSPost2010PropOp53
 70
     1
102
RTVSPost2010Prop54
  1
strokes_ogs.tif
102
RTVSPost2010PropOp54
 70
     1
102
RTVSPost2010Prop55
280
     0
102
RTVSPost2010PropOp55
 70
     1
102
RTVSPost2010Prop56
140
1.0
102
RTVSPost2010PropOp56
 70
     1
102
RTVSPost2010Prop57
140
1.0
102
RTVSPost2010PropOp57
 70
     1
102
RTVSPropertyOp0
 70
     1
102
RTVSPropertyOp1
 70
     1
102
RTVSPropertyOp2
 70
     1
102
RTVSPropertyOp3
 70
     1
102
RTVSPropertyOp4
 70
     1
102
RTVSPropertyOp5
 70
     1
102
RTVSPropertyOp6
 70
     1
102
RTVSPropertyOp7
 70
     1
102
RTVSPropertyOp8
 70
     1
102
RTVSPropertyOp9
 70
     1
102
RTVSPropertyOp10
 70
     1
102
RTVSPropertyOp11
 70
     1
102
RTVSPropertyOp12
 70
     1
102
RTVSPropertyOp13
 70
     1
102
RTVSPropertyOp14
 70
     1
102
RTVSPropertyOp15
 70
     1
102
RTVSPropertyOp16
 70
     1
102
RTVSPropertyOp17
 70
     1
102
RTVSPropertyOp18
 70
     1
102
RTVSPropertyOp19
 70
     1
102
RTVSPropertyOp20
 70
     1
102
RTVSPropertyOp21
 70
     1
102
RTVSPropertyOp22
 70
     1
102
RTVSPropertyOp23
 70
     1
102
RTVSPropertyOp24
 70
     1
102
RTVSPropertyOp25
 70
     1
102
RTVSPropertyOp26
 70
     1
102
RTVSPropertyOp27
 70
     1
102
RTVSPropertyOp28
 70
     1
102
RTVSPropertyOp29
 70
     1
102
RTVSPropertyOp30
 70
     1
102
RTVSPropertyOp31
 70
     1
102
RTVSPropertyOp32
 70
     1
102
RTVSPropertyOp33
 70
     1
102
RTVSPropertyOp34
 70
     1
102
RTVSPropertyOp35
 70
     1
102
RTVSPropertyOp36
 70
     1
102
RTVSPropertyOp37
 70
     1
102
RTVSPropertyOp38
 70
     1
102
RTVSPropertyOp39
 70
     1
102
RTVSPropertyOp40
 70
     1
102
RTVSPropertyOp41
 70
     1
102
RTVSPropertyOp42
 70
     1
102
RTVSPropertyOp43
 70
     1
102
RTVSPropertyOp44
 70
     1
102
RTVSPropertyOp45
 70
     1
102
RTVSPropertyOp46
 70
     1
102
RTVSPropertyOp47
 70
     1
102
RTVSPropertyOp48
 70
     1
102
RTVSPropertyOp49
 70
     1
102
RTVSPropertyOp50
 70
     1
102
RTVSPropertyOp51
 70
     0
102
RTVSPropertyOp52
 70
     0
102
RTVSPropertyOp53
 70
     1
102
RTVSPropertyOp54
 70
     1
102
RTVSPropertyOp55
 70
     1
102
RTVSPropertyOp56
 70
     1
102
RTVSPropertyOp57
 70
     1
102
RTVSPropertyOp58
 70
     1
102
RTVSPropertyOp59
 70
     1
102
RTVSPropertyOp60
 70
     1
102
RTVSPropertyOp61
 70
     1
102
RTVSPropertyOp62
 70
     1
  0
XRECORD
  5
245
102
{ACAD_REACTORS
330
244
102
}
330
244
100
AcDbXrecord
280
     1
102
RTVSPost2010Prop28
280
     0
102
RTVSPost2010PropOp28
 70
     1
102
RTVSPost2010Prop29
280
     1
102
RTVSPost2010PropOp29
 70
     1
102
RTVSPost2010Prop30
280
     1
102
RTVSPost2010PropOp30
 70
     1
102
RTVSPost2010Prop31
280
     0
102
RTVSPost2010PropOp31
 70
     1
102
RTVSPost2010Prop32
280
     0
102
RTVSPost2010PropOp32
 70
     1
102
RTVSPost2010Prop33
280
     0
102
RTVSPost2010PropOp33
 70
     1
102
RTVSPost2010Prop34
280
     0
102
RTVSPost2010PropOp34
 70
     1
102
RTVSPost2010Prop35
280
     0
102
RTVSPost2010PropOp35
 70
     1
102
RTVSPost2010Prop36
280
     0
102
RTVSPost2010PropOp36
 70
     1
102
RTVSPost2010Prop37
 90
       50
102
RTVSPost2010PropOp37
 70
     1
102
RTVSPost2010Prop38
140
0.0
102
RTVSPost2010PropOp38
 70
     1
102
RTVSPost2010Prop39
140
1.0
102
RTVSPost2010PropOp39
 70
     1
102
RTVSPost2010Prop40
 90
        0
102
RTVSPost2010PropOp40
 70
     1
102
RTVSPost2010Prop41ColorIndex
 90
       18
102
RTVSPost2010Prop41ColorRGB
 90
        0
102
RTVSPost2010PropOp41
 70
     1
102
RTVSPost2010Prop42
 90
       50
102
RTVSPost2010PropOp42
 70
     1
102
RTVSPost2010Prop43
 90
        3
102
RTVSPost2010PropOp43
 70
     1
102
RTVSPost2010Prop44ColorIndex
 90
        5
102
RTVSPost2010Prop44ColorRGB
 90
      255
102
RTVSPost2010PropOp44
 70
     1
102
RTVSPost2010Prop45
280
     0
102
RTVSPost2010PropOp45
 70
     1
102
RTVSPost2010Prop46
 90
       50
102
RTVSPost2010PropOp46
 70
     1
102
RTVSPost2010Prop47
 90
       50
102
RTVSPost2010PropOp47
 70
     1
102
RTVSPost2010Prop48
 90
       50
102
RTVSPost2010PropOp48
 70
     1
102
RTVSPost2010Prop49
280
     0
102
RTVSPost2010PropOp49
 70
     1
102
RTVSPost2010Prop50
 90
       50
102
RTVSPost2010PropOp50
 70
     1
102
RTVSPost2010Prop51ColorIndex
 90
      256
102
RTVSPost2010Prop51ColorRGB
 90
-16777216
102
RTVSPost2010PropOp51
 70
     0
102
RTVSPost2010Prop52
140
1.0
102
RTVSPost2010PropOp52
 70
     0
102
RTVSPost2010Prop53
 90
        2
102
RTVSPost2010PropOp53
 70
     1
102
RTVSPost2010Prop54
  1
strokes_ogs.tif
102
RTVSPost2010PropOp54
 70
     1
102
RTVSPost2010Prop55
280
     0
102
RTVSPost2010PropOp55
 70
     1
102
RTVSPost2010Prop56
140
1.0
102
RTVSPost2010PropOp56
 70
     1
102
RTVSPost2010Prop57
140
1.0
102
RTVSPost2010PropOp57
 70
     1
102
RTVSPropertyOp0
 70
     1
102
RTVSPropertyOp1
 70
     1
102
RTVSPropertyOp2
 70
     1
102
RTVSPropertyOp3
 70
     1
102
RTVSPropertyOp4
 70
     1
102
RTVSPropertyOp5
 70
     1
102
RTVSPropertyOp6
 70
     1
102
RTVSPropertyOp7
 70
     1
102
RTVSPropertyOp8
 70
     1
102
RTVSPropertyOp9
 70
     1
102
RTVSPropertyOp10
 70
     1
102
RTVSPropertyOp11
 70
     1
102
RTVSPropertyOp12
 70
     1
102
RTVSPropertyOp13
 70
     1
102
RTVSPropertyOp14
 70
     1
102
RTVSPropertyOp15
 70
     1
102
RTVSPropertyOp16
 70
     1
102
RTVSPropertyOp17
 70
     1
102
RTVSPropertyOp18
 70
     1
102
RTVSPropertyOp19
 70
     1
102
RTVSPropertyOp20
 70
     1
102
RTVSPropertyOp21
 70
     1
102
RTVSPropertyOp22
 70
     1
102
RTVSPropertyOp23
 70
     1
102
RTVSPropertyOp24
 70
     1
102
RTVSPropertyOp25
 70
     1
102
RTVSPropertyOp26
 70
     1
102
RTVSPropertyOp27
 70
     1
102
RTVSPropertyOp28
 70
     1
102
RTVSPropertyOp29
 70
     1
102
RTVSPropertyOp30
 70
     1
102
RTVSPropertyOp31
 70
     1
102
RTVSPropertyOp32
 70
     1
102
RTVSPropertyOp33
 70
     1
102
RTVSPropertyOp34
 70
     1
102
RTVSPropertyOp35
 70
     1
102
RTVSPropertyOp36
 70
     1
102
RTVSPropertyOp37
 70
     1
102
RTVSPropertyOp38
 70
     1
102
RTVSPropertyOp39
 70
     1
102
RTVSPropertyOp40
 70
     1
102
RTVSPropertyOp41
 70
     1
102
RTVSPropertyOp42
 70
     1
102
RTVSPropertyOp43
 70
     1
102
RTVSPropertyOp44
 70
     1
102
RTVSPropertyOp45
 70
     1
102
RTVSPropertyOp46
 70
     1
102
RTVSPropertyOp47
 70
     1
102
RTVSPropertyOp48
 70
     1
102
RTVSPropertyOp49
 70
     1
102
RTVSPropertyOp50
 70
     1
102
RTVSPropertyOp51
 70
     0
102
RTVSPropertyOp52
 70
     0
102
RTVSPropertyOp53
 70
     1
102
RTVSPropertyOp54
 70
     1
102
RTVSPropertyOp55
 70
     1
102
RTVSPropertyOp56
 70
     1
102
RTVSPropertyOp57
 70
     1
102
RTVSPropertyOp58
 70
     1
102
RTVSPropertyOp59
 70
     1
102
RTVSPropertyOp60
 70
     1
102
RTVSPropertyOp61
 70
     1
102
RTVSPropertyOp62
 70
     1
  0
XRECORD
  5
23B
102
{ACAD_REACTORS
330
23A
102
}
330
23A
100
AcDbXrecord
280
     1
102
RTVSPost2010Prop28
280
     0
102
RTVSPost2010PropOp28
 70
     1
102
RTVSPost2010Prop29
280
     1
102
RTVSPost2010PropOp29
 70
     1
102
RTVSPost2010Prop30
280
     1
102
RTVSPost2010PropOp30
 70
     1
102
RTVSPost2010Prop31
280
     0
102
RTVSPost2010PropOp31
 70
     1
102
RTVSPost2010Prop32
280
     0
102
RTVSPost2010PropOp32
 70
     1
102
RTVSPost2010Prop33
280
     0
102
RTVSPost2010PropOp33
 70
     1
102
RTVSPost2010Prop34
280
     0
102
RTVSPost2010PropOp34
 70
     1
102
RTVSPost2010Prop35
280
     0
102
RTVSPost2010PropOp35
 70
     1
102
RTVSPost2010Prop36
280
     0
102
RTVSPost2010PropOp36
 70
     1
102
RTVSPost2010Prop37
 90
       50
102
RTVSPost2010PropOp37
 70
     1
102
RTVSPost2010Prop38
140
0.0
102
RTVSPost2010PropOp38
 70
     1
102
RTVSPost2010Prop39
140
1.0
102
RTVSPost2010PropOp39
 70
     1
102
RTVSPost2010Prop40
 90
        0
102
RTVSPost2010PropOp40
 70
     1
102
RTVSPost2010Prop41ColorIndex
 90
       18
102
RTVSPost2010Prop41ColorRGB
 90
        0
102
RTVSPost2010PropOp41
 70
     1
102
RTVSPost2010Prop42
 90
       50
102
RTVSPost2010PropOp42
 70
     1
102
RTVSPost2010Prop43
 90
        3
102
RTVSPost2010PropOp43
 70
     1
102
RTVSPost2010Prop44ColorIndex
 90
        5
102
RTVSPost2010Prop44ColorRGB
 90
      255
102
RTVSPost2010PropOp44
 70
     1
102
RTVSPost2010Prop45
280
     0
102
RTVSPost2010PropOp45
 70
     1
102
RTVSPost2010Prop46
 90
       50
102
RTVSPost2010PropOp46
 70
     1
102
RTVSPost2010Prop47
 90
       50
102
RTVSPost2010PropOp47
 70
     1
102
RTVSPost2010Prop48
 90
       50
102
RTVSPost2010PropOp48
 70
     1
102
RTVSPost2010Prop49
280
     0
102
RTVSPost2010PropOp49
 70
     1
102
RTVSPost2010Prop50
 90
       50
102
RTVSPost2010PropOp50
 70
     1
102
RTVSPost2010Prop51ColorIndex
 90
      256
102
RTVSPost2010Prop51ColorRGB
 90
-16777216
102
RTVSPost2010PropOp51
 70
     0
102
RTVSPost2010Prop52
140
1.0
102
RTVSPost2010PropOp52
 70
     0
102
RTVSPost2010Prop53
 90
        2
102
RTVSPost2010PropOp53
 70
     1
102
RTVSPost2010Prop54
  1
strokes_ogs.tif
102
RTVSPost2010PropOp54
 70
     1
102
RTVSPost2010Prop55
280
     0
102
RTVSPost2010PropOp55
 70
     1
102
RTVSPost2010Prop56
140
1.0
102
RTVSPost2010PropOp56
 70
     1
102
RTVSPost2010Prop57
140
1.0
102
RTVSPost2010PropOp57
 70
     1
102
RTVSPropertyOp0
 70
     1
102
RTVSPropertyOp1
 70
     1
102
RTVSPropertyOp2
 70
     1
102
RTVSPropertyOp3
 70
     1
102
RTVSPropertyOp4
 70
     1
102
RTVSPropertyOp5
 70
     1
102
RTVSPropertyOp6
 70
     1
102
RTVSPropertyOp7
 70
     1
102
RTVSPropertyOp8
 70
     1
102
RTVSPropertyOp9
 70
     1
102
RTVSPropertyOp10
 70
     1
102
RTVSPropertyOp11
 70
     1
102
RTVSPropertyOp12
 70
     1
102
RTVSPropertyOp13
 70
     1
102
RTVSPropertyOp14
 70
     1
102
RTVSPropertyOp15
 70
     1
102
RTVSPropertyOp16
 70
     1
102
RTVSPropertyOp17
 70
     1
102
RTVSPropertyOp18
 70
     1
102
RTVSPropertyOp19
 70
     1
102
RTVSPropertyOp20
 70
     1
102
RTVSPropertyOp21
 70
     1
102
RTVSPropertyOp22
 70
     1
102
RTVSPropertyOp23
 70
     1
102
RTVSPropertyOp24
 70
     1
102
RTVSPropertyOp25
 70
     1
102
RTVSPropertyOp26
 70
     1
102
RTVSPropertyOp27
 70
     1
102
RTVSPropertyOp28
 70
     1
102
RTVSPropertyOp29
 70
     1
102
RTVSPropertyOp30
 70
     1
102
RTVSPropertyOp31
 70
     1
102
RTVSPropertyOp32
 70
     1
102
RTVSPropertyOp33
 70
     1
102
RTVSPropertyOp34
 70
     1
102
RTVSPropertyOp35
 70
     1
102
RTVSPropertyOp36
 70
     1
102
RTVSPropertyOp37
 70
     1
102
RTVSPropertyOp38
 70
     1
102
RTVSPropertyOp39
 70
     1
102
RTVSPropertyOp40
 70
     1
102
RTVSPropertyOp41
 70
     1
102
RTVSPropertyOp42
 70
     1
102
RTVSPropertyOp43
 70
     1
102
RTVSPropertyOp44
 70
     1
102
RTVSPropertyOp45
 70
     1
102
RTVSPropertyOp46
 70
     1
102
RTVSPropertyOp47
 70
     1
102
RTVSPropertyOp48
 70
     1
102
RTVSPropertyOp49
 70
     1
102
RTVSPropertyOp50
 70
     1
102
RTVSPropertyOp51
 70
     0
102
RTVSPropertyOp52
 70
     0
102
RTVSPropertyOp53
 70
     1
102
RTVSPropertyOp54
 70
     1
102
RTVSPropertyOp55
 70
     1
102
RTVSPropertyOp56
 70
     1
102
RTVSPropertyOp57
 70
     1
102
RTVSPropertyOp58
 70
     1
102
RTVSPropertyOp59
 70
     1
102
RTVSPropertyOp60
 70
     1
102
RTVSPropertyOp61
 70
     1
102
RTVSPropertyOp62
 70
     1
  0
XRECORD
  5
22F
102
{ACAD_REACTORS
330
22E
102
}
330
22E
100
AcDbXrecord
280
     1
102
RTVSPost2010Prop28
280
     0
102
RTVSPost2010PropOp28
 70
     1
102
RTVSPost2010Prop29
280
     1
102
RTVSPost2010PropOp29
 70
     1
102
RTVSPost2010Prop30
280
     1
102
RTVSPost2010PropOp30
 70
     1
102
RTVSPost2010Prop31
280
     0
102
RTVSPost2010PropOp31
 70
     1
102
RTVSPost2010Prop32
280
     0
102
RTVSPost2010PropOp32
 70
     1
102
RTVSPost2010Prop33
280
     0
102
RTVSPost2010PropOp33
 70
     1
102
RTVSPost2010Prop34
280
     0
102
RTVSPost2010PropOp34
 70
     1
102
RTVSPost2010Prop35
280
     0
102
RTVSPost2010PropOp35
 70
     1
102
RTVSPost2010Prop36
280
     0
102
RTVSPost2010PropOp36
 70
     1
102
RTVSPost2010Prop37
 90
       50
102
RTVSPost2010PropOp37
 70
     1
102
RTVSPost2010Prop38
140
0.0
102
RTVSPost2010PropOp38
 70
     1
102
RTVSPost2010Prop39
140
1.0
102
RTVSPost2010PropOp39
 70
     1
102
RTVSPost2010Prop40
 90
        0
102
RTVSPost2010PropOp40
 70
     1
102
RTVSPost2010Prop41ColorIndex
 90
       18
102
RTVSPost2010Prop41ColorRGB
 90
        0
102
RTVSPost2010PropOp41
 70
     1
102
RTVSPost2010Prop42
 90
       50
102
RTVSPost2010PropOp42
 70
     1
102
RTVSPost2010Prop43
 90
        3
102
RTVSPost2010PropOp43
 70
     1
102
RTVSPost2010Prop44ColorIndex
 90
        5
102
RTVSPost2010Prop44ColorRGB
 90
      255
102
RTVSPost2010PropOp44
 70
     1
102
RTVSPost2010Prop45
280
     0
102
RTVSPost2010PropOp45
 70
     1
102
RTVSPost2010Prop46
 90
       50
102
RTVSPost2010PropOp46
 70
     1
102
RTVSPost2010Prop47
 90
       50
102
RTVSPost2010PropOp47
 70
     1
102
RTVSPost2010Prop48
 90
       50
102
RTVSPost2010PropOp48
 70
     1
102
RTVSPost2010Prop49
280
     0
102
RTVSPost2010PropOp49
 70
     1
102
RTVSPost2010Prop50
 90
       50
102
RTVSPost2010PropOp50
 70
     1
102
RTVSPost2010Prop51ColorIndex
 90
      256
102
RTVSPost2010Prop51ColorRGB
 90
-16777216
102
RTVSPost2010PropOp51
 70
     0
102
RTVSPost2010Prop52
140
1.0
102
RTVSPost2010PropOp52
 70
     0
102
RTVSPost2010Prop53
 90
        2
102
RTVSPost2010PropOp53
 70
     1
102
RTVSPost2010Prop54
  1
strokes_ogs.tif
102
RTVSPost2010PropOp54
 70
     1
102
RTVSPost2010Prop55
280
     0
102
RTVSPost2010PropOp55
 70
     1
102
RTVSPost2010Prop56
140
1.0
102
RTVSPost2010PropOp56
 70
     1
102
RTVSPost2010Prop57
140
1.0
102
RTVSPost2010PropOp57
 70
     1
102
RTVSPropertyOp0
 70
     1
102
RTVSPropertyOp1
 70
     1
102
RTVSPropertyOp2
 70
     1
102
RTVSPropertyOp3
 70
     1
102
RTVSPropertyOp4
 70
     1
102
RTVSPropertyOp5
 70
     1
102
RTVSPropertyOp6
 70
     1
102
RTVSPropertyOp7
 70
     1
102
RTVSPropertyOp8
 70
     1
102
RTVSPropertyOp9
 70
     1
102
RTVSPropertyOp10
 70
     1
102
RTVSPropertyOp11
 70
     1
102
RTVSPropertyOp12
 70
     1
102
RTVSPropertyOp13
 70
     1
102
RTVSPropertyOp14
 70
     1
102
RTVSPropertyOp15
 70
     1
102
RTVSPropertyOp16
 70
     1
102
RTVSPropertyOp17
 70
     1
102
RTVSPropertyOp18
 70
     1
102
RTVSPropertyOp19
 70
     1
102
RTVSPropertyOp20
 70
     1
102
RTVSPropertyOp21
 70
     1
102
RTVSPropertyOp22
 70
     1
102
RTVSPropertyOp23
 70
     1
102
RTVSPropertyOp24
 70
     1
102
RTVSPropertyOp25
 70
     1
102
RTVSPropertyOp26
 70
     1
102
RTVSPropertyOp27
 70
     1
102
RTVSPropertyOp28
 70
     1
102
RTVSPropertyOp29
 70
     1
102
RTVSPropertyOp30
 70
     1
102
RTVSPropertyOp31
 70
     1
102
RTVSPropertyOp32
 70
     1
102
RTVSPropertyOp33
 70
     1
102
RTVSPropertyOp34
 70
     1
102
RTVSPropertyOp35
 70
     1
102
RTVSPropertyOp36
 70
     1
102
RTVSPropertyOp37
 70
     1
102
RTVSPropertyOp38
 70
     1
102
RTVSPropertyOp39
 70
     1
102
RTVSPropertyOp40
 70
     1
102
RTVSPropertyOp41
 70
     1
102
RTVSPropertyOp42
 70
     1
102
RTVSPropertyOp43
 70
     1
102
RTVSPropertyOp44
 70
     1
102
RTVSPropertyOp45
 70
     1
102
RTVSPropertyOp46
 70
     1
102
RTVSPropertyOp47
 70
     1
102
RTVSPropertyOp48
 70
     1
102
RTVSPropertyOp49
 70
     1
102
RTVSPropertyOp50
 70
     1
102
RTVSPropertyOp51
 70
     0
102
RTVSPropertyOp52
 70
     0
102
RTVSPropertyOp53
 70
     1
102
RTVSPropertyOp54
 70
     1
102
RTVSPropertyOp55
 70
     1
102
RTVSPropertyOp56
 70
     1
102
RTVSPropertyOp57
 70
     1
102
RTVSPropertyOp58
 70
     1
102
RTVSPropertyOp59
 70
     1
102
RTVSPropertyOp60
 70
     1
102
RTVSPropertyOp61
 70
     1
102
RTVSPropertyOp62
 70
     1
  0
XRECORD
  5
247
102
{ACAD_REACTORS
330
246
102
}
330
246
100
AcDbXrecord
280
     1
102
RTVSPost2010Prop28
280
     0
102
RTVSPost2010PropOp28
 70
     1
102
RTVSPost2010Prop29
280
     1
102
RTVSPost2010PropOp29
 70
     1
102
RTVSPost2010Prop30
280
     1
102
RTVSPost2010PropOp30
 70
     1
102
RTVSPost2010Prop31
280
     0
102
RTVSPost2010PropOp31
 70
     1
102
RTVSPost2010Prop32
280
     0
102
RTVSPost2010PropOp32
 70
     1
102
RTVSPost2010Prop33
280
     0
102
RTVSPost2010PropOp33
 70
     1
102
RTVSPost2010Prop34
280
     0
102
RTVSPost2010PropOp34
 70
     1
102
RTVSPost2010Prop35
280
     0
102
RTVSPost2010PropOp35
 70
     1
102
RTVSPost2010Prop36
280
     0
102
RTVSPost2010PropOp36
 70
     1
102
RTVSPost2010Prop37
 90
       50
102
RTVSPost2010PropOp37
 70
     1
102
RTVSPost2010Prop38
140
0.0
102
RTVSPost2010PropOp38
 70
     1
102
RTVSPost2010Prop39
140
1.0
102
RTVSPost2010PropOp39
 70
     1
102
RTVSPost2010Prop40
 90
        0
102
RTVSPost2010PropOp40
 70
     1
102
RTVSPost2010Prop41ColorIndex
 90
       18
102
RTVSPost2010Prop41ColorRGB
 90
        0
102
RTVSPost2010PropOp41
 70
     1
102
RTVSPost2010Prop42
 90
       50
102
RTVSPost2010PropOp42
 70
     1
102
RTVSPost2010Prop43
 90
        3
102
RTVSPost2010PropOp43
 70
     1
102
RTVSPost2010Prop44ColorIndex
 90
        5
102
RTVSPost2010Prop44ColorRGB
 90
      255
102
RTVSPost2010PropOp44
 70
     1
102
RTVSPost2010Prop45
280
     0
102
RTVSPost2010PropOp45
 70
     1
102
RTVSPost2010Prop46
 90
       50
102
RTVSPost2010PropOp46
 70
     1
102
RTVSPost2010Prop47
 90
       50
102
RTVSPost2010PropOp47
 70
     1
102
RTVSPost2010Prop48
 90
       50
102
RTVSPost2010PropOp48
 70
     1
102
RTVSPost2010Prop49
280
     0
102
RTVSPost2010PropOp49
 70
     1
102
RTVSPost2010Prop50
 90
       50
102
RTVSPost2010PropOp50
 70
     1
102
RTVSPost2010Prop51ColorIndex
 90
      256
102
RTVSPost2010Prop51ColorRGB
 90
-16777216
102
RTVSPost2010PropOp51
 70
     0
102
RTVSPost2010Prop52
140
1.0
102
RTVSPost2010PropOp52
 70
     0
102
RTVSPost2010Prop53
 90
        2
102
RTVSPost2010PropOp53
 70
     1
102
RTVSPost2010Prop54
  1
strokes_ogs.tif
102
RTVSPost2010PropOp54
 70
     1
102
RTVSPost2010Prop55
280
     0
102
RTVSPost2010PropOp55
 70
     1
102
RTVSPost2010Prop56
140
1.0
102
RTVSPost2010PropOp56
 70
     1
102
RTVSPost2010Prop57
140
1.0
102
RTVSPost2010PropOp57
 70
     1
102
RTVSPropertyOp0
 70
     1
102
RTVSPropertyOp1
 70
     1
102
RTVSPropertyOp2
 70
     1
102
RTVSPropertyOp3
 70
     1
102
RTVSPropertyOp4
 70
     1
102
RTVSPropertyOp5
 70
     1
102
RTVSPropertyOp6
 70
     1
102
RTVSPropertyOp7
 70
     1
102
RTVSPropertyOp8
 70
     1
102
RTVSPropertyOp9
 70
     1
102
RTVSPropertyOp10
 70
     1
102
RTVSPropertyOp11
 70
     1
102
RTVSPropertyOp12
 70
     1
102
RTVSPropertyOp13
 70
     1
102
RTVSPropertyOp14
 70
     1
102
RTVSPropertyOp15
 70
     1
102
RTVSPropertyOp16
 70
     1
102
RTVSPropertyOp17
 70
     1
102
RTVSPropertyOp18
 70
     1
102
RTVSPropertyOp19
 70
     1
102
RTVSPropertyOp20
 70
     1
102
RTVSPropertyOp21
 70
     1
102
RTVSPropertyOp22
 70
     1
102
RTVSPropertyOp23
 70
     1
102
RTVSPropertyOp24
 70
     1
102
RTVSPropertyOp25
 70
     1
102
RTVSPropertyOp26
 70
     1
102
RTVSPropertyOp27
 70
     1
102
RTVSPropertyOp28
 70
     1
102
RTVSPropertyOp29
 70
     1
102
RTVSPropertyOp30
 70
     1
102
RTVSPropertyOp31
 70
     1
102
RTVSPropertyOp32
 70
     1
102
RTVSPropertyOp33
 70
     1
102
RTVSPropertyOp34
 70
     1
102
RTVSPropertyOp35
 70
     1
102
RTVSPropertyOp36
 70
     1
102
RTVSPropertyOp37
 70
     1
102
RTVSPropertyOp38
 70
     1
102
RTVSPropertyOp39
 70
     1
102
RTVSPropertyOp40
 70
     1
102
RTVSPropertyOp41
 70
     1
102
RTVSPropertyOp42
 70
     1
102
RTVSPropertyOp43
 70
     1
102
RTVSPropertyOp44
 70
     1
102
RTVSPropertyOp45
 70
     1
102
RTVSPropertyOp46
 70
     1
102
RTVSPropertyOp47
 70
     1
102
RTVSPropertyOp48
 70
     1
102
RTVSPropertyOp49
 70
     1
102
RTVSPropertyOp50
 70
     1
102
RTVSPropertyOp51
 70
     0
102
RTVSPropertyOp52
 70
     0
102
RTVSPropertyOp53
 70
     1
102
RTVSPropertyOp54
 70
     1
102
RTVSPropertyOp55
 70
     1
102
RTVSPropertyOp56
 70
     1
102
RTVSPropertyOp57
 70
     1
102
RTVSPropertyOp58
 70
     1
102
RTVSPropertyOp59
 70
     1
102
RTVSPropertyOp60
 70
     1
102
RTVSPropertyOp61
 70
     1
102
RTVSPropertyOp62
 70
     1
  0
ENDSEC
  0
EOF
