  0
SECTION
  2
HEADER
  9
$ACADVER
  1
AC1018
  9
$ACADMAINTVER
 70
   104
  9
$DWGCODEPAGE
  3
ANSI_936
  9
$INSBASE
 10
0.0
 20
0.0
 30
0.0
  9
$EXTMIN
 10
1.000000000000000E+20
 20
1.000000000000000E+20
 30
1.000000000000000E+20
  9
$EXTMAX
 10
-1.000000000000000E+20
 20
-1.000000000000000E+20
 30
-1.000000000000000E+20
  9
$LIMMIN
 10
0.0
 20
0.0
  9
$LIMMAX
 10
12.0
 20
9.0
  9
$ORTHOMODE
 70
     0
  9
$REGENMODE
 70
     1
  9
$FILLMODE
 70
     1
  9
$QTEXTMODE
 70
     0
  9
$MIRRTEXT
 70
     0
  9
$LTSCALE
 40
1.0
  9
$ATTMODE
 70
     1
  9
$TEXTSIZE
 40
0.2
  9
$TRACEWID
 40
0.05
  9
$TEXTSTYLE
  7
Standard
  9
$CLAYER
  8
0
  9
$CELTYPE
  6
ByLayer
  9
$CECOLOR
 62
   256
  9
$CELTSCALE
 40
1.0
  9
$DISPSILH
 70
     0
  9
$DIMSCALE
 40
1.0
  9
$DIMASZ
 40
0.18
  9
$DIMEXO
 40
0.0625
  9
$DIMDLI
 40
0.38
  9
$DIMRND
 40
0.0
  9
$DIMDLE
 40
0.0
  9
$DIMEXE
 40
0.18
  9
$DIMTP
 40
0.0
  9
$DIMTM
 40
0.0
  9
$DIMTXT
 40
0.18
  9
$DIMCEN
 40
0.09
  9
$DIMTSZ
 40
0.0
  9
$DIMTOL
 70
     0
  9
$DIMLIM
 70
     0
  9
$DIMTIH
 70
     1
  9
$DIMTOH
 70
     1
  9
$DIMSE1
 70
     0
  9
$DIMSE2
 70
     0
  9
$DIMTAD
 70
     0
  9
$DIMZIN
 70
     0
  9
$DIMBLK
  1

  9
$DIMASO
 70
     1
  9
$DIMSHO
 70
     1
  9
$DIMPOST
  1

  9
$DIMAPOST
  1

  9
$DIMALT
 70
     0
  9
$DIMALTD
 70
     2
  9
$DIMALTF
 40
25.4
  9
$DIMLFAC
 40
1.0
  9
$DIMTOFL
 70
     0
  9
$DIMTVP
 40
0.0
  9
$DIMTIX
 70
     0
  9
$DIMSOXD
 70
     0
  9
$DIMSAH
 70
     0
  9
$DIMBLK1
  1

  9
$DIMBLK2
  1

  9
$DIMSTYLE
  2
Standard
  9
$DIMCLRD
 70
     0
  9
$DIMCLRE
 70
     0
  9
$DIMCLRT
 70
     0
  9
$DIMTFAC
 40
1.0
  9
$DIMGAP
 40
0.09
  9
$DIMJUST
 70
     0
  9
$DIMSD1
 70
     0
  9
$DIMSD2
 70
     0
  9
$DIMTOLJ
 70
     1
  9
$DIMTZIN
 70
     0
  9
$DIMALTZ
 70
     0
  9
$DIMALTTZ
 70
     0
  9
$DIMUPT
 70
     0
  9
$DIMDEC
 70
     4
  9
$DIMTDEC
 70
     4
  9
$DIMALTU
 70
     2
  9
$DIMALTTD
 70
     2
  9
$DIMTXSTY
  7
Standard
  9
$DIMAUNIT
 70
     0
  9
$DIMADEC
 70
     0
  9
$DIMALTRND
 40
0.0
  9
$DIMAZIN
 70
     0
  9
$DIMDSEP
 70
    46
  9
$DIMATFIT
 70
     3
  9
$DIMFRAC
 70
     0
  9
$DIMLDRBLK
  1

  9
$DIMLUNIT
 70
     2
  9
$DIMLWD
 70
    -2
  9
$DIMLWE
 70
    -2
  9
$DIMTMOVE
 70
     0
  9
$LUNITS
 70
     2
  9
$LUPREC
 70
     4
  9
$SKETCHINC
 40
0.1
  9
$FILLETRAD
 40
0.0
  9
$AUNITS
 70
     0
  9
$AUPREC
 70
     0
  9
$MENU
  1
.
  9
$ELEVATION
 40
0.0
  9
$PELEVATION
 40
0.0
  9
$THICKNESS
 40
0.0
  9
$LIMCHECK
 70
     0
  9
$CHAMFERA
 40
0.0
  9
$CHAMFERB
 40
0.0
  9
$CHAMFERC
 40
0.0
  9
$CHAMFERD
 40
0.0
  9
$SKPOLY
 70
     0
  9
$TDCREATE
 40
2460900.738356482
  9
$TDUCREATE
 40
2460900.405023148
  9
$TDUPDATE
 40
2460900.738356482
  9
$TDUUPDATE
 40
2460900.405023148
  9
$TDINDWG
 40
0.0000000000
  9
$TDUSRTIMER
 40
0.0000000000
  9
$USRTIMER
 70
     1
  9
$ANGBASE
 50
0.0
  9
$ANGDIR
 70
     0
  9
$PDMODE
 70
     0
  9
$PDSIZE
 40
0.0
  9
$PLINEWID
 40
0.0
  9
$SPLFRAME
 70
     0
  9
$SPLINETYPE
 70
     6
  9
$SPLINESEGS
 70
     8
  9
$HANDSEED
  5
1D2
  9
$SURFTAB1
 70
     6
  9
$SURFTAB2
 70
     6
  9
$SURFTYPE
 70
     6
  9
$SURFU
 70
     6
  9
$SURFV
 70
     6
  9
$UCSBASE
  2

  9
$UCSNAME
  2

  9
$UCSORG
 10
0.0
 20
0.0
 30
0.0
  9
$UCSXDIR
 10
1.0
 20
0.0
 30
0.0
  9
$UCSYDIR
 10
0.0
 20
1.0
 30
0.0
  9
$UCSORTHOREF
  2

  9
$UCSORTHOVIEW
 70
     0
  9
$UCSORGTOP
 10
0.0
 20
0.0
 30
0.0
  9
$UCSORGBOTTOM
 10
0.0
 20
0.0
 30
0.0
  9
$UCSORGLEFT
 10
0.0
 20
0.0
 30
0.0
  9
$UCSORGRIGHT
 10
0.0
 20
0.0
 30
0.0
  9
$UCSORGFRONT
 10
0.0
 20
0.0
 30
0.0
  9
$UCSORGBACK
 10
0.0
 20
0.0
 30
0.0
  9
$PUCSBASE
  2

  9
$PUCSNAME
  2

  9
$PUCSORG
 10
0.0
 20
0.0
 30
0.0
  9
$PUCSXDIR
 10
1.0
 20
0.0
 30
0.0
  9
$PUCSYDIR
 10
0.0
 20
1.0
 30
0.0
  9
$PUCSORTHOREF
  2

  9
$PUCSORTHOVIEW
 70
     0
  9
$PUCSORGTOP
 10
0.0
 20
0.0
 30
0.0
  9
$PUCSORGBOTTOM
 10
0.0
 20
0.0
 30
0.0
  9
$PUCSORGLEFT
 10
0.0
 20
0.0
 30
0.0
  9
$PUCSORGRIGHT
 10
0.0
 20
0.0
 30
0.0
  9
$PUCSORGFRONT
 10
0.0
 20
0.0
 30
0.0
  9
$PUCSORGBACK
 10
0.0
 20
0.0
 30
0.0
  9
$USERI1
 70
     0
  9
$USERI2
 70
     0
  9
$USERI3
 70
     0
  9
$USERI4
 70
     0
  9
$USERI5
 70
     0
  9
$USERR1
 40
0.0
  9
$USERR2
 40
0.0
  9
$USERR3
 40
0.0
  9
$USERR4
 40
0.0
  9
$USERR5
 40
0.0
  9
$WORLDVIEW
 70
     1
  9
$SHADEDGE
 70
     3
  9
$SHADEDIF
 70
    70
  9
$TILEMODE
 70
     1
  9
$MAXACTVP
 70
    64
  9
$PINSBASE
 10
0.0
 20
0.0
 30
0.0
  9
$PLIMCHECK
 70
     0
  9
$PEXTMIN
 10
1.000000000000000E+20
 20
1.000000000000000E+20
 30
1.000000000000000E+20
  9
$PEXTMAX
 10
-1.000000000000000E+20
 20
-1.000000000000000E+20
 30
-1.000000000000000E+20
  9
$PLIMMIN
 10
0.0
 20
0.0
  9
$PLIMMAX
 10
12.0
 20
9.0
  9
$UNITMODE
 70
     0
  9
$VISRETAIN
 70
     1
  9
$PLINEGEN
 70
     0
  9
$PSLTSCALE
 70
     1
  9
$TREEDEPTH
 70
  3020
  9
$CMLSTYLE
  2
Standard
  9
$CMLJUST
 70
     0
  9
$CMLSCALE
 40
1.0
  9
$PROXYGRAPHICS
 70
     1
  9
$MEASUREMENT
 70
     0
  9
$CELWEIGHT
370
    -1
  9
$ENDCAPS
280
     0
  9
$JOINSTYLE
280
     0
  9
$LWDISPLAY
290
     1
  9
$INSUNITS
 70
     1
  9
$HYPERLINKBASE
  1

  9
$STYLESHEET
  1

  9
$XEDIT
290
     1
  9
$CEPSNTYPE
380
     0
  9
$PSTYLEMODE
290
     1
  9
$FINGERPRINTGUID
  2
{26C942D7-198C-354C-B5E8-4678F95AA7AE}
  9
$VERSIONGUID
  2
{315BA597-1617-234C-AC7C-7F731CDE6039}
  9
$EXTNAMES
290
     1
  9
$PSVPSCALE
 40
0.0
  9
$OLESTARTUP
290
     0
  9
$SORTENTS
280
   127
  9
$INDEXCTL
280
     0
  9
$HIDETEXT
280
     1
  9
$XCLIPFRAME
290
     0
  9
$HALOGAP
280
     0
  9
$OBSCOLOR
 70
   257
  9
$OBSLTYPE
280
     0
  9
$INTERSECTIONDISPLAY
280
     0
  9
$INTERSECTIONCOLOR
 70
   257
  9
$DIMASSOC
280
     2
  9
$PROJECTNAME
  1

  0
ENDSEC
  0
SECTION
  2
CLASSES
  0
CLASS
  1
ACDBDICTIONARYWDFLT
  2
AcDbDictionaryWithDefault
  3
ObjectDBX Classes
 90
        0
 91
        1
280
     0
281
     0
  0
CLASS
  1
MATERIAL
  2
AcDbMaterial
  3
ObjectDBX Classes
 90
     1153
 91
        3
280
     0
281
     0
  0
CLASS
  1
VISUALSTYLE
  2
AcDbVisualStyle
  3
ObjectDBX Classes
 90
     4095
 91
       24
280
     0
281
     0
  0
CLASS
  1
SCALE
  2
AcDbScale
  3
ObjectDBX Classes
 90
     1153
 91
       17
280
     0
281
     0
  0
CLASS
  1
TABLESTYLE
  2
AcDbTableStyle
  3
ObjectDBX Classes
 90
     4095
 91
        1
280
     0
281
     0
  0
CLASS
  1
MLEADERSTYLE
  2
AcDbMLeaderStyle
  3
ACDB_MLEADERSTYLE_CLASS
 90
     4095
 91
        1
280
     0
281
     0
  0
CLASS
  1
ACDBSECTIONVIEWSTYLE
  2
AcDbSectionViewStyle
  3
ObjectDBX Classes
 90
     1025
 91
        1
280
     0
281
     0
  0
CLASS
  1
ACDBDETAILVIEWSTYLE
  2
AcDbDetailViewStyle
  3
ObjectDBX Classes
 90
     1025
 91
        1
280
     0
281
     0
  0
CLASS
  1
DICTIONARYVAR
  2
AcDbDictionaryVar
  3
ObjectDBX Classes
 90
        0
 91
       10
280
     0
281
     0
  0
CLASS
  1
CELLSTYLEMAP
  2
AcDbCellStyleMap
  3
ObjectDBX Classes
 90
     1152
 91
        1
280
     0
281
     0
  0
ENDSEC
  0
SECTION
  2
TABLES
  0
TABLE
  2
VPORT
  5
8
330
0
100
AcDbSymbolTable
 70
     1
  0
VPORT
  5
57
330
8
100
AcDbSymbolTableRecord
100
AcDbViewportTableRecord
  2
*Active
 70
     0
 10
0.0
 20
0.0
 11
1.0
 21
1.0
 12
0.0
 22
0.0
 13
0.0
 23
0.0
 14
1.0
 24
1.0
 15
0.0
 25
0.0
 16
0.0
 26
0.0
 36
1.0
 17
17.5
 27
-12.5
 37
0.0
 40
25.5
 41
1.4
 42
50.0
 43
0.0
 44
0.0
 50
0.0
 51
0.0
 71
     0
 72
   100
 73
     1
 74
     1
 75
     0
 76
     0
 77
     0
 78
     0
281
     0
 65
     1
110
0.0
120
0.0
130
0.0
111
1.0
121
0.0
131
0.0
112
0.0
122
1.0
132
0.0
 79
     0
146
0.0
  0
ENDTAB
  0
TABLE
  2
LTYPE
  5
5
330
0
100
AcDbSymbolTable
 70
     1
  0
LTYPE
  5
5B
330
5
100
AcDbSymbolTableRecord
100
AcDbLinetypeTableRecord
  2
ByBlock
 70
     0
  3

 72
    65
 73
     0
 40
0.0
  0
LTYPE
  5
5C
330
5
100
AcDbSymbolTableRecord
100
AcDbLinetypeTableRecord
  2
ByLayer
 70
     0
  3

 72
    65
 73
     0
 40
0.0
  0
LTYPE
  5
5D
330
5
100
AcDbSymbolTableRecord
100
AcDbLinetypeTableRecord
  2
Continuous
 70
     0
  3
Solid line
 72
    65
 73
     0
 40
0.0
  0
ENDTAB
  0
TABLE
  2
LAYER
  5
2
330
0
100
AcDbSymbolTable
 70
     2
  0
LAYER
  5
54
330
2
100
AcDbSymbolTableRecord
100
AcDbLayerTableRecord
  2
0
 70
     0
 62
     7
  6
Continuous
370
    -3
390
F
  0
LAYER
  5
78
330
2
100
AcDbSymbolTableRecord
100
AcDbLayerTableRecord
  2
Layer 1
 70
     0
 62
     7
  6
Continuous
370
     0
390
F
  0
ENDTAB
  0
TABLE
  2
STYLE
  5
3
330
0
100
AcDbSymbolTable
 70
     2
  0
STYLE
  5
55
330
3
100
AcDbSymbolTableRecord
100
AcDbTextStyleTableRecord
  2
Standard
 70
     0
 40
0.0
 41
1.0
 50
0.0
 71
     0
 42
0.2
  3
txt
  4

  0
STYLE
  5
5A
330
3
100
AcDbSymbolTableRecord
100
AcDbTextStyleTableRecord
  2
Annotative
 70
     0
 40
0.0
 41
1.0
 50
0.0
 71
     0
 42
0.2
  3
txt
  4

1001
AcadAnnotative
1000
AnnotativeData
1002
{
1070
     1
1070
     1
1002
}
  0
ENDTAB
  0
TABLE
  2
VIEW
  5
6
330
0
100
AcDbSymbolTable
 70
     0
  0
ENDTAB
  0
TABLE
  2
UCS
  5
7
330
0
100
AcDbSymbolTable
 70
     0
  0
ENDTAB
  0
TABLE
  2
APPID
  5
9
330
0
100
AcDbSymbolTable
 70
     3
  0
APPID
  5
56
330
9
100
AcDbSymbolTableRecord
100
AcDbRegAppTableRecord
  2
ACAD
 70
     0
  0
APPID
  5
5E
330
9
100
AcDbSymbolTableRecord
100
AcDbRegAppTableRecord
  2
AcadAnnotative
 70
     0
  0
APPID
  5
1CB
330
9
100
AcDbSymbolTableRecord
100
AcDbRegAppTableRecord
  2
ACAD_MLEADERVER
 70
     0
  0
ENDTAB
  0
TABLE
  2
DIMSTYLE
  5
A
330
0
100
AcDbSymbolTable
 70
     2
100
AcDbDimStyleTable
 71
     0
  0
DIMSTYLE
105
58
330
A
100
AcDbSymbolTableRecord
100
AcDbDimStyleTableRecord
  2
Standard
 70
     0
340
55
  0
DIMSTYLE
105
59
330
A
100
AcDbSymbolTableRecord
100
AcDbDimStyleTableRecord
  2
Annotative
 70
     0
340
55
1001
AcadAnnotative
1000
AnnotativeData
1002
{
1070
     1
1070
     1
1002
}
  0
ENDTAB
  0
TABLE
  2
BLOCK_RECORD
  5
1
330
0
100
AcDbSymbolTable
 70
     1
  0
BLOCK_RECORD
  5
70
330
1
100
AcDbSymbolTableRecord
100
AcDbBlockTableRecord
  2
*Model_Space
340
73
  0
BLOCK_RECORD
  5
6C
330
1
100
AcDbSymbolTableRecord
100
AcDbBlockTableRecord
  2
*Paper_Space
340
6F
  0
BLOCK_RECORD
  5
74
330
1
100
AcDbSymbolTableRecord
100
AcDbBlockTableRecord
  2
*Paper_Space0
340
77
  0
ENDTAB
  0
ENDSEC
  0
SECTION
  2
BLOCKS
  0
BLOCK
  5
71
330
70
100
AcDbEntity
  8
0
100
AcDbBlockBegin
  2
*Model_Space
 70
     0
 10
0.0
 20
0.0
 30
0.0
  3
*Model_Space
  1

  0
ENDBLK
  5
72
330
70
100
AcDbEntity
  8
0
100
AcDbBlockEnd
  0
BLOCK
  5
6D
330
6C
100
AcDbEntity
 67
     1
  8
0
100
AcDbBlockBegin
  2
*Paper_Space
 70
     0
 10
0.0
 20
0.0
 30
0.0
  3
*Paper_Space
  1

  0
ENDBLK
  5
6E
330
6C
100
AcDbEntity
 67
     1
  8
0
100
AcDbBlockEnd
  0
BLOCK
  5
75
330
74
100
AcDbEntity
 67
     1
  8
0
100
AcDbBlockBegin
  2
*Paper_Space0
 70
     0
 10
0.0
 20
0.0
 30
0.0
  3
*Paper_Space0
  1

  0
ENDBLK
  5
76
330
74
100
AcDbEntity
 67
     1
  8
0
100
AcDbBlockEnd
  0
ENDSEC
  0
SECTION
  2
ENTITIES
  0
LINE
  5
79
330
70
100
AcDbEntity
  8
Layer 1
 62
     7
370
     5
100
AcDbLine
 10
9.63121066646973
 20
-19.73337644323535
 30
0.0
 11
10.50125528893663
 21
-19.73337644323535
 31
0.0
  0
LINE
  5
7A
330
70
100
AcDbEntity
  8
Layer 1
 62
     7
370
     5
100
AcDbLine
 10
9.621396435128632
 20
-19.60817897313538
 30
0.0
 11
10.51106952017786
 21
-19.60817897313538
 31
0.0
  0
LINE
  5
7B
330
70
100
AcDbEntity
  8
Layer 1
 62
     7
370
     5
100
AcDbLine
 10
9.619538563140899
 20
-19.72586848643876
 30
0.0
 11
9.63121066646973
 21
-19.73337644323535
 31
0.0
  0
LINE
  5
7C
330
70
100
AcDbEntity
  8
Layer 1
 62
     7
370
     5
100
AcDbLine
 10
9.782113597960371
 20
-16.95593054960937
 30
0.0
 11
10.35035235734613
 21
-16.95593054960937
 31
0.0
  0
LINE
  5
7D
330
70
100
AcDbEntity
  8
Layer 1
 62
     7
370
     5
100
AcDbLine
 10
9.775141361245205
 20
-16.86074745792252
 30
0.0
 11
10.35732459406132
 21
-16.86074745792252
 31
0.0
  0
LWPOLYLINE
  5
7E
330
70
100
AcDbEntity
  8
Layer 1
 62
     7
370
     5
100
AcDbPolyline
 90
       13
 70
     0
 43
0.0
 10
9.826444513866185
 20
-16.55829339888755
 10
9.830494598255691
 20
-16.56079525168004
 10
9.834554637431702
 20
-16.56389632357152
 10
9.838276409294053
 20
-16.56739630235587
 10
9.841620930101219
 20
-16.57125857965462
 10
9.844553067954633
 20
-16.57544264284648
 10
9.847042049231554
 20
-16.57990461323877
 10
9.849061768892346
 20
-16.58459771786763
 10
9.850591048986503
 20
-16.58947277686611
 10
9.851613844459922
 20
-16.59447868204979
 10
9.852119423809703
 20
-16.59956295934383
 10
9.852102477576774
 20
-16.6046723155375
 10
9.851786401877461
 20
-16.60818112295934
  0
LWPOLYLINE
  5
7F
330
70
100
AcDbEntity
  8
Layer 1
 62
     7
370
     5
100
AcDbPolyline
 90
       13
 70
     0
 43
0.0
 10
10.28067986832762
 20
-16.60818081235258
 10
10.280364346171
 20
-16.60468212420311
 10
10.28034623805728
 20
-16.59957530566263
 10
10.2808501398112
 20
-16.594493409321
 10
10.28187076433119
 20
-16.58948964993872
 10
10.28339741335065
 20
-16.58461642653452
 10
10.28541408583145
 20
-16.57992477602811
 10
10.28789965672223
 20
-16.57546381371028
 10
10.29082808306461
 20
-16.5712802552546
 10
10.29416866100254
 20
-16.56741792974776
 10
10.29788633638913
 20
-16.56391730918934
 10
10.30194220662777
 20
-16.56081497271308
 10
10.30602178578268
 20
-16.55829287339129
  0
LINE
  5
80
330
70
100
AcDbEntity
  8
Layer 1
 62
     7
370
     5
100
AcDbLine
 10
10.51292739216561
 20
-19.72586848643876
 30
0.0
 11
10.50125528893663
 21
-19.73337644323535
 31
0.0
  0
LINE
  5
81
330
70
100
AcDbEntity
  8
Layer 1
 62
     7
370
     5
100
AcDbLine
 10
8.77569788357117
 20
-5.113545372948641
 30
0.0
 11
8.77569788357117
 21
-5.236394167090288
 31
0.0
  0
LINE
  5
82
330
70
100
AcDbEntity
  8
Layer 1
 62
     7
370
     5
100
AcDbLine
 10
10.33607957128878
 20
-9.307315438044156
 30
0.0
 11
9.796386384017738
 21
-9.307315438044156
 31
0.0
  0
LINE
  5
83
330
70
100
AcDbEntity
  8
Layer 1
 62
     7
370
     5
100
AcDbLine
 10
10.39997139420715
 20
-9.261036683785112
 30
0.0
 11
9.732494561099352
 21
-9.261036683785112
 31
0.0
  0
LINE
  5
84
330
70
100
AcDbEntity
  8
Layer 1
 62
     7
370
     5
100
AcDbLine
 10
10.39999474111481
 20
-9.260946200008055
 30
0.0
 11
9.732471214191706
 21
-9.260946200008055
 31
0.0
  0
LINE
  5
85
330
70
100
AcDbEntity
  8
Layer 1
 62
     7
370
     5
100
AcDbLine
 10
8.972322333334533
 20
-5.520559388875413
 30
0.0
 11
8.972322333334533
 21
-5.555700861502714
 31
0.0
  0
LINE
  5
86
330
70
100
AcDbEntity
  8
Layer 1
 62
     7
370
     5
100
AcDbLine
 10
9.138005879835581
 20
-5.103564436412435
 30
0.0
 11
9.138005879835581
 21
-5.063640690267574
 31
0.0
  0
LINE
  5
87
330
70
100
AcDbEntity
  8
Layer 1
 62
     7
370
     5
100
AcDbLine
 10
9.377548356704677
 20
-7.583276829994777
 30
0.0
 11
9.377548356704677
 21
-7.639477779684751
 31
0.0
  0
LINE
  5
88
330
70
100
AcDbEntity
  8
Layer 1
 62
     7
370
     5
100
AcDbLine
 10
9.543730950032541
 20
-7.810020174047293
 30
0.0
 11
9.543730950032541
 21
-7.844198679829268
 31
0.0
  0
LINE
  5
89
330
70
100
AcDbEntity
  8
Layer 1
 62
     7
370
     5
100
AcDbLine
 10
10.48048198688337
 20
-9.159816489788086
 30
0.0
 11
9.651983968423122
 21
-9.159816489788086
 31
0.0
  0
LINE
  5
8A
330
70
100
AcDbEntity
  8
Layer 1
 62
     7
370
     5
100
AcDbLine
 10
10.48051498815135
 20
-8.56495267222998
 30
0.0
 11
9.651950967155118
 21
-8.56495267222998
 31
0.0
  0
LINE
  5
8B
330
70
100
AcDbEntity
  8
Layer 1
 62
     7
370
     5
100
AcDbLine
 10
9.758361564047667
 20
-8.266244804716089
 30
0.0
 11
10.37410439125885
 21
-8.266244804716089
 31
0.0
  0
LINE
  5
8C
330
70
100
AcDbEntity
  8
Layer 1
 62
     7
370
     5
100
AcDbLine
 10
10.36290680241328
 20
-8.163719578414429
 30
0.0
 11
9.769559152893229
 21
-8.163719578414429
 31
0.0
  0
LINE
  5
8D
330
70
100
AcDbEntity
  8
Layer 1
 62
     7
370
     5
100
AcDbLine
 10
10.34836817271395
 20
-8.143757705341954
 30
0.0
 11
9.784097782592576
 21
-8.143757705341954
 31
0.0
  0
LINE
  5
8E
330
70
100
AcDbEntity
  8
Layer 1
 62
     7
370
     5
100
AcDbLine
 10
10.5887350053737
 20
-7.810020174047293
 30
0.0
 11
10.5887350053737
 21
-7.844198679829268
 31
0.0
  0
LINE
  5
8F
330
70
100
AcDbEntity
  8
Layer 1
 62
     7
370
     5
100
AcDbLine
 10
10.75491759870163
 20
-7.583276829994777
 30
0.0
 11
10.75491759870163
 21
-7.639477779684751
 31
0.0
  0
LINE
  5
90
330
70
100
AcDbEntity
  8
Layer 1
 62
     7
370
     5
100
AcDbLine
 10
10.99446007557065
 20
-5.103564436412435
 30
0.0
 11
10.99446007557065
 21
-5.063640690267574
 31
0.0
  0
LINE
  5
91
330
70
100
AcDbEntity
  8
Layer 1
 62
     7
370
     5
100
AcDbLine
 10
11.1601436220718
 20
-5.520559388875413
 30
0.0
 11
11.1601436220718
 21
-5.555700861502714
 31
0.0
  0
LINE
  5
92
330
70
100
AcDbEntity
  8
Layer 1
 62
     7
370
     5
100
AcDbLine
 10
11.35676807183512
 20
-5.113545372948641
 30
0.0
 11
11.35676807183512
 21
-5.236394167090288
 31
0.0
  0
LINE
  5
93
330
70
100
AcDbEntity
  8
Layer 1
 62
     7
370
     5
100
AcDbLine
 10
10.5887350053737
 20
-7.844198679829268
 30
0.0
 11
9.543730950032541
 21
-7.844198679829268
 31
0.0
  0
LINE
  5
94
330
70
100
AcDbEntity
  8
Layer 1
 62
     7
370
     5
100
AcDbLine
 10
10.6283575842443
 20
-7.775086896170515
 30
0.0
 11
9.504108371062189
 21
-7.775086896170515
 31
0.0
  0
LINE
  5
95
330
70
100
AcDbEntity
  8
Layer 1
 62
     7
370
     5
100
AcDbLine
 10
10.73387567760741
 20
-7.668067043848256
 30
0.0
 11
9.398590277699073
 21
-7.668067043848256
 31
0.0
  0
LINE
  5
96
330
70
100
AcDbEntity
  8
Layer 1
 62
     7
370
     5
100
AcDbLine
 10
10.75491759870163
 20
-7.583276829994777
 30
0.0
 11
9.377548356704677
 21
-7.583276829994777
 31
0.0
  0
LINE
  5
97
330
70
100
AcDbEntity
  8
Layer 1
 62
     7
370
     5
100
AcDbLine
 10
8.999569848521748
 20
-5.585522116279573
 30
0.0
 11
11.13289610678473
 21
-5.585522116279573
 31
0.0
  0
LINE
  5
98
330
70
100
AcDbEntity
  8
Layer 1
 62
     7
370
     5
100
AcDbLine
 10
11.14029389430324
 20
-5.492368937584299
 30
0.0
 11
8.992172061003289
 21
-5.492368937584299
 31
0.0
  0
LINE
  5
99
330
70
100
AcDbEntity
  8
Layer 1
 62
     7
370
     5
100
AcDbLine
 10
11.22644969490299
 20
-5.378040191158182
 30
0.0
 11
8.906016260403463
 21
-5.378040191158182
 31
0.0
  0
LINE
  5
9A
330
70
100
AcDbEntity
  8
Layer 1
 62
     7
370
     5
100
AcDbLine
 10
11.33594773182378
 20
-5.264913500820019
 30
0.0
 11
8.796518223482735
 21
-5.264913500820019
 31
0.0
  0
LINE
  5
9B
330
70
100
AcDbEntity
  8
Layer 1
 62
     7
370
     5
100
AcDbLine
 10
11.34678713529885
 20
-5.103564436412435
 30
0.0
 11
8.785678820107413
 21
-5.103564436412435
 31
0.0
  0
LINE
  5
9C
330
70
100
AcDbEntity
  8
Layer 1
 62
     7
370
     5
100
AcDbLine
 10
8.797741983117134
 20
-5.063640690267574
 30
0.0
 11
11.33472397218934
 21
-5.063640690267574
 31
0.0
  0
LINE
  5
9D
330
70
100
AcDbEntity
  8
Layer 1
 62
     7
370
     5
100
AcDbLine
 10
13.38872002455211
 20
-4.442826437715337
 30
0.0
 11
6.743745930754357
 21
-4.442826437715337
 31
0.0
  0
LINE
  5
9E
330
70
100
AcDbEntity
  8
Layer 1
 62
     7
370
     5
100
AcDbLine
 10
6.572910012917999
 20
-4.015642353965467
 30
0.0
 11
13.55955594248826
 21
-4.015642353965467
 31
0.0
  0
LINE
  5
9F
330
70
100
AcDbEntity
  8
Layer 1
 62
     7
370
     5
100
AcDbLine
 10
20.5821343706828
 20
-19.73337644323535
 30
0.0
 11
21.45217899314965
 21
-19.73337644323535
 31
0.0
  0
LINE
  5
A0
330
70
100
AcDbEntity
  8
Layer 1
 62
     7
370
     5
100
AcDbLine
 10
20.57232013944155
 20
-19.60817897313538
 30
0.0
 11
21.4619932244906
 21
-19.60817897313538
 31
0.0
  0
LINE
  5
A1
330
70
100
AcDbEntity
  8
Layer 1
 62
     7
370
     5
100
AcDbLine
 10
24.76599588997657
 20
-17.4157215402754
 30
0.0
 11
24.64314709583502
 21
-17.4157215402754
 31
0.0
  0
LINE
  5
A2
330
70
100
AcDbEntity
  8
Layer 1
 62
     7
370
     5
100
AcDbLine
 10
24.35898187404991
 20
-17.219097090512
 30
0.0
 11
24.32384040142236
 21
-17.219097090512
 31
0.0
  0
LINE
  5
A3
330
70
100
AcDbEntity
  8
Layer 1
 62
     7
370
     5
100
AcDbLine
 10
24.77597682651279
 20
-17.05341354401091
 30
0.0
 11
24.81590057265761
 21
-17.05341354401091
 31
0.0
  0
LINE
  5
A4
330
70
100
AcDbEntity
  8
Layer 1
 62
     7
370
     5
100
AcDbLine
 10
20.73303730227313
 20
-16.95593054960937
 30
0.0
 11
21.30127606165901
 21
-16.95593054960937
 31
0.0
  0
LINE
  5
A5
330
70
100
AcDbEntity
  8
Layer 1
 62
     7
370
     5
100
AcDbLine
 10
20.72606506555801
 20
-16.86074745792252
 30
0.0
 11
21.30824829837418
 21
-16.86074745792252
 31
0.0
  0
LINE
  5
A6
330
70
100
AcDbEntity
  8
Layer 1
 62
     7
370
     5
100
AcDbLine
 10
22.29626443293023
 20
-16.81387106714186
 30
0.0
 11
22.24006348324047
 21
-16.81387106714186
 31
0.0
  0
LINE
  5
A7
330
70
100
AcDbEntity
  8
Layer 1
 62
     7
370
     5
100
AcDbLine
 10
20.70734291393311
 20
-15.75896036487221
 30
0.0
 11
20.63787970549126
 21
-15.77617528818425
 31
0.0
  0
LINE
  5
A8
330
70
100
AcDbEntity
  8
Layer 1
 62
     7
370
     5
100
AcDbLine
 10
22.06952108887807
 20
-16.64768847381396
 30
0.0
 11
22.0353425830958
 21
-16.64768847381396
 31
0.0
  0
LINE
  5
A9
330
70
100
AcDbEntity
  8
Layer 1
 62
     7
370
     5
100
AcDbLine
 10
20.5904948614501
 20
-16.39816506040867
 30
0.0
 11
20.57685734154228
 21
-16.39816506040867
 31
0.0
  0
LINE
  5
AA
330
70
100
AcDbEntity
  8
Layer 1
 62
     7
370
     5
100
AcDbLine
 10
20.5904948614501
 20
-15.85220783187808
 30
0.0
 11
20.57685734154228
 21
-15.85220783187808
 31
0.0
  0
LINE
  5
AB
330
70
100
AcDbEntity
  8
Layer 1
 62
     7
370
     5
100
AcDbLine
 10
22.06952108887807
 20
-15.60268441847276
 30
0.0
 11
22.0353425830958
 21
-15.60268441847276
 31
0.0
  0
LINE
  5
AC
330
70
100
AcDbEntity
  8
Layer 1
 62
     7
370
     5
100
AcDbLine
 10
22.29626443293023
 20
-15.43650182514489
 30
0.0
 11
22.24006348324047
 21
-15.43650182514489
 31
0.0
  0
LINE
  5
AD
330
70
100
AcDbEntity
  8
Layer 1
 62
     7
370
     5
100
AcDbLine
 10
24.77597682651279
 20
-15.19695934827582
 30
0.0
 11
24.81590057265761
 21
-15.19695934827582
 31
0.0
  0
LINE
  5
AE
330
70
100
AcDbEntity
  8
Layer 1
 62
     7
370
     5
100
AcDbLine
 10
24.35898187404991
 20
-15.0312758017748
 30
0.0
 11
24.32384040142236
 21
-15.0312758017748
 31
0.0
  0
LINE
  5
AF
330
70
100
AcDbEntity
  8
Layer 1
 62
     7
370
     5
100
AcDbLine
 10
24.76599588997657
 20
-14.83465135201153
 30
0.0
 11
24.64314709583502
 21
-14.83465135201153
 31
0.0
  0
LINE
  5
B0
330
70
100
AcDbEntity
  8
Layer 1
 62
     7
370
     5
100
AcDbLine
 10
20.70734291393311
 20
-16.49141252741454
 30
0.0
 11
20.63787970549126
 21
-16.47419760410235
 31
0.0
  0
LINE
  5
B1
330
70
100
AcDbEntity
  8
Layer 1
 62
     7
370
     5
100
AcDbLine
 10
20.57685734154228
 20
-16.39816506040867
 30
0.0
 11
20.57685734154228
 21
-15.85220783187808
 31
0.0
  0
LINE
  5
B2
330
70
100
AcDbEntity
  8
Layer 1
 62
     7
370
     5
100
AcDbLine
 10
20.63787970549126
 20
-16.47419760410235
 30
0.0
 11
20.63787970549126
 21
-15.77617977022368
 31
0.0
  0
LINE
  5
B3
330
70
100
AcDbEntity
  8
Layer 1
 62
     7
370
     5
100
AcDbLine
 10
20.63796971607222
 20
-16.47421999303977
 30
0.0
 11
20.63796971607222
 21
-15.7761528992469
 31
0.0
  0
LINE
  5
B4
330
70
100
AcDbEntity
  8
Layer 1
 62
     7
370
     5
100
AcDbLine
 10
20.7197247731371
 20
-16.53946845669136
 30
0.0
 11
20.7197247731371
 21
-15.71090443559524
 31
0.0
  0
LINE
  5
B5
330
70
100
AcDbEntity
  8
Layer 1
 62
     7
370
     5
100
AcDbLine
 10
21.31458859069524
 20
-16.53946845669136
 30
0.0
 11
21.31458859069524
 21
-15.71090443559524
 31
0.0
  0
LINE
  5
B6
330
70
100
AcDbEntity
  8
Layer 1
 62
     7
370
     5
100
AcDbLine
 10
21.61329645820905
 20
-15.81731503248786
 30
0.0
 11
21.61329645820905
 21
-16.43305785969907
 31
0.0
  0
LINE
  5
B7
330
70
100
AcDbEntity
  8
Layer 1
 62
     7
370
     5
100
AcDbLine
 10
21.71582168451083
 20
-16.42186032804428
 30
0.0
 11
21.71582168451083
 21
-15.82851256424245
 31
0.0
  0
LINE
  5
B8
330
70
100
AcDbEntity
  8
Layer 1
 62
     7
370
     5
100
AcDbLine
 10
21.73578355758317
 20
-16.40733437922462
 30
0.0
 11
21.73578355758317
 21
-15.84303851296224
 31
0.0
  0
LINE
  5
B9
330
70
100
AcDbEntity
  8
Layer 1
 62
     7
370
     5
100
AcDbLine
 10
22.0353425830958
 20
-16.64768847381396
 30
0.0
 11
22.0353425830958
 21
-15.60268441847276
 31
0.0
  0
LINE
  5
BA
330
70
100
AcDbEntity
  8
Layer 1
 62
     7
370
     5
100
AcDbLine
 10
22.10445436675463
 20
-16.68731105278433
 30
0.0
 11
22.10445436675463
 21
-15.56306183950237
 31
0.0
  0
LINE
  5
BB
330
70
100
AcDbEntity
  8
Layer 1
 62
     7
370
     5
100
AcDbLine
 10
22.21147421897717
 20
-16.79282914614752
 30
0.0
 11
22.21147421897717
 21
-15.45754374613933
 31
0.0
  0
LINE
  5
BC
330
70
100
AcDbEntity
  8
Layer 1
 62
     7
370
     5
100
AcDbLine
 10
22.31370645119404
 20
-16.8092050967868
 30
0.0
 11
22.31370645119404
 21
-15.44116779549992
 31
0.0
  0
LINE
  5
BD
330
70
100
AcDbEntity
  8
Layer 1
 62
     7
370
     5
100
AcDbLine
 10
24.29401914664567
 20
-15.05852331706175
 30
0.0
 11
24.29401914664567
 21
-17.19184957522485
 31
0.0
  0
LINE
  5
BE
330
70
100
AcDbEntity
  8
Layer 1
 62
     7
370
     5
100
AcDbLine
 10
24.38717232534087
 20
-17.19924736274348
 30
0.0
 11
24.38717232534087
 21
-15.0511255294434
 31
0.0
  0
LINE
  5
BF
330
70
100
AcDbEntity
  8
Layer 1
 62
     7
370
     5
100
AcDbLine
 10
24.50150107176693
 20
-17.28541660427122
 30
0.0
 11
24.50150107176693
 21
-14.96495628801545
 31
0.0
  0
LINE
  5
C0
330
70
100
AcDbEntity
  8
Layer 1
 62
     7
370
     5
100
AcDbLine
 10
24.61462776210518
 20
-17.3949012003638
 30
0.0
 11
24.61462776210518
 21
-14.85547169192283
 31
0.0
  0
LINE
  5
C1
330
70
100
AcDbEntity
  8
Layer 1
 62
     7
370
     5
100
AcDbLine
 10
24.77597682651279
 20
-17.40574060373908
 30
0.0
 11
24.77597682651279
 21
-14.84463228854755
 31
0.0
  0
LINE
  5
C2
330
70
100
AcDbEntity
  8
Layer 1
 62
     7
370
     5
100
AcDbLine
 10
24.81590057265761
 20
-14.85669545155742
 30
0.0
 11
24.81590057265761
 21
-17.39367744072946
 31
0.0
  0
LINE
  5
C3
330
70
100
AcDbEntity
  8
Layer 1
 62
     7
370
     5
100
AcDbLine
 10
25.43671482520987
 20
-19.44767349299228
 30
0.0
 11
25.43671482520987
 21
-12.80269939929434
 31
0.0
  0
LINE
  5
C4
330
70
100
AcDbEntity
  8
Layer 1
 62
     7
370
     5
100
AcDbLine
 10
25.8638989089596
 20
-19.61800089079568
 30
0.0
 11
25.8638989089596
 21
-12.63185865846983
 31
0.0
  0
SPLINE
  5
C5
330
70
100
AcDbEntity
  8
Layer 1
 62
     7
370
     5
100
AcDbSpline
210
0.0
220
0.0
230
1.0
 70
     8
 71
     3
 72
     8
 73
     4
 74
     0
 42
0.0000000001
 43
0.0000000001
 40
0.0
 40
0.0
 40
0.0
 40
0.0
 40
1.0
 40
1.0
 40
1.0
 40
1.0
 10
9.621396435157508
 20
-19.60817897309892
 30
0.0
 10
9.635185495449452
 20
-19.6011666555491
 30
0.0
 10
9.644942956976755
 20
-19.58815607130041
 30
0.0
 10
9.647813132088066
 20
-19.57295498989207
 30
0.0
  0
SPLINE
  5
C6
330
70
100
AcDbEntity
  8
Layer 1
 62
     7
370
     5
100
AcDbSpline
210
0.0
220
0.0
230
1.0
 70
     8
 71
     3
 72
     8
 73
     4
 74
     0
 42
0.0000000001
 43
0.0000000001
 40
0.0
 40
0.0
 40
0.0
 40
0.0
 40
1.0
 40
1.0
 40
1.0
 40
1.0
 10
9.804746288309122
 20
-16.99454952322164
 30
0.0
 10
9.803722171045061
 20
-16.97882529680277
 30
0.0
 10
9.795331762851192
 20
-16.96450844151089
 30
0.0
 10
9.782113597957099
 20
-16.95593054960932
 30
0.0
  0
SPLINE
  5
C7
330
70
100
AcDbEntity
  8
Layer 1
 62
     7
370
     5
100
AcDbSpline
210
0.0
220
0.0
230
1.0
 70
     8
 71
     3
 72
     8
 73
     4
 74
     0
 42
0.0000000001
 43
0.0000000001
 40
0.0
 40
0.0
 40
0.0
 40
0.0
 40
1.0
 40
1.0
 40
1.0
 40
1.0
 10
9.77514136125684
 20
-16.86074745789271
 30
0.0
 10
9.780730786443742
 20
-16.85582657793126
 30
0.0
 10
9.785148062442443
 20
-16.84971716298226
 30
0.0
 10
9.788069331313357
 20
-16.84286713220144
 30
0.0
  0
SPLINE
  5
C8
330
70
100
AcDbEntity
  8
Layer 1
 62
     7
370
     5
100
AcDbSpline
210
0.0
220
0.0
230
1.0
 70
     8
 71
     3
 72
     8
 73
     4
 74
     0
 42
0.0000000001
 43
0.0000000001
 40
0.0
 40
0.0
 40
0.0
 40
0.0
 40
1.0
 40
1.0
 40
1.0
 40
1.0
 10
10.48465282321852
 20
-19.57295498989207
 30
0.0
 10
10.48752299832972
 20
-19.58815607130041
 30
0.0
 10
10.4972804598571
 20
-19.6011666555491
 30
0.0
 10
10.51106952014902
 20
-19.60817897309892
 30
0.0
  0
SPLINE
  5
C9
330
70
100
AcDbEntity
  8
Layer 1
 62
     7
370
     5
100
AcDbSpline
210
0.0
220
0.0
230
1.0
 70
     8
 71
     3
 72
     8
 73
     4
 74
     0
 42
0.0000000001
 43
0.0000000001
 40
0.0
 40
0.0
 40
0.0
 40
0.0
 40
1.0
 40
1.0
 40
1.0
 40
1.0
 10
10.35035235734941
 20
-16.95593054960932
 30
0.0
 10
10.33713419245529
 20
-16.96450844151089
 30
0.0
 10
10.32874378426146
 20
-16.97882529680277
 30
0.0
 10
10.32771966699734
 20
-16.99454952322164
 30
0.0
  0
SPLINE
  5
CA
330
70
100
AcDbEntity
  8
Layer 1
 62
     7
370
     5
100
AcDbSpline
210
0.0
220
0.0
230
1.0
 70
     8
 71
     3
 72
     8
 73
     4
 74
     0
 42
0.0000000001
 43
0.0000000001
 40
0.0
 40
0.0
 40
0.0
 40
0.0
 40
1.0
 40
1.0
 40
1.0
 40
1.0
 10
10.34439662399311
 20
-16.84286713220144
 30
0.0
 10
10.34731789286403
 20
-16.84971716298226
 30
0.0
 10
10.3517351688628
 20
-16.85582657793126
 30
0.0
 10
10.3573245940497
 20
-16.86074745789271
 30
0.0
  0
SPLINE
  5
CB
330
70
100
AcDbEntity
  8
Layer 1
 62
     7
370
     5
100
AcDbSpline
210
0.0
220
0.0
230
1.0
 70
     8
 71
     3
 72
    17
 73
    13
 74
     0
 42
0.0000000001
 43
0.0000000001
 40
0.0
 40
0.0
 40
0.0
 40
0.0
 40
1.0
 40
1.0
 40
1.0
 40
2.0
 40
2.0
 40
2.0
 40
3.0
 40
3.0
 40
3.0
 40
4.0
 40
4.0
 40
4.0
 40
4.0
 10
10.49264342779412
 20
-19.59239182803023
 30
0.0
 10
12.40752808474149
 20
-19.35689183927651
 30
0.0
 10
13.7689383483437
 20
-17.61366065299979
 30
0.0
 10
13.53343835958998
 20
-15.69877599605239
 30
0.0
 10
13.29793837083626
 20
-13.78389133910498
 30
0.0
 10
11.55470718455955
 20
-12.42248107550277
 30
0.0
 10
9.639822527612182
 20
-12.65798106425657
 30
0.0
 10
7.724937870664852
 20
-12.89348105301024
 30
0.0
 10
6.363527607062589
 20
-14.63671223928703
 30
0.0
 10
6.599027595816285
 20
-16.55159689623423
 30
0.0
 10
6.794731677985989
 20
-18.14289524929043
 30
0.0
 10
8.048524174556114
 20
-19.39668774586062
 30
0.0
 10
9.639822527612182
 20
-19.59239182803023
 30
0.0
  0
SPLINE
  5
CC
330
70
100
AcDbEntity
  8
Layer 1
 62
     7
370
     5
100
AcDbSpline
210
0.0
220
0.0
230
1.0
 70
     8
 71
     3
 72
    17
 73
    13
 74
     0
 42
0.0000000001
 43
0.0000000001
 40
0.0
 40
0.0
 40
0.0
 40
0.0
 40
1.0
 40
1.0
 40
1.0
 40
2.0
 40
2.0
 40
2.0
 40
3.0
 40
3.0
 40
3.0
 40
4.0
 40
4.0
 40
4.0
 40
4.0
 10
10.47424617227679
 20
-19.51524501161371
 30
0.0
 10
12.34652381901929
 20
-19.28990554652101
 30
0.0
 10
13.68163100826627
 20
-17.58945089831225
 30
0.0
 10
13.45629154317349
 20
-15.71717325156974
 30
0.0
 10
13.23095207808076
 20
-13.84489560482714
 30
0.0
 10
11.53049742987208
 20
-12.50978841558026
 30
0.0
 10
9.658219783129576
 20
-12.73512788067304
 30
0.0
 10
7.785942136387031
 20
-12.96046734576581
 30
0.0
 10
6.450834947140087
 20
-14.66092199397445
 30
0.0
 10
6.67617441223284
 20
-16.53319964071703
 30
0.0
 10
6.864223202057561
 20
-18.0956403145732
 30
0.0
 10
8.095779109273305
 20
-19.32719622178888
 30
0.0
 10
9.658219783129576
 20
-19.51524501161371
 30
0.0
  0
SPLINE
  5
CD
330
70
100
AcDbEntity
  8
Layer 1
 62
     7
370
     5
100
AcDbSpline
210
0.0
220
0.0
230
1.0
 70
     8
 71
     3
 72
    17
 73
    13
 74
     0
 42
0.0000000001
 43
0.0000000001
 40
0.0
 40
0.0
 40
0.0
 40
0.0
 40
1.0
 40
1.0
 40
1.0
 40
2.0
 40
2.0
 40
2.0
 40
3.0
 40
3.0
 40
3.0
 40
4.0
 40
4.0
 40
4.0
 40
4.0
 10
10.43718383827772
 20
-19.29975878689624
 30
0.0
 10
12.19045172931014
 20
-19.09488828366433
 30
0.0
 10
13.44567582168803
 20
-17.50750347660118
 30
0.0
 10
13.24080531845604
 20
-15.75423558556885
 30
0.0
 10
13.03593481522411
 20
-14.00096769453635
 30
0.0
 10
11.44855000816109
 20
-12.7457436021585
 30
0.0
 10
9.69528211712865
 20
-12.95061410539041
 30
0.0
 10
7.942014226096185
 20
-13.15548460862247
 30
0.0
 10
6.686790133718355
 20
-14.74286941568539
 30
0.0
 10
6.891660636950316
 20
-16.49613730671788
 30
0.0
 10
7.063585311328463
 20
-17.96745702580061
 30
0.0
 10
8.223962386485101
 20
-19.127834105425
 30
0.0
 10
9.695282104905951
 20
-19.29975878546805
 30
0.0
  0
SPLINE
  5
CE
330
70
100
AcDbEntity
  8
Layer 1
 62
     7
370
     5
100
AcDbSpline
210
0.0
220
0.0
230
1.0
 70
     8
 71
     3
 72
    17
 73
    13
 74
     0
 42
0.0000000001
 43
0.0000000001
 40
0.0
 40
0.0
 40
0.0
 40
0.0
 40
1.0
 40
1.0
 40
1.0
 40
2.0
 40
2.0
 40
2.0
 40
3.0
 40
3.0
 40
3.0
 40
4.0
 40
4.0
 40
4.0
 40
4.0
 10
10.3098381219967
 20
-17.39252119389541
 30
0.0
 10
11.00976777611085
 20
-17.25798178772177
 30
0.0
 10
11.46810713162894
 20
-16.58151095596397
 30
0.0
 10
11.33356772545524
 20
-15.88158130184994
 30
0.0
 10
11.1990283192816
 20
-15.18165164773568
 30
0.0
 10
10.52255748752371
 20
-14.72331229221762
 30
0.0
 10
9.822627833409569
 20
-14.85785169839126
 30
0.0
 10
9.122698179295538
 20
-14.9923911045648
 30
0.0
 10
8.664358823777408
 20
-15.6688619363227
 30
0.0
 10
8.798898229951053
 20
-16.36879159043693
 30
0.0
 10
8.898571849563671
 20
-16.88733499778439
 30
0.0
 10
9.304084426090778
 20
-17.29284757430135
 30
0.0
 10
9.822627833440529
 20
-17.39252119390138
 30
0.0
  0
SPLINE
  5
CF
330
70
100
AcDbEntity
  8
Layer 1
 62
     7
370
     5
100
AcDbSpline
210
0.0
220
0.0
230
1.0
 70
     8
 71
     3
 72
    17
 73
    13
 74
     0
 42
0.0000000001
 43
0.0000000001
 40
0.0
 40
0.0
 40
0.0
 40
0.0
 40
1.0
 40
1.0
 40
1.0
 40
2.0
 40
2.0
 40
2.0
 40
3.0
 40
3.0
 40
3.0
 40
4.0
 40
4.0
 40
4.0
 40
4.0
 10
10.31437047969804
 20
-17.25857155277448
 30
0.0
 10
10.94032178977574
 20
-17.12152899456156
 30
0.0
 10
11.33666064254718
 20
-16.50300025422621
 30
0.0
 10
11.19961808433431
 20
-15.87704894414848
 30
0.0
 10
11.06257552612131
 20
-15.25109763407075
 30
0.0
 10
10.444046785786
 20
-14.85475878129942
 30
0.0
 10
9.818095475708268
 20
-14.99180133951229
 30
0.0
 10
9.19214416563059
 20
-15.12884389772514
 30
0.0
 10
8.79580531285919
 20
-15.74737263806057
 30
0.0
 10
8.932847871072073
 20
-16.3733239481382
 30
0.0
 10
9.029754433395384
 20
-16.81595133653816
 30
0.0
 10
9.375468100613526
 20
-17.16166499931844
 30
0.0
 10
9.81809549025743
 20
-17.25857155595973
 30
0.0
  0
SPLINE
  5
D0
330
70
100
AcDbEntity
  8
Layer 1
 62
     7
370
     5
100
AcDbSpline
210
0.0
220
0.0
230
1.0
 70
     8
 71
     3
 72
    17
 73
    13
 74
     0
 42
0.0000000001
 43
0.0000000001
 40
0.0
 40
0.0
 40
0.0
 40
0.0
 40
1.0
 40
1.0
 40
1.0
 40
2.0
 40
2.0
 40
2.0
 40
3.0
 40
3.0
 40
3.0
 40
4.0
 40
4.0
 40
4.0
 40
4.0
 10
10.31830745845168
 20
-17.16163648695452
 30
0.0
 10
10.8907230099532
 20
-17.02241959541551
 30
0.0
 10
11.24189991005326
 20
-16.44552751689644
 30
0.0
 10
11.1026830185143
 20
-15.87311196539483
 30
0.0
 10
10.96346612697541
 20
-15.30069641389337
 30
0.0
 10
10.38657404845613
 20
-14.94951951379329
 30
0.0
 10
9.814158496954657
 20
-15.08873640533205
 30
0.0
 10
9.241742945453172
 20
-15.22795329687106
 30
0.0
 10
8.890566045353061
 20
-15.80484537539036
 30
0.0
 10
9.029782936891946
 20
-16.37726092689179
 30
0.0
 10
9.124036338993251
 20
-16.76480091969228
 30
0.0
 10
9.426618508401841
 20
-17.06738308773684
 30
0.0
 10
9.814158501627174
 20
-17.16163648809093
 30
0.0
  0
SPLINE
  5
D1
330
70
100
AcDbEntity
  8
Layer 1
 62
     7
370
     5
100
AcDbSpline
210
0.0
220
0.0
230
1.0
 70
     8
 71
     3
 72
    17
 73
    13
 74
     0
 42
0.0000000001
 43
0.0000000001
 40
0.0
 40
0.0
 40
0.0
 40
0.0
 40
1.0
 40
1.0
 40
1.0
 40
2.0
 40
2.0
 40
2.0
 40
3.0
 40
3.0
 40
3.0
 40
4.0
 40
4.0
 40
4.0
 40
4.0
 10
10.31601727883753
 20
-16.76697637291588
 30
0.0
 10
10.67046806798901
 20
-16.62902431265224
 30
0.0
 10
10.84597496473928
 20
-16.22985293416051
 30
0.0
 10
10.70802290447563
 20
-15.87540214500904
 30
0.0
 10
10.57007084421202
 20
-15.52095135585765
 30
0.0
 10
10.1708994657203
 20
-15.34544445910723
 30
0.0
 10
9.816448676568812
 20
-15.48339651937079
 30
0.0
 10
9.461997887417332
 20
-15.62134857963438
 30
0.0
 10
9.286490990667022
 20
-16.02051995812626
 30
0.0
 10
9.424443050930637
 20
-16.37497074727773
 30
0.0
 10
9.494426596938257
 20
-16.55478482952208
 30
0.0
 10
9.636634588013205
 20
-16.69699282216652
 30
0.0
 10
9.81644866948506
 20
-16.76697637015885
 30
0.0
  0
SPLINE
  5
D2
330
70
100
AcDbEntity
  8
Layer 1
 62
     7
370
     5
100
AcDbSpline
210
0.0
220
0.0
230
1.0
 70
     8
 71
     3
 72
    17
 73
    13
 74
     0
 42
0.0000000001
 43
0.0000000001
 40
0.0
 40
0.0
 40
0.0
 40
0.0
 40
1.0
 40
1.0
 40
1.0
 40
2.0
 40
2.0
 40
2.0
 40
3.0
 40
3.0
 40
3.0
 40
4.0
 40
4.0
 40
4.0
 40
4.0
 10
10.29128488791056
 20
-16.67208590953502
 30
0.0
 10
10.59332912123242
 20
-16.54779317160725
 30
0.0
 10
10.7374251790227
 20
-16.20217876925785
 30
0.0
 10
10.6131324410949
 20
-15.90013453593592
 30
0.0
 10
10.48883970316703
 20
-15.5980903026141
 30
0.0
 10
10.14322530081766
 20
-15.45399424482386
 30
0.0
 10
9.84118106749578
 20
-15.57828698275158
 30
0.0
 10
9.539136834173934
 20
-15.7025797206796
 30
0.0
 10
9.395040776383639
 20
-16.04819412302878
 30
0.0
 10
9.519333514311471
 20
-16.35023835635065
 30
0.0
 10
9.579381997313854
 20
-16.49616239272629
 30
0.0
 10
9.695257024466929
 20
-16.61203742146297
 30
0.0
 10
9.841181060021842
 20
-16.67208590645951
 30
0.0
  0
SPLINE
  5
D3
330
70
100
AcDbEntity
  8
Layer 1
 62
     7
370
     5
100
AcDbSpline
210
0.0
220
0.0
230
1.0
 70
     8
 71
     3
 72
    17
 73
    13
 74
     0
 42
0.0000000001
 43
0.0000000001
 40
0.0
 40
0.0
 40
0.0
 40
0.0
 40
1.0
 40
1.0
 40
1.0
 40
2.0
 40
2.0
 40
2.0
 40
3.0
 40
3.0
 40
3.0
 40
4.0
 40
4.0
 40
4.0
 40
4.0
 10
10.28040206930369
 20
-16.60177848250441
 30
0.0
 10
10.54361658287682
 20
-16.48349615932844
 30
0.0
 10
10.66110733724045
 20
-16.17423186811589
 30
0.0
 10
10.54282501406429
 20
-15.91101735454279
 30
0.0
 10
10.42454269088817
 20
-15.64780284096966
 30
0.0
 10
10.11527839967566
 20
-15.53031208660612
 30
0.0
 10
9.852063886102579
 20
-15.64859440978224
 30
0.0
 10
9.588849372529541
 20
-15.76687673295828
 30
0.0
 10
9.471358618165924
 20
-16.07614102417094
 30
0.0
 10
9.589640941341977
 20
-16.33935553774389
 30
0.0
 10
9.642055921771795
 20
-16.45599497470551
 30
0.0
 10
9.735424552103772
 20
-16.54936358237364
 30
0.0
 10
9.852064001788233
 20
-16.60177853449082
 30
0.0
  0
SPLINE
  5
D4
330
70
100
AcDbEntity
  8
Layer 1
 62
     7
370
     5
100
AcDbSpline
210
0.0
220
0.0
230
1.0
 70
     8
 71
     3
 72
    17
 73
    13
 74
     0
 42
0.0000000001
 43
0.0000000001
 40
0.0
 40
0.0
 40
0.0
 40
0.0
 40
1.0
 40
1.0
 40
1.0
 40
2.0
 40
2.0
 40
2.0
 40
3.0
 40
3.0
 40
3.0
 40
4.0
 40
4.0
 40
4.0
 40
4.0
 10
10.30602135503243
 20
-16.5582920276555
 30
0.0
 10
10.54521896276815
 20
-16.42586056366981
 30
0.0
 10
10.63177002320083
 20
-16.12459567654974
 30
0.0
 10
10.49933855921521
 20
-15.88539806881403
 30
0.0
 10
10.36690709522956
 20
-15.6462004610784
 30
0.0
 10
10.06564220810955
 20
-15.55964940064569
 30
0.0
 10
9.826444600373898
 20
-15.69208086463135
 30
0.0
 10
9.587246992638204
 20
-15.82451232861689
 30
0.0
 10
9.500695932205454
 20
-16.12577721573686
 30
0.0
 10
9.633127396191095
 20
-16.36497482347257
 30
0.0
 10
9.67814326144844
 20
-16.44628244445362
 30
0.0
 10
9.745137414237937
 20
-16.513276522178
 30
0.0
 10
9.826445085658077
 20
-16.5582922963321
 30
0.0
  0
CIRCLE
  5
D5
330
70
100
AcDbEntity
  8
Layer 1
 62
     7
370
     5
100
AcDbCircle
 10
10.06623297770316
 20
-16.1251864461433
 30
0.0
 40
0.447147800401014
  0
CIRCLE
  5
D6
330
70
100
AcDbEntity
  8
Layer 1
 62
     7
370
     5
100
AcDbCircle
 10
10.06623297770314
 20
-16.12518644614337
 30
0.0
 40
0.3490335468964676
  0
CIRCLE
  5
D7
330
70
100
AcDbEntity
  8
Layer 1
 62
     7
370
     5
100
AcDbCircle
 10
10.06623297770315
 20
-16.12518644614331
 30
0.0
 40
0.3490111579590657
  0
CIRCLE
  5
D8
330
70
100
AcDbEntity
  8
Layer 1
 62
     7
370
     5
100
AcDbCircle
 10
10.06623297770316
 20
-16.12518644614338
 30
0.0
 40
0.2929619442553246
  0
SPLINE
  5
D9
330
70
100
AcDbEntity
  8
Layer 1
 62
     7
370
     5
100
AcDbSpline
210
0.0
220
0.0
230
1.0
 70
     8
 71
     3
 72
     8
 73
     4
 74
     0
 42
0.0000000001
 43
0.0000000001
 40
0.0
 40
0.0
 40
0.0
 40
0.0
 40
1.0
 40
1.0
 40
1.0
 40
1.0
 10
10.5133807780635
 20
-9.136722712017027
 30
0.0
 10
10.57725631384437
 20
-8.959407798806914
 30
0.0
 10
10.57725631384437
 20
-8.765361363211177
 30
0.0
 10
10.5133807780635
 20
-8.588046450001103
 30
0.0
  0
SPLINE
  5
DA
330
70
100
AcDbEntity
  8
Layer 1
 62
     7
370
     5
100
AcDbSpline
210
0.0
220
0.0
230
1.0
 70
     8
 71
     3
 72
     8
 73
     4
 74
     0
 42
0.0000000001
 43
0.0000000001
 40
0.0
 40
0.0
 40
0.0
 40
0.0
 40
1.0
 40
1.0
 40
1.0
 40
1.0
 10
9.774596908243184
 20
-8.136874245980367
 30
0.0
 10
9.738410508368978
 20
-8.026028718104345
 30
0.0
 10
9.66240222103325
 20
-7.932541585492129
 30
0.0
 10
9.561274174060397
 20
-7.874495873321279
 30
0.0
  0
SPLINE
  5
DB
330
70
100
AcDbEntity
  8
Layer 1
 62
     7
370
     5
100
AcDbSpline
210
0.0
220
0.0
230
1.0
 70
     8
 71
     3
 72
     8
 73
     4
 74
     0
 42
0.0000000001
 43
0.0000000001
 40
0.0
 40
0.0
 40
0.0
 40
0.0
 40
1.0
 40
1.0
 40
1.0
 40
1.0
 10
9.47483853630058
 20
-7.751456662870357
 30
0.0
 10
9.466317204919745
 20
-7.711945384218122
 30
0.0
 10
9.437182855880905
 20
-7.680082331734309
 30
0.0
 10
9.398590277732864
 20
-7.668067043926018
 30
0.0
  0
SPLINE
  5
DC
330
70
100
AcDbEntity
  8
Layer 1
 62
     7
370
     5
100
AcDbSpline
210
0.0
220
0.0
230
1.0
 70
     8
 71
     3
 72
    11
 73
     7
 74
     0
 42
0.0000000001
 43
0.0000000001
 40
0.0
 40
0.0
 40
0.0
 40
0.0
 40
1.0
 40
1.0
 40
1.0
 40
2.0
 40
2.0
 40
2.0
 40
2.0
 10
9.769559152986403
 20
-8.16371957842562
 30
0.0
 10
9.740895400480022
 20
-8.163852132062743
 30
0.0
 10
9.717766293903624
 20
-8.187196150547618
 30
0.0
 10
9.717898847540734
 20
-8.215859903053923
 30
0.0
 10
9.718010607346146
 20
-8.240027141861673
 30
0.0
 10
9.734788213508382
 20
-8.260918918536578
 30
0.0
 10
9.75836156408747
 20
-8.26624480478415
 30
0.0
  0
SPLINE
  5
DD
330
70
100
AcDbEntity
  8
Layer 1
 62
     7
370
     5
100
AcDbSpline
210
0.0
220
0.0
230
1.0
 70
     8
 71
     3
 72
     8
 73
     4
 74
     0
 42
0.0000000001
 43
0.0000000001
 40
0.0
 40
0.0
 40
0.0
 40
0.0
 40
1.0
 40
1.0
 40
1.0
 40
1.0
 10
9.672860119935194
 20
-8.56495267222998
 30
0.0
 10
9.690100863740401
 20
-8.56495267222998
 30
0.0
 10
9.706120486393084
 20
-8.556053704071915
 30
0.0
 10
9.7152299521033
 20
-8.541416051205764
 30
0.0
  0
SPLINE
  5
DE
330
70
100
AcDbEntity
  8
Layer 1
 62
     7
370
     5
100
AcDbSpline
210
0.0
220
0.0
230
1.0
 70
     8
 71
     3
 72
     8
 73
     4
 74
     0
 42
0.0000000001
 43
0.0000000001
 40
0.0
 40
0.0
 40
0.0
 40
0.0
 40
1.0
 40
1.0
 40
1.0
 40
1.0
 10
9.619085177335426
 20
-9.136722712016471
 30
0.0
 10
9.624076804907064
 20
-9.150579190851772
 30
0.0
 10
9.637222818882996
 20
-9.159816489788086
 30
0.0
 10
9.651950967155118
 20
-9.159816489788086
 30
0.0
  0
SPLINE
  5
DF
330
70
100
AcDbEntity
  8
Layer 1
 62
     7
370
     5
100
AcDbSpline
210
0.0
220
0.0
230
1.0
 70
     8
 71
     3
 72
     8
 73
     4
 74
     0
 42
0.0000000001
 43
0.0000000001
 40
0.0
 40
0.0
 40
0.0
 40
0.0
 40
1.0
 40
1.0
 40
1.0
 40
1.0
 10
9.651950967155118
 20
-8.564952672230004
 30
0.0
 10
9.637222818882996
 20
-8.564952672230004
 30
0.0
 10
9.624076804907064
 20
-8.574189971166321
 30
0.0
 10
9.619085177335426
 20
-8.588046450001519
 30
0.0
  0
SPLINE
  5
E0
330
70
100
AcDbEntity
  8
Layer 1
 62
     7
370
     5
100
AcDbSpline
210
0.0
220
0.0
230
1.0
 70
     8
 71
     3
 72
     8
 73
     4
 74
     0
 42
0.0000000001
 43
0.0000000001
 40
0.0
 40
0.0
 40
0.0
 40
0.0
 40
1.0
 40
1.0
 40
1.0
 40
1.0
 10
9.785594174077875
 20
-8.300718749438134
 30
0.0
 10
9.785782596058993
 20
-8.284243124182617
 30
0.0
 10
9.774433194673569
 20
-8.269875840435954
 30
0.0
 10
9.758361564063141
 20
-8.266244804781598
 30
0.0
  0
SPLINE
  5
E1
330
70
100
AcDbEntity
  8
Layer 1
 62
     7
370
     5
100
AcDbSpline
210
0.0
220
0.0
230
1.0
 70
     8
 71
     3
 72
     8
 73
     4
 74
     0
 42
0.0000000001
 43
0.0000000001
 40
0.0
 40
0.0
 40
0.0
 40
0.0
 40
1.0
 40
1.0
 40
1.0
 40
1.0
 10
9.543730950032541
 20
-7.810020174047293
 30
0.0
 10
9.543730950032541
 20
-7.790727057414326
 30
0.0
 10
9.52809078878877
 20
-7.775086896170515
 30
0.0
 10
9.508797672155802
 20
-7.775086896170515
 30
0.0
  0
SPLINE
  5
E2
330
70
100
AcDbEntity
  8
Layer 1
 62
     7
370
     5
100
AcDbSpline
210
0.0
220
0.0
230
1.0
 70
     8
 71
     3
 72
     8
 73
     4
 74
     0
 42
0.0000000001
 43
0.0000000001
 40
0.0
 40
0.0
 40
0.0
 40
0.0
 40
1.0
 40
1.0
 40
1.0
 40
1.0
 10
9.382214327085534
 20
-7.565834811758273
 30
0.0
 10
9.37915742572866
 20
-7.571139483046825
 30
0.0
 10
9.377548356704677
 20
-7.577154397195309
 30
0.0
 10
9.377548356704677
 20
-7.583276829994777
 30
0.0
  0
SPLINE
  5
E3
330
70
100
AcDbEntity
  8
Layer 1
 62
     7
370
     5
100
AcDbSpline
210
0.0
220
0.0
230
1.0
 70
     8
 71
     3
 72
     8
 73
     4
 74
     0
 42
0.0000000001
 43
0.0000000001
 40
0.0
 40
0.0
 40
0.0
 40
0.0
 40
1.0
 40
1.0
 40
1.0
 40
1.0
 10
9.543730950032541
 20
-7.844198679829268
 30
0.0
 10
9.543730950032541
 20
-7.856710714341892
 30
0.0
 10
9.550422643645257
 20
-7.86826728654244
 30
0.0
 10
9.561274174153279
 20
-7.874495873322593
 30
0.0
  0
SPLINE
  5
E4
330
70
100
AcDbEntity
  8
Layer 1
 62
     7
370
     5
100
AcDbSpline
210
0.0
220
0.0
230
1.0
 70
     8
 71
     3
 72
     8
 73
     4
 74
     0
 42
0.0000000001
 43
0.0000000001
 40
0.0
 40
0.0
 40
0.0
 40
0.0
 40
1.0
 40
1.0
 40
1.0
 40
1.0
 10
9.717221819680881
 20
-9.241661557418826
 30
0.0
 10
9.719291933937029
 20
-9.250014587842454
 30
0.0
 10
9.724855931486267
 20
-9.257073121251385
 30
0.0
 10
9.732494561101992
 20
-9.261036683775866
 30
0.0
  0
SPLINE
  5
E5
330
70
100
AcDbEntity
  8
Layer 1
 62
     7
370
     5
100
AcDbSpline
210
0.0
220
0.0
230
1.0
 70
     8
 71
     3
 72
     8
 73
     4
 74
     0
 42
0.0000000001
 43
0.0000000001
 40
0.0
 40
0.0
 40
0.0
 40
0.0
 40
1.0
 40
1.0
 40
1.0
 40
1.0
 10
9.841661905638437
 20
-8.163719578414429
 30
0.0
 10
9.854346976919069
 20
-8.163719578414429
 30
0.0
 10
9.865655548181809
 20
-8.155726438465105
 30
0.0
 10
9.869888456621652
 20
-8.143768448686916
 30
0.0
  0
SPLINE
  5
E6
330
70
100
AcDbEntity
  8
Layer 1
 62
     7
370
     5
100
AcDbSpline
210
0.0
220
0.0
230
1.0
 70
     8
 71
     3
 72
     8
 73
     4
 74
     0
 42
0.0000000001
 43
0.0000000001
 40
0.0
 40
0.0
 40
0.0
 40
0.0
 40
1.0
 40
1.0
 40
1.0
 40
1.0
 10
9.377548356704677
 20
-7.639477779684751
 30
0.0
 10
9.377548356704677
 20
-7.652586035083825
 30
0.0
 10
9.386074572554333
 20
-7.664170444964749
 30
0.0
 10
9.398590277734404
 20
-7.668067043924401
 30
0.0
  0
SPLINE
  5
E7
330
70
100
AcDbEntity
  8
Layer 1
 62
     7
370
     5
100
AcDbSpline
210
0.0
220
0.0
230
1.0
 70
     8
 71
     3
 72
     8
 73
     4
 74
     0
 42
0.0000000001
 43
0.0000000001
 40
0.0
 40
0.0
 40
0.0
 40
0.0
 40
1.0
 40
1.0
 40
1.0
 40
1.0
 10
9.474838536289805
 20
-7.751456662870825
 30
0.0
 10
9.477812026332999
 20
-7.765243991213625
 30
0.0
 10
9.490004043149484
 20
-7.775086896170515
 30
0.0
 10
9.504108371062189
 20
-7.775086896170515
 30
0.0
  0
SPLINE
  5
E8
330
70
100
AcDbEntity
  8
Layer 1
 62
     7
370
     5
100
AcDbSpline
210
0.0
220
0.0
230
1.0
 70
     8
 71
     3
 72
    11
 73
     7
 74
     0
 42
0.0000000001
 43
0.0000000001
 40
0.0
 40
0.0
 40
0.0
 40
0.0
 40
1.0
 40
1.0
 40
1.0
 40
2.0
 40
2.0
 40
2.0
 40
2.0
 10
9.709694758137464
 20
-9.159816489788086
 30
0.0
 10
9.704182439099566
 20
-9.159816489788086
 30
0.0
 10
9.699713821601246
 20
-9.164285107286293
 30
0.0
 10
9.699713821601246
 20
-9.169797426324281
 30
0.0
 10
9.699713821601246
 20
-9.170606655547631
 30
0.0
 10
9.699812235669771
 20
-9.171412881601161
 30
0.0
 10
9.700006896444227
 20
-9.1721983490536
 30
0.0
  0
SPLINE
  5
E9
330
70
100
AcDbEntity
  8
Layer 1
 62
     7
370
     5
100
AcDbSpline
210
0.0
220
0.0
230
1.0
 70
     8
 71
     3
 72
     8
 73
     4
 74
     0
 42
0.0000000001
 43
0.0000000001
 40
0.0
 40
0.0
 40
0.0
 40
0.0
 40
1.0
 40
1.0
 40
1.0
 40
1.0
 10
9.774596908281649
 20
-8.136874245976311
 30
0.0
 10
9.775937229435978
 20
-8.140979893578483
 30
0.0
 10
9.779766155425464
 20
-8.143757705341954
 30
0.0
 10
9.784085044522093
 20
-8.143757705341954
 30
0.0
  0
SPLINE
  5
EA
330
70
100
AcDbEntity
  8
Layer 1
 62
     7
370
     5
100
AcDbSpline
210
0.0
220
0.0
230
1.0
 70
     8
 71
     3
 72
     8
 73
     4
 74
     0
 42
0.0000000001
 43
0.0000000001
 40
0.0
 40
0.0
 40
0.0
 40
0.0
 40
1.0
 40
1.0
 40
1.0
 40
1.0
 10
9.793254363437792
 20
-9.302683921382859
 30
0.0
 10
9.793254363437792
 20
-9.304722569164937
 30
0.0
 10
9.794494371051174
 20
-9.306556246678116
 30
0.0
 10
9.796386384091507
 20
-9.307315437981122
 30
0.0
  0
SPLINE
  5
EB
330
70
100
AcDbEntity
  8
Layer 1
 62
     7
370
     5
100
AcDbSpline
210
0.0
220
0.0
230
1.0
 70
     8
 71
     3
 72
     8
 73
     4
 74
     0
 42
0.0000000001
 43
0.0000000001
 40
0.0
 40
0.0
 40
0.0
 40
0.0
 40
1.0
 40
1.0
 40
1.0
 40
1.0
 10
6.572905189984705
 20
-4.015642353965454
 30
0.0
 10
6.587055824198134
 20
-4.138111614530139
 30
0.0
 10
6.613456031179136
 20
-4.258852516335056
 30
0.0
 10
6.651709314780039
 20
-4.376051690929645
 30
0.0
  0
SPLINE
  5
EC
330
70
100
AcDbEntity
  8
Layer 1
 62
     7
370
     5
100
AcDbSpline
210
0.0
220
0.0
230
1.0
 70
     8
 71
     3
 72
     8
 73
     4
 74
     0
 42
0.0000000001
 43
0.0000000001
 40
0.0
 40
0.0
 40
0.0
 40
0.0
 40
1.0
 40
1.0
 40
1.0
 40
1.0
 10
8.87667321024964
 20
-5.354126135161979
 30
0.0
 10
8.868033043939513
 20
-5.312092123195055
 30
0.0
 10
8.83739098119722
 20
-5.277987456152029
 30
0.0
 10
8.79651822341432
 20
-5.264913500854529
 30
0.0
  0
SPLINE
  5
ED
330
70
100
AcDbEntity
  8
Layer 1
 62
     7
370
     5
100
AcDbSpline
210
0.0
220
0.0
230
1.0
 70
     8
 71
     3
 72
     8
 73
     4
 74
     0
 42
0.0000000001
 43
0.0000000001
 40
0.0
 40
0.0
 40
0.0
 40
0.0
 40
1.0
 40
1.0
 40
1.0
 40
1.0
 10
9.068400139951764
 20
-5.622421926586071
 30
0.0
 10
9.051420938906794
 20
-5.6012837279176
 30
0.0
 10
9.026572817221234
 20
-5.587962689158997
 30
0.0
 10
8.999569848594608
 20
-5.585522116188447
 30
0.0
  0
SPLINE
  5
EE
330
70
100
AcDbEntity
  8
Layer 1
 62
     7
370
     5
100
AcDbSpline
210
0.0
220
0.0
230
1.0
 70
     8
 71
     3
 72
     8
 73
     4
 74
     0
 42
0.0000000001
 43
0.0000000001
 40
0.0
 40
0.0
 40
0.0
 40
0.0
 40
1.0
 40
1.0
 40
1.0
 40
1.0
 10
6.65170931476123
 20
-4.37605169093106
 30
0.0
 10
6.664708808025288
 20
-4.415879118468928
 30
0.0
 10
6.701850694636125
 20
-4.442826437715337
 30
0.0
 10
6.743745930754357
 20
-4.442826437715337
 30
0.0
  0
SPLINE
  5
EF
330
70
100
AcDbEntity
  8
Layer 1
 62
     7
370
     5
100
AcDbSpline
210
0.0
220
0.0
230
1.0
 70
     8
 71
     3
 72
     8
 73
     4
 74
     0
 42
0.0000000001
 43
0.0000000001
 40
0.0
 40
0.0
 40
0.0
 40
0.0
 40
1.0
 40
1.0
 40
1.0
 40
1.0
 10
8.750524682426759
 20
-5.041757439895124
 30
0.0
 10
8.762282439816582
 20
-5.055637180054039
 30
0.0
 10
8.779551544812408
 20
-5.063640690267574
 30
0.0
 10
8.797741983117134
 20
-5.063640690267574
 30
0.0
  0
SPLINE
  5
F0
330
70
100
AcDbEntity
  8
Layer 1
 62
     7
370
     5
100
AcDbSpline
210
0.0
220
0.0
230
1.0
 70
     8
 71
     3
 72
    11
 73
     7
 74
     0
 42
0.0000000001
 43
0.0000000001
 40
0.0
 40
0.0
 40
0.0
 40
0.0
 40
1.0
 40
1.0
 40
1.0
 40
2.0
 40
2.0
 40
2.0
 40
2.0
 10
8.992172061052592
 20
-5.492368937636645
 30
0.0
 10
9.022791401875931
 20
-5.481406235729701
 30
0.0
 10
9.038726256156374
 20
-5.447697329826976
 30
0.0
 10
9.027763554249366
 20
-5.417077989003789
 30
0.0
 10
9.019380528186376
 20
-5.393663803857507
 30
0.0
 10
8.99719197732141
 20
-5.378040191158182
 30
0.0
 10
8.972322333334533
 20
-5.378040191158182
 30
0.0
  0
SPLINE
  5
F1
330
70
100
AcDbEntity
  8
Layer 1
 62
     7
370
     5
100
AcDbSpline
210
0.0
220
0.0
230
1.0
 70
     8
 71
     3
 72
     8
 73
     4
 74
     0
 42
0.0000000001
 43
0.0000000001
 40
0.0
 40
0.0
 40
0.0
 40
0.0
 40
1.0
 40
1.0
 40
1.0
 40
1.0
 10
8.77569788357117
 20
-5.236394167090288
 30
0.0
 10
8.77569788357117
 20
-5.249416675965195
 30
0.0
 10
8.784114802409424
 20
-5.260946022645321
 30
0.0
 10
8.796518223495732
 20
-5.264913500780317
 30
0.0
  0
SPLINE
  5
F2
330
70
100
AcDbEntity
  8
Layer 1
 62
     7
370
     5
100
AcDbSpline
210
0.0
220
0.0
230
1.0
 70
     8
 71
     3
 72
     8
 73
     4
 74
     0
 42
0.0000000001
 43
0.0000000001
 40
0.0
 40
0.0
 40
0.0
 40
0.0
 40
1.0
 40
1.0
 40
1.0
 40
1.0
 10
8.876673210253063
 20
-5.354126135162042
 30
0.0
 10
8.879534922616105
 20
-5.368048234274056
 30
0.0
 10
8.891789648072428
 20
-5.378040191158182
 30
0.0
 10
8.906002819475462
 20
-5.378040191158182
 30
0.0
  0
SPLINE
  5
F3
330
70
100
AcDbEntity
  8
Layer 1
 62
     7
370
     5
100
AcDbSpline
210
0.0
220
0.0
230
1.0
 70
     8
 71
     3
 72
     8
 73
     4
 74
     0
 42
0.0000000001
 43
0.0000000001
 40
0.0
 40
0.0
 40
0.0
 40
0.0
 40
1.0
 40
1.0
 40
1.0
 40
1.0
 10
8.992172061052592
 20
-5.492368937562749
 30
0.0
 10
8.980266543181679
 20
-5.49663149318802
 30
0.0
 10
8.972322333334533
 20
-5.507913807187137
 30
0.0
 10
8.972322333334533
 20
-5.520559388875413
 30
0.0
  0
SPLINE
  5
F4
330
70
100
AcDbEntity
  8
Layer 1
 62
     7
370
     5
100
AcDbSpline
210
0.0
220
0.0
230
1.0
 70
     8
 71
     3
 72
     8
 73
     4
 74
     0
 42
0.0000000001
 43
0.0000000001
 40
0.0
 40
0.0
 40
0.0
 40
0.0
 40
1.0
 40
1.0
 40
1.0
 40
1.0
 10
8.972322333334533
 20
-5.555700861502714
 30
0.0
 10
8.972322333334533
 20
-5.57119338596111
 30
0.0
 10
8.984140217093756
 20
-5.584127560648097
 30
0.0
 10
8.999569848609704
 20
-5.585522116266966
 30
0.0
  0
SPLINE
  5
F5
330
70
100
AcDbEntity
  8
Layer 1
 62
     7
370
     5
100
AcDbSpline
210
0.0
220
0.0
230
1.0
 70
     8
 71
     3
 72
     8
 73
     4
 74
     0
 42
0.0000000001
 43
0.0000000001
 40
0.0
 40
0.0
 40
0.0
 40
0.0
 40
1.0
 40
1.0
 40
1.0
 40
1.0
 10
8.785678820107413
 20
-5.103564436412435
 30
0.0
 10
8.780166501069439
 20
-5.103564436412435
 30
0.0
 10
8.77569788357117
 20
-5.108033053910654
 30
0.0
 10
8.77569788357117
 20
-5.113545372948641
 30
0.0
  0
SPLINE
  5
F6
330
70
100
AcDbEntity
  8
Layer 1
 62
     7
370
     5
100
AcDbSpline
210
0.0
220
0.0
230
1.0
 70
     8
 71
     3
 72
     8
 73
     4
 74
     0
 42
0.0000000001
 43
0.0000000001
 40
0.0
 40
0.0
 40
0.0
 40
0.0
 40
1.0
 40
1.0
 40
1.0
 40
1.0
 10
9.619085177342855
 20
-8.588046450001103
 30
0.0
 10
9.555209641561923
 20
-8.765361363211177
 30
0.0
 10
9.555209641561923
 20
-8.959407798806914
 30
0.0
 10
9.619085177342855
 20
-9.136722712017027
 30
0.0
  0
SPLINE
  5
F7
330
70
100
AcDbEntity
  8
Layer 1
 62
     7
370
     5
100
AcDbSpline
210
0.0
220
0.0
230
1.0
 70
     8
 71
     3
 72
     8
 73
     4
 74
     0
 42
0.0000000001
 43
0.0000000001
 40
0.0
 40
0.0
 40
0.0
 40
0.0
 40
1.0
 40
1.0
 40
1.0
 40
1.0
 10
10.57119178124608
 20
-7.874495873321279
 30
0.0
 10
10.47006373427325
 20
-7.932541585492129
 30
0.0
 10
10.39405544693746
 20
-8.026028718104345
 30
0.0
 10
10.35786904706325
 20
-8.136874245980367
 30
0.0
  0
SPLINE
  5
F8
330
70
100
AcDbEntity
  8
Layer 1
 62
     7
370
     5
100
AcDbSpline
210
0.0
220
0.0
230
1.0
 70
     8
 71
     3
 72
     8
 73
     4
 74
     0
 42
0.0000000001
 43
0.0000000001
 40
0.0
 40
0.0
 40
0.0
 40
0.0
 40
1.0
 40
1.0
 40
1.0
 40
1.0
 10
10.73387567767348
 20
-7.668067043926018
 30
0.0
 10
10.69528309952545
 20
-7.680082331734309
 30
0.0
 10
10.66614875048652
 20
-7.711945384218122
 30
0.0
 10
10.65762741910578
 20
-7.751456662870357
 30
0.0
  0
SPLINE
  5
F9
330
70
100
AcDbEntity
  8
Layer 1
 62
     7
370
     5
100
AcDbSpline
210
0.0
220
0.0
230
1.0
 70
     8
 71
     3
 72
    11
 73
     7
 74
     0
 42
0.0000000001
 43
0.0000000001
 40
0.0
 40
0.0
 40
0.0
 40
0.0
 40
1.0
 40
1.0
 40
1.0
 40
2.0
 40
2.0
 40
2.0
 40
2.0
 10
10.37410439131886
 20
-8.26624480478415
 30
0.0
 10
10.40206375780331
 20
-8.259927993563298
 30
0.0
 10
10.41960851537099
 20
-8.232141661456743
 30
0.0
 10
10.41329170415016
 20
-8.204182294972282
 30
0.0
 10
10.40796581790255
 20
-8.180608944393258
 30
0.0
 10
10.38707404122772
 20
-8.163831338231071
 30
0.0
 10
10.36290680241992
 20
-8.16371957842562
 30
0.0
  0
SPLINE
  5
FA
330
70
100
AcDbEntity
  8
Layer 1
 62
     7
370
     5
100
AcDbSpline
210
0.0
220
0.0
230
1.0
 70
     8
 71
     3
 72
     8
 73
     4
 74
     0
 42
0.0000000001
 43
0.0000000001
 40
0.0
 40
0.0
 40
0.0
 40
0.0
 40
1.0
 40
1.0
 40
1.0
 40
1.0
 10
10.41723600320318
 20
-8.541416051205764
 30
0.0
 10
10.42634546891344
 20
-8.556053704071915
 30
0.0
 10
10.4423650915661
 20
-8.56495267222998
 30
0.0
 10
10.45960583537129
 20
-8.56495267222998
 30
0.0
  0
SPLINE
  5
FB
330
70
100
AcDbEntity
  8
Layer 1
 62
     7
370
     5
100
AcDbSpline
210
0.0
220
0.0
230
1.0
 70
     8
 71
     3
 72
     8
 73
     4
 74
     0
 42
0.0000000001
 43
0.0000000001
 40
0.0
 40
0.0
 40
0.0
 40
0.0
 40
1.0
 40
1.0
 40
1.0
 40
1.0
 10
10.48051498815135
 20
-9.159816489788086
 30
0.0
 10
10.49524313642354
 20
-9.159816489788086
 30
0.0
 10
10.50838915039945
 20
-9.150579190851772
 30
0.0
 10
10.51338077797104
 20
-9.136722712016471
 30
0.0
  0
SPLINE
  5
FC
330
70
100
AcDbEntity
  8
Layer 1
 62
     7
370
     5
100
AcDbSpline
210
0.0
220
0.0
230
1.0
 70
     8
 71
     3
 72
     8
 73
     4
 74
     0
 42
0.0000000001
 43
0.0000000001
 40
0.0
 40
0.0
 40
0.0
 40
0.0
 40
1.0
 40
1.0
 40
1.0
 40
1.0
 10
10.51338077797104
 20
-8.588046450001519
 30
0.0
 10
10.50838915039945
 20
-8.574189971166321
 30
0.0
 10
10.49524313642354
 20
-8.564952672230004
 30
0.0
 10
10.48051498815135
 20
-8.564952672230004
 30
0.0
  0
SPLINE
  5
FD
330
70
100
AcDbEntity
  8
Layer 1
 62
     7
370
     5
100
AcDbSpline
210
0.0
220
0.0
230
1.0
 70
     8
 71
     3
 72
     8
 73
     4
 74
     0
 42
0.0000000001
 43
0.0000000001
 40
0.0
 40
0.0
 40
0.0
 40
0.0
 40
1.0
 40
1.0
 40
1.0
 40
1.0
 10
10.3741043912433
 20
-8.266244804781598
 30
0.0
 10
10.35803276063291
 20
-8.269875840435954
 30
0.0
 10
10.34668335924748
 20
-8.284243124182617
 30
0.0
 10
10.3468717812286
 20
-8.300718749438134
 30
0.0
  0
SPLINE
  5
FE
330
70
100
AcDbEntity
  8
Layer 1
 62
     7
370
     5
100
AcDbSpline
210
0.0
220
0.0
230
1.0
 70
     8
 71
     3
 72
     8
 73
     4
 74
     0
 42
0.0000000001
 43
0.0000000001
 40
0.0
 40
0.0
 40
0.0
 40
0.0
 40
1.0
 40
1.0
 40
1.0
 40
1.0
 10
10.62366828325048
 20
-7.775086896170515
 30
0.0
 10
10.60437516661755
 20
-7.775086896170515
 30
0.0
 10
10.5887350053737
 20
-7.790727057414326
 30
0.0
 10
10.5887350053737
 20
-7.810020174047293
 30
0.0
  0
SPLINE
  5
FF
330
70
100
AcDbEntity
  8
Layer 1
 62
     7
370
     5
100
AcDbSpline
210
0.0
220
0.0
230
1.0
 70
     8
 71
     3
 72
     8
 73
     4
 74
     0
 42
0.0000000001
 43
0.0000000001
 40
0.0
 40
0.0
 40
0.0
 40
0.0
 40
1.0
 40
1.0
 40
1.0
 40
1.0
 10
10.75491759870163
 20
-7.583276829994777
 30
0.0
 10
10.75491759870163
 20
-7.577154397195309
 30
0.0
 10
10.7533085296777
 20
-7.571139483046825
 30
0.0
 10
10.75025162832076
 20
-7.565834811758273
 30
0.0
  0
SPLINE
  5
100
330
70
100
AcDbEntity
  8
Layer 1
 62
     7
370
     5
100
AcDbSpline
210
0.0
220
0.0
230
1.0
 70
     8
 71
     3
 72
     8
 73
     4
 74
     0
 42
0.0000000001
 43
0.0000000001
 40
0.0
 40
0.0
 40
0.0
 40
0.0
 40
1.0
 40
1.0
 40
1.0
 40
1.0
 10
10.57119178125301
 20
-7.874495873322593
 30
0.0
 10
10.58204331176114
 20
-7.86826728654244
 30
0.0
 10
10.5887350053737
 20
-7.856710714341892
 30
0.0
 10
10.5887350053737
 20
-7.844198679829268
 30
0.0
  0
SPLINE
  5
101
330
70
100
AcDbEntity
  8
Layer 1
 62
     7
370
     5
100
AcDbSpline
210
0.0
220
0.0
230
1.0
 70
     8
 71
     3
 72
     8
 73
     4
 74
     0
 42
0.0000000001
 43
0.0000000001
 40
0.0
 40
0.0
 40
0.0
 40
0.0
 40
1.0
 40
1.0
 40
1.0
 40
1.0
 10
10.39997139420446
 20
-9.261036683775866
 30
0.0
 10
10.40761002382028
 20
-9.257073121251385
 30
0.0
 10
10.41317402136951
 20
-9.250014587842454
 30
0.0
 10
10.41524413562558
 20
-9.241661557418826
 30
0.0
  0
SPLINE
  5
102
330
70
100
AcDbEntity
  8
Layer 1
 62
     7
370
     5
100
AcDbSpline
210
0.0
220
0.0
230
1.0
 70
     8
 71
     3
 72
     8
 73
     4
 74
     0
 42
0.0000000001
 43
0.0000000001
 40
0.0
 40
0.0
 40
0.0
 40
0.0
 40
1.0
 40
1.0
 40
1.0
 40
1.0
 10
10.26257749878467
 20
-8.143768448686916
 30
0.0
 10
10.26681040722448
 20
-8.155726438465105
 30
0.0
 10
10.27811897848725
 20
-8.163719578414429
 30
0.0
 10
10.29080404976793
 20
-8.163719578414429
 30
0.0
  0
SPLINE
  5
103
330
70
100
AcDbEntity
  8
Layer 1
 62
     7
370
     5
100
AcDbSpline
210
0.0
220
0.0
230
1.0
 70
     8
 71
     3
 72
     8
 73
     4
 74
     0
 42
0.0000000001
 43
0.0000000001
 40
0.0
 40
0.0
 40
0.0
 40
0.0
 40
1.0
 40
1.0
 40
1.0
 40
1.0
 10
10.73387567767191
 20
-7.668067043924401
 30
0.0
 10
10.74639138285195
 20
-7.664170444964749
 30
0.0
 10
10.75491759870163
 20
-7.652586035083825
 30
0.0
 10
10.75491759870163
 20
-7.639477779684751
 30
0.0
  0
SPLINE
  5
104
330
70
100
AcDbEntity
  8
Layer 1
 62
     7
370
     5
100
AcDbSpline
210
0.0
220
0.0
230
1.0
 70
     8
 71
     3
 72
     8
 73
     4
 74
     0
 42
0.0000000001
 43
0.0000000001
 40
0.0
 40
0.0
 40
0.0
 40
0.0
 40
1.0
 40
1.0
 40
1.0
 40
1.0
 10
10.6283575842443
 20
-7.775086896170515
 30
0.0
 10
10.64246191215702
 20
-7.775086896170515
 30
0.0
 10
10.65465392897355
 20
-7.765243991213625
 30
0.0
 10
10.65762741901671
 20
-7.751456662870825
 30
0.0
  0
SPLINE
  5
105
330
70
100
AcDbEntity
  8
Layer 1
 62
     7
370
     5
100
AcDbSpline
210
0.0
220
0.0
230
1.0
 70
     8
 71
     3
 72
    11
 73
     7
 74
     0
 42
0.0000000001
 43
0.0000000001
 40
0.0
 40
0.0
 40
0.0
 40
0.0
 40
1.0
 40
1.0
 40
1.0
 40
2.0
 40
2.0
 40
2.0
 40
2.0
 10
10.43245905896214
 20
-9.1721983490536
 30
0.0
 10
10.43378505197099
 20
-9.166847890781872
 30
0.0
 10
10.43052257826974
 20
-9.161435557639947
 30
0.0
 10
10.42517211999812
 20
-9.160109564631094
 30
0.0
 10
10.42438665254575
 20
-9.1599149038566
 30
0.0
 10
10.42358042649212
 20
-9.159816489788086
 30
0.0
 10
10.42277119726878
 20
-9.159816489788086
 30
0.0
  0
SPLINE
  5
106
330
70
100
AcDbEntity
  8
Layer 1
 62
     7
370
     5
100
AcDbSpline
210
0.0
220
0.0
230
1.0
 70
     8
 71
     3
 72
     8
 73
     4
 74
     0
 42
0.0000000001
 43
0.0000000001
 40
0.0
 40
0.0
 40
0.0
 40
0.0
 40
1.0
 40
1.0
 40
1.0
 40
1.0
 10
10.34838091078442
 20
-8.143757705341954
 30
0.0
 10
10.35269979988105
 20
-8.143757705341954
 30
0.0
 10
10.35652872587051
 20
-8.140979893578483
 30
0.0
 10
10.3578690470249
 20
-8.136874245976311
 30
0.0
  0
SPLINE
  5
107
330
70
100
AcDbEntity
  8
Layer 1
 62
     7
370
     5
100
AcDbSpline
210
0.0
220
0.0
230
1.0
 70
     8
 71
     3
 72
     8
 73
     4
 74
     0
 42
0.0000000001
 43
0.0000000001
 40
0.0
 40
0.0
 40
0.0
 40
0.0
 40
1.0
 40
1.0
 40
1.0
 40
1.0
 10
10.33607957131482
 20
-9.307315437981122
 30
0.0
 10
10.33797158435515
 20
-9.306556246678116
 30
0.0
 10
10.33921159196849
 20
-9.304722569164937
 30
0.0
 10
10.33921159196849
 20
-9.302683921382859
 30
0.0
  0
SPLINE
  5
108
330
70
100
AcDbEntity
  8
Layer 1
 62
     7
370
     5
100
AcDbSpline
210
0.0
220
0.0
230
1.0
 70
     8
 71
     3
 72
     8
 73
     4
 74
     0
 42
0.0000000001
 43
0.0000000001
 40
0.0
 40
0.0
 40
0.0
 40
0.0
 40
1.0
 40
1.0
 40
1.0
 40
1.0
 10
13.48075664052648
 20
-4.376051690929645
 30
0.0
 10
13.5190099241274
 20
-4.258852516335056
 30
0.0
 10
13.54541013110831
 20
-4.138111614530139
 30
0.0
 10
13.55956076532177
 20
-4.015642353965454
 30
0.0
  0
SPLINE
  5
109
330
70
100
AcDbEntity
  8
Layer 1
 62
     7
370
     5
100
AcDbSpline
210
0.0
220
0.0
230
1.0
 70
     8
 71
     3
 72
     8
 73
     4
 74
     0
 42
0.0000000001
 43
0.0000000001
 40
0.0
 40
0.0
 40
0.0
 40
0.0
 40
1.0
 40
1.0
 40
1.0
 40
1.0
 10
11.33594773189219
 20
-5.264913500854529
 30
0.0
 10
11.29507497410931
 20
-5.277987456152029
 30
0.0
 10
11.26443291136694
 20
-5.312092123195055
 30
0.0
 10
11.25579274505685
 20
-5.354126135161979
 30
0.0
  0
SPLINE
  5
10A
330
70
100
AcDbEntity
  8
Layer 1
 62
     7
370
     5
100
AcDbSpline
210
0.0
220
0.0
230
1.0
 70
     8
 71
     3
 72
     8
 73
     4
 74
     0
 42
0.0000000001
 43
0.0000000001
 40
0.0
 40
0.0
 40
0.0
 40
0.0
 40
1.0
 40
1.0
 40
1.0
 40
1.0
 10
11.13289610671187
 20
-5.585522116188447
 30
0.0
 10
11.10589313808532
 20
-5.587962689158997
 30
0.0
 10
11.08104501639971
 20
-5.6012837279176
 30
0.0
 10
11.06406581535469
 20
-5.622421926586071
 30
0.0
  0
SPLINE
  5
10B
330
70
100
AcDbEntity
  8
Layer 1
 62
     7
370
     5
100
AcDbSpline
210
0.0
220
0.0
230
1.0
 70
     8
 71
     3
 72
     8
 73
     4
 74
     0
 42
0.0000000001
 43
0.0000000001
 40
0.0
 40
0.0
 40
0.0
 40
0.0
 40
1.0
 40
1.0
 40
1.0
 40
1.0
 10
13.38872002455211
 20
-4.442826437715337
 30
0.0
 10
13.43061526067034
 20
-4.442826437715337
 30
0.0
 10
13.46775714728124
 20
-4.415879118468928
 30
0.0
 10
13.48075664054532
 20
-4.37605169093106
 30
0.0
  0
SPLINE
  5
10C
330
70
100
AcDbEntity
  8
Layer 1
 62
     7
370
     5
100
AcDbSpline
210
0.0
220
0.0
230
1.0
 70
     8
 71
     3
 72
     8
 73
     4
 74
     0
 42
0.0000000001
 43
0.0000000001
 40
0.0
 40
0.0
 40
0.0
 40
0.0
 40
1.0
 40
1.0
 40
1.0
 40
1.0
 10
11.33472397218934
 20
-5.063640690267574
 30
0.0
 10
11.35291441049404
 20
-5.063640690267574
 30
0.0
 10
11.37018351548987
 20
-5.055637180054039
 30
0.0
 10
11.38194127287973
 20
-5.041757439895124
 30
0.0
  0
SPLINE
  5
10D
330
70
100
AcDbEntity
  8
Layer 1
 62
     7
370
     5
100
AcDbSpline
210
0.0
220
0.0
230
1.0
 70
     8
 71
     3
 72
    11
 73
     7
 74
     0
 42
0.0000000001
 43
0.0000000001
 40
0.0
 40
0.0
 40
0.0
 40
0.0
 40
1.0
 40
1.0
 40
1.0
 40
2.0
 40
2.0
 40
2.0
 40
2.0
 10
11.1601436220718
 20
-5.378040191158182
 30
0.0
 10
11.12762093974771
 20
-5.378040191158182
 30
0.0
 10
11.10125609650814
 20
-5.404405034397755
 30
0.0
 10
11.10125609650814
 20
-5.436927716721823
 30
0.0
 10
11.10125609650814
 20
-5.461797360708727
 30
0.0
 10
11.11687970920745
 20
-5.483985911573666
 30
0.0
 10
11.14029389435369
 20
-5.492368937636645
 30
0.0
  0
SPLINE
  5
10E
330
70
100
AcDbEntity
  8
Layer 1
 62
     7
370
     5
100
AcDbSpline
210
0.0
220
0.0
230
1.0
 70
     8
 71
     3
 72
     8
 73
     4
 74
     0
 42
0.0000000001
 43
0.0000000001
 40
0.0
 40
0.0
 40
0.0
 40
0.0
 40
1.0
 40
1.0
 40
1.0
 40
1.0
 10
11.33594773191054
 20
-5.264913500780317
 30
0.0
 10
11.34835115299688
 20
-5.260946022645321
 30
0.0
 10
11.35676807183512
 20
-5.249416675965195
 30
0.0
 10
11.35676807183512
 20
-5.236394167090288
 30
0.0
  0
SPLINE
  5
10F
330
70
100
AcDbEntity
  8
Layer 1
 62
     7
370
     5
100
AcDbSpline
210
0.0
220
0.0
230
1.0
 70
     8
 71
     3
 72
     8
 73
     4
 74
     0
 42
0.0000000001
 43
0.0000000001
 40
0.0
 40
0.0
 40
0.0
 40
0.0
 40
1.0
 40
1.0
 40
1.0
 40
1.0
 10
11.22646313583105
 20
-5.378040191158182
 30
0.0
 10
11.24067630723407
 20
-5.378040191158182
 30
0.0
 10
11.25293103269036
 20
-5.368048234274056
 30
0.0
 10
11.25579274505344
 20
-5.354126135162042
 30
0.0
  0
SPLINE
  5
110
330
70
100
AcDbEntity
  8
Layer 1
 62
     7
370
     5
100
AcDbSpline
210
0.0
220
0.0
230
1.0
 70
     8
 71
     3
 72
     8
 73
     4
 74
     0
 42
0.0000000001
 43
0.0000000001
 40
0.0
 40
0.0
 40
0.0
 40
0.0
 40
1.0
 40
1.0
 40
1.0
 40
1.0
 10
11.1601436220718
 20
-5.520559388875413
 30
0.0
 10
11.1601436220718
 20
-5.507913807187137
 30
0.0
 10
11.15219941222464
 20
-5.49663149318802
 30
0.0
 10
11.14029389435369
 20
-5.492368937562749
 30
0.0
  0
SPLINE
  5
111
330
70
100
AcDbEntity
  8
Layer 1
 62
     7
370
     5
100
AcDbSpline
210
0.0
220
0.0
230
1.0
 70
     8
 71
     3
 72
     8
 73
     4
 74
     0
 42
0.0000000001
 43
0.0000000001
 40
0.0
 40
0.0
 40
0.0
 40
0.0
 40
1.0
 40
1.0
 40
1.0
 40
1.0
 10
11.13289610679663
 20
-5.585522116266966
 30
0.0
 10
11.14832573831257
 20
-5.584127560648097
 30
0.0
 10
11.1601436220718
 20
-5.57119338596111
 30
0.0
 10
11.1601436220718
 20
-5.555700861502714
 30
0.0
  0
SPLINE
  5
112
330
70
100
AcDbEntity
  8
Layer 1
 62
     7
370
     5
100
AcDbSpline
210
0.0
220
0.0
230
1.0
 70
     8
 71
     3
 72
     8
 73
     4
 74
     0
 42
0.0000000001
 43
0.0000000001
 40
0.0
 40
0.0
 40
0.0
 40
0.0
 40
1.0
 40
1.0
 40
1.0
 40
1.0
 10
11.35676807183512
 20
-5.113545372948641
 30
0.0
 10
11.35676807183512
 20
-5.108033053910654
 30
0.0
 10
11.35229945433687
 20
-5.103564436412435
 30
0.0
 10
11.34678713529885
 20
-5.103564436412435
 30
0.0
  0
SPLINE
  5
113
330
70
100
AcDbEntity
  8
Layer 1
 62
     7
370
     5
100
AcDbSpline
210
0.0
220
0.0
230
1.0
 70
     8
 71
     3
 72
     8
 73
     4
 74
     0
 42
0.0000000001
 43
0.0000000001
 40
0.0
 40
0.0
 40
0.0
 40
0.0
 40
1.0
 40
1.0
 40
1.0
 40
1.0
 10
20.59873683638193
 20
-19.57295498993769
 30
0.0
 10
20.75912794309319
 20
-18.72348825852312
 30
0.0
 10
20.81185419911695
 20
-17.8571979857487
 30
0.0
 10
20.75566999267178
 20
-16.99454952325734
 30
0.0
  0
SPLINE
  5
114
330
70
100
AcDbEntity
  8
Layer 1
 62
     7
370
     5
100
AcDbSpline
210
0.0
220
0.0
230
1.0
 70
     8
 71
     3
 72
     8
 73
     4
 74
     0
 42
0.0000000001
 43
0.0000000001
 40
0.0
 40
0.0
 40
0.0
 40
0.0
 40
1.0
 40
1.0
 40
1.0
 40
1.0
 10
20.58213437068391
 20
-19.73337644323058
 30
0.0
 10
20.57842258784929
 20
-19.73060599743788
 30
0.0
 10
20.57452246091894
 20
-19.72809728209189
 30
0.0
 10
20.57046226739565
 20
-19.72586848639588
 30
0.0
  0
SPLINE
  5
115
330
70
100
AcDbEntity
  8
Layer 1
 62
     7
370
     5
100
AcDbSpline
210
0.0
220
0.0
230
1.0
 70
     8
 71
     3
 72
    11
 73
     7
 74
     0
 42
0.0000000001
 43
0.0000000001
 40
0.0
 40
0.0
 40
0.0
 40
0.0
 40
1.0
 40
1.0
 40
1.0
 40
2.0
 40
2.0
 40
2.0
 40
2.0
 10
20.5723201394417
 20
-19.60817897318518
 30
0.0
 10
20.53954990082646
 20
-19.62484401884378
 30
0.0
 10
20.52649406233778
 20
-19.66491923488519
 30
0.0
 10
20.54315910799624
 20
-19.6976894735003
 30
0.0
 10
20.54922234974985
 20
-19.7096122658599
 30
0.0
 10
20.55873679962378
 20
-19.71943192819124
 30
0.0
 10
20.5704622674492
 20
-19.72586848647107
 30
0.0
  0
SPLINE
  5
116
330
70
100
AcDbEntity
  8
Layer 1
 62
     7
370
     5
100
AcDbSpline
210
0.0
220
0.0
230
1.0
 70
     8
 71
     3
 72
    11
 73
     7
 74
     0
 42
0.0000000001
 43
0.0000000001
 40
0.0
 40
0.0
 40
0.0
 40
0.0
 40
1.0
 40
1.0
 40
1.0
 40
2.0
 40
2.0
 40
2.0
 40
2.0
 10
20.72606506548419
 20
-16.86074745793826
 30
0.0
 10
20.70124084609862
 20
-16.8826024787401
 30
0.0
 10
20.69883383506489
 20
-16.9204434796091
 30
0.0
 10
20.72068885586691
 20
-16.94526769899461
 30
0.0
 10
20.72429930555925
 20
-16.94936866032776
 30
0.0
 10
20.72845400129
 20
-16.95295622906105
 30
0.0
 10
20.73303730225722
 20
-16.95593054966949
 30
0.0
  0
SPLINE
  5
117
330
70
100
AcDbEntity
  8
Layer 1
 62
     7
370
     5
100
AcDbSpline
210
0.0
220
0.0
230
1.0
 70
     8
 71
     3
 72
     8
 73
     4
 74
     0
 42
0.0000000001
 43
0.0000000001
 40
0.0
 40
0.0
 40
0.0
 40
0.0
 40
1.0
 40
1.0
 40
1.0
 40
1.0
 10
20.72606506544907
 20
-16.86074745799889
 30
0.0
 10
20.73165449066272
 20
-16.85582657804603
 30
0.0
 10
20.73607176668724
 20
-16.84971716309698
 30
0.0
 10
20.73899303558005
 20
-16.84286713230979
 30
0.0
  0
SPLINE
  5
118
330
70
100
AcDbEntity
  8
Layer 1
 62
     7
370
     5
100
AcDbSpline
210
0.0
220
0.0
230
1.0
 70
     8
 71
     3
 72
     8
 73
     4
 74
     0
 42
0.0000000001
 43
0.0000000001
 40
0.0
 40
0.0
 40
0.0
 40
0.0
 40
1.0
 40
1.0
 40
1.0
 40
1.0
 10
20.7556699926208
 20
-16.99454952320431
 30
0.0
 10
20.7546458753494
 20
-16.97882529675801
 30
0.0
 10
20.74625546712319
 20
-16.96450844144834
 30
0.0
 10
20.73303730218956
 20
-16.955930549557
 30
0.0
  0
SPLINE
  5
119
330
70
100
AcDbEntity
  8
Layer 1
 62
     7
370
     5
100
AcDbSpline
210
0.0
220
0.0
230
1.0
 70
     8
 71
     3
 72
     8
 73
     4
 74
     0
 42
0.0000000001
 43
0.0000000001
 40
0.0
 40
0.0
 40
0.0
 40
0.0
 40
1.0
 40
1.0
 40
1.0
 40
1.0
 10
20.79887996529469
 20
-16.63520133433116
 30
0.0
 10
20.80269443841848
 20
-16.61101188636927
 30
0.0
 10
20.78839395293383
 20
-16.58762862510136
 30
0.0
 10
20.76512288488743
 20
-16.58000386347278
 30
0.0
  0
SPLINE
  5
11A
330
70
100
AcDbEntity
  8
Layer 1
 62
     7
370
     5
100
AcDbSpline
210
0.0
220
0.0
230
1.0
 70
     8
 71
     3
 72
     8
 73
     4
 74
     0
 42
0.0000000001
 43
0.0000000001
 40
0.0
 40
0.0
 40
0.0
 40
0.0
 40
1.0
 40
1.0
 40
1.0
 40
1.0
 10
20.57232013942563
 20
-19.60817897312166
 30
0.0
 10
20.58610919973183
 20
-19.60116665558204
 30
0.0
 10
20.59586666127469
 20
-19.58815607133374
 30
0.0
 10
20.59873683639588
 20
-19.57295498991912
 30
0.0
  0
SPLINE
  5
11B
330
70
100
AcDbEntity
  8
Layer 1
 62
     7
370
     5
100
AcDbSpline
210
0.0
220
0.0
230
1.0
 70
     8
 71
     3
 72
     8
 73
     4
 74
     0
 42
0.0000000001
 43
0.0000000001
 40
0.0
 40
0.0
 40
0.0
 40
0.0
 40
1.0
 40
1.0
 40
1.0
 40
1.0
 10
20.7197247731371
 20
-16.53946845669136
 30
0.0
 10
20.7197247731371
 20
-16.55419660494302
 30
0.0
 10
20.72896207204801
 20
-16.56734261890521
 30
0.0
 10
20.74281855085602
 20
-16.57233424649209
 30
0.0
  0
SPLINE
  5
11C
330
70
100
AcDbEntity
  8
Layer 1
 62
     7
370
     5
100
AcDbSpline
210
0.0
220
0.0
230
1.0
 70
     8
 71
     3
 72
     8
 73
     4
 74
     0
 42
0.0000000001
 43
0.0000000001
 40
0.0
 40
0.0
 40
0.0
 40
0.0
 40
1.0
 40
1.0
 40
1.0
 40
1.0
 10
20.61850457914946
 20
-16.45892486264466
 30
0.0
 10
20.62246814167386
 20
-16.46656349226057
 30
0.0
 10
20.62952667508259
 20
-16.47212748980968
 30
0.0
 10
20.63787970550642
 20
-16.47419760406572
 30
0.0
  0
SPLINE
  5
11D
330
70
100
AcDbEntity
  8
Layer 1
 62
     7
370
     5
100
AcDbSpline
210
0.0
220
0.0
230
1.0
 70
     8
 71
     3
 72
    11
 73
     7
 74
     0
 42
0.0000000001
 43
0.0000000001
 40
0.0
 40
0.0
 40
0.0
 40
0.0
 40
1.0
 40
1.0
 40
1.0
 40
2.0
 40
2.0
 40
2.0
 40
2.0
 10
20.70734291387157
 20
-16.49141252740226
 30
0.0
 10
20.71269337214327
 20
-16.49273852041109
 30
0.0
 10
20.7181057052852
 20
-16.48947604671007
 30
0.0
 10
20.71943169829408
 20
-16.48412558843827
 30
0.0
 10
20.71962635906855
 20
-16.48334012098596
 30
0.0
 10
20.7197247731371
 20
-16.4825338949323
 30
0.0
 10
20.7197247731371
 20
-16.48172466570905
 30
0.0
  0
SPLINE
  5
11E
330
70
100
AcDbEntity
  8
Layer 1
 62
     7
370
     5
100
AcDbSpline
210
0.0
220
0.0
230
1.0
 70
     8
 71
     3
 72
     8
 73
     4
 74
     0
 42
0.0000000001
 43
0.0000000001
 40
0.0
 40
0.0
 40
0.0
 40
0.0
 40
1.0
 40
1.0
 40
1.0
 40
1.0
 10
20.5722258249441
 20
-16.39503303975511
 30
0.0
 10
20.57298501624713
 20
-16.39692505279542
 30
0.0
 10
20.57481869376021
 20
-16.39816506040867
 30
0.0
 10
20.57685734154228
 20
-16.39816506040867
 30
0.0
  0
SPLINE
  5
11F
330
70
100
AcDbEntity
  8
Layer 1
 62
     7
370
     5
100
AcDbSpline
210
0.0
220
0.0
230
1.0
 70
     8
 71
     3
 72
     8
 73
     4
 74
     0
 42
0.0000000001
 43
0.0000000001
 40
0.0
 40
0.0
 40
0.0
 40
0.0
 40
1.0
 40
1.0
 40
1.0
 40
1.0
 10
20.74281855085602
 20
-15.67803864579451
 30
0.0
 10
20.72896207204801
 20
-15.68303027338141
 30
0.0
 10
20.7197247731371
 20
-15.6961762873436
 30
0.0
 10
20.7197247731371
 20
-15.71090443559524
 30
0.0
  0
SPLINE
  5
120
330
70
100
AcDbEntity
  8
Layer 1
 62
     7
370
     5
100
AcDbSpline
210
0.0
220
0.0
230
1.0
 70
     8
 71
     3
 72
     8
 73
     4
 74
     0
 42
0.0000000001
 43
0.0000000001
 40
0.0
 40
0.0
 40
0.0
 40
0.0
 40
1.0
 40
1.0
 40
1.0
 40
1.0
 10
20.63787970550642
 20
-15.77617528812114
 30
0.0
 10
20.62952667508259
 20
-15.77824540237717
 30
0.0
 10
20.62246814167386
 20
-15.78380939992644
 30
0.0
 10
20.61850457914946
 20
-15.79144802954222
 30
0.0
  0
SPLINE
  5
121
330
70
100
AcDbEntity
  8
Layer 1
 62
     7
370
     5
100
AcDbSpline
210
0.0
220
0.0
230
1.0
 70
     8
 71
     3
 72
    11
 73
     7
 74
     0
 42
0.0000000001
 43
0.0000000001
 40
0.0
 40
0.0
 40
0.0
 40
0.0
 40
1.0
 40
1.0
 40
1.0
 40
2.0
 40
2.0
 40
2.0
 40
2.0
 10
20.7197247731371
 20
-15.76864822657765
 30
0.0
 10
20.7197247731371
 20
-15.76313590753971
 30
0.0
 10
20.71525615563888
 20
-15.7586672900414
 30
0.0
 10
20.70974383660094
 20
-15.7586672900414
 30
0.0
 10
20.70893460737764
 20
-15.7586672900414
 30
0.0
 10
20.70812838132398
 20
-15.75876570411009
 30
0.0
 10
20.70734291387157
 20
-15.75896036488444
 30
0.0
  0
SPLINE
  5
122
330
70
100
AcDbEntity
  8
Layer 1
 62
     7
370
     5
100
AcDbSpline
210
0.0
220
0.0
230
1.0
 70
     8
 71
     3
 72
     8
 73
     4
 74
     0
 42
0.0000000001
 43
0.0000000001
 40
0.0
 40
0.0
 40
0.0
 40
0.0
 40
1.0
 40
1.0
 40
1.0
 40
1.0
 10
20.57685734154228
 20
-15.85220783187808
 30
0.0
 10
20.57481869376021
 20
-15.85220783187808
 30
0.0
 10
20.57298501624713
 20
-15.85344783949148
 30
0.0
 10
20.5722258249441
 20
-15.85533985253174
 30
0.0
  0
SPLINE
  5
123
330
70
100
AcDbEntity
  8
Layer 1
 62
     7
370
     5
100
AcDbSpline
210
0.0
220
0.0
230
1.0
 70
     8
 71
     3
 72
     8
 73
     4
 74
     0
 42
0.0000000001
 43
0.0000000001
 40
0.0
 40
0.0
 40
0.0
 40
0.0
 40
1.0
 40
1.0
 40
1.0
 40
1.0
 10
21.27864337126046
 20
-16.99454952325734
 30
0.0
 10
21.22245916481509
 20
-17.8571979857487
 30
0.0
 10
21.27518542083906
 20
-18.72348825852312
 30
0.0
 10
21.43557652755016
 20
-19.57295498993769
 30
0.0
  0
SPLINE
  5
124
330
70
100
AcDbEntity
  8
Layer 1
 62
     7
370
     5
100
AcDbSpline
210
0.0
220
0.0
230
1.0
 70
     8
 71
     3
 72
     8
 73
     4
 74
     0
 42
0.0000000001
 43
0.0000000001
 40
0.0
 40
0.0
 40
0.0
 40
0.0
 40
1.0
 40
1.0
 40
1.0
 40
1.0
 10
25.50348957199557
 20
-19.53971010896665
 30
0.0
 10
25.5854587801022
 20
-19.56646448991768
 30
0.0
 10
25.66920406417772
 20
-19.58743500077644
 30
0.0
 10
25.75410860706089
 20
-19.60246718543107
 30
0.0
  0
SPLINE
  5
125
330
70
100
AcDbEntity
  8
Layer 1
 62
     7
370
     5
100
AcDbSpline
210
0.0
220
0.0
230
1.0
 70
     8
 71
     3
 72
     8
 73
     4
 74
     0
 42
0.0000000001
 43
0.0000000001
 40
0.0
 40
0.0
 40
0.0
 40
0.0
 40
1.0
 40
1.0
 40
1.0
 40
1.0
 10
25.81399422628553
 20
-19.61154237207903
 30
0.0
 10
25.83059895873579
 20
-19.6139221824624
 30
0.0
 10
25.84723540275574
 20
-19.61607522260149
 30
0.0
 10
25.86389890896668
 20
-19.61800089078689
 30
0.0
  0
SPLINE
  5
126
330
70
100
AcDbEntity
  8
Layer 1
 62
     7
370
     5
100
AcDbSpline
210
0.0
220
0.0
230
1.0
 70
     8
 71
     3
 72
     8
 73
     4
 74
     0
 42
0.0000000001
 43
0.0000000001
 40
0.0
 40
0.0
 40
0.0
 40
0.0
 40
1.0
 40
1.0
 40
1.0
 40
1.0
 10
21.29149481292408
 20
-15.67803864578294
 30
0.0
 10
21.11417989971407
 20
-15.61416311000205
 30
0.0
 10
20.92013346411828
 20
-15.61416311000205
 30
0.0
 10
20.74281855090837
 20
-15.67803864578294
 30
0.0
  0
SPLINE
  5
127
330
70
100
AcDbEntity
  8
Layer 1
 62
     7
370
     5
100
AcDbSpline
210
0.0
220
0.0
230
1.0
 70
     8
 71
     3
 72
     8
 73
     4
 74
     0
 42
0.0000000001
 43
0.0000000001
 40
0.0
 40
0.0
 40
0.0
 40
0.0
 40
1.0
 40
1.0
 40
1.0
 40
1.0
 10
20.58213437070109
 20
-19.73337644324811
 30
0.0
 10
20.84017324045627
 20
-19.92597464560988
 30
0.0
 10
21.19414012337602
 20
-19.92597464560988
 30
0.0
 10
21.45217899313141
 20
-19.73337644324811
 30
0.0
  0
SPLINE
  5
128
330
70
100
AcDbEntity
  8
Layer 1
 62
     7
370
     5
100
AcDbSpline
210
0.0
220
0.0
230
1.0
 70
     8
 71
     3
 72
     8
 73
     4
 74
     0
 42
0.0000000001
 43
0.0000000001
 40
0.0
 40
0.0
 40
0.0
 40
0.0
 40
1.0
 40
1.0
 40
1.0
 40
1.0
 10
22.00504538960384
 20
-16.63014524968642
 30
0.0
 10
21.94699967743309
 20
-16.52901720271342
 30
0.0
 10
21.85351254482073
 20
-16.45300891537767
 30
0.0
 10
21.74266701694485
 20
-16.41682251550347
 30
0.0
  0
SPLINE
  5
129
330
70
100
AcDbEntity
  8
Layer 1
 62
     7
370
     5
100
AcDbSpline
210
0.0
220
0.0
230
1.0
 70
     8
 71
     3
 72
     8
 73
     4
 74
     0
 42
0.0000000001
 43
0.0000000001
 40
0.0
 40
0.0
 40
0.0
 40
0.0
 40
1.0
 40
1.0
 40
1.0
 40
1.0
 10
24.61462776207067
 20
-17.39490120033249
 30
0.0
 10
24.60155380677318
 20
-17.3540284425495
 30
0.0
 10
24.56744913973011
 20
-17.32338637980713
 30
0.0
 10
24.52541512776308
 20
-17.31474621349699
 30
0.0
  0
SPLINE
  5
12A
330
70
100
AcDbEntity
  8
Layer 1
 62
     7
370
     5
100
AcDbSpline
210
0.0
220
0.0
230
1.0
 70
     8
 71
     3
 72
     8
 73
     4
 74
     0
 42
0.0000000001
 43
0.0000000001
 40
0.0
 40
0.0
 40
0.0
 40
0.0
 40
1.0
 40
1.0
 40
1.0
 40
1.0
 10
22.2114742189992
 20
-16.79282914611364
 30
0.0
 10
22.19945893119077
 20
-16.75423656796569
 30
0.0
 10
22.16759587870706
 20
-16.72510221892669
 30
0.0
 10
22.12808460005481
 20
-16.71658088754593
 30
0.0
  0
SPLINE
  5
12B
330
70
100
AcDbEntity
  8
Layer 1
 62
     7
370
     5
100
AcDbSpline
210
0.0
220
0.0
230
1.0
 70
     8
 71
     3
 72
     8
 73
     4
 74
     0
 42
0.0000000001
 43
0.0000000001
 40
0.0
 40
0.0
 40
0.0
 40
0.0
 40
1.0
 40
1.0
 40
1.0
 40
1.0
 10
21.46385109653655
 20
-19.72586848639588
 30
0.0
 10
21.45979090301325
 20
-19.72809728209189
 30
0.0
 10
21.4558907760829
 20
-19.73060599743788
 30
0.0
 10
21.45217899324823
 20
-19.73337644323058
 30
0.0
  0
SPLINE
  5
12C
330
70
100
AcDbEntity
  8
Layer 1
 62
     7
370
     5
100
AcDbSpline
210
0.0
220
0.0
230
1.0
 70
     8
 71
     3
 72
     8
 73
     4
 74
     0
 42
0.0000000001
 43
0.0000000001
 40
0.0
 40
0.0
 40
0.0
 40
0.0
 40
1.0
 40
1.0
 40
1.0
 40
1.0
 10
24.29401914663693
 20
-17.19184957525178
 30
0.0
 10
24.29157857366643
 20
-17.16484660662546
 30
0.0
 10
24.27825753490801
 20
-17.13999848494002
 30
0.0
 10
24.25711933623984
 20
-17.12301928389517
 30
0.0
  0
SPLINE
  5
12D
330
70
100
AcDbEntity
  8
Layer 1
 62
     7
370
     5
100
AcDbSpline
210
0.0
220
0.0
230
1.0
 70
     8
 71
     3
 72
     8
 73
     4
 74
     0
 42
0.0000000001
 43
0.0000000001
 40
0.0
 40
0.0
 40
0.0
 40
0.0
 40
1.0
 40
1.0
 40
1.0
 40
1.0
 10
25.43671482520987
 20
-19.44767349299228
 30
0.0
 10
25.43671482520987
 20
-19.48956872911056
 30
0.0
 10
25.4636621444563
 20
-19.52671061572148
 30
0.0
 10
25.503489571994
 20
-19.53971010898547
 30
0.0
  0
SPLINE
  5
12E
330
70
100
AcDbEntity
  8
Layer 1
 62
     7
370
     5
100
AcDbSpline
210
0.0
220
0.0
230
1.0
 70
     8
 71
     3
 72
    11
 73
     7
 74
     0
 42
0.0000000001
 43
0.0000000001
 40
0.0
 40
0.0
 40
0.0
 40
0.0
 40
1.0
 40
1.0
 40
1.0
 40
2.0
 40
2.0
 40
2.0
 40
2.0
 10
21.46385109648299
 20
-19.72586848647107
 30
0.0
 10
21.49607898127061
 20
-19.70817736644383
 30
0.0
 10
21.50786335748856
 20
-19.66771001742558
 30
0.0
 10
21.49017223746126
 20
-19.63548213263794
 30
0.0
 10
21.48373567918131
 20
-19.62375666481271
 30
0.0
 10
21.47391601685
 20
-19.61424221493883
 30
0.0
 10
21.46199322449039
 20
-19.60817897318518
 30
0.0
  0
SPLINE
  5
12F
330
70
100
AcDbEntity
  8
Layer 1
 62
     7
370
     5
100
AcDbSpline
210
0.0
220
0.0
230
1.0
 70
     8
 71
     3
 72
     8
 73
     4
 74
     0
 42
0.0000000001
 43
0.0000000001
 40
0.0
 40
0.0
 40
0.0
 40
0.0
 40
1.0
 40
1.0
 40
1.0
 40
1.0
 10
24.81590057265761
 20
-17.39367744072946
 30
0.0
 10
24.81590057265761
 20
-17.41186787903408
 30
0.0
 10
24.82390408287122
 20
-17.42913698402991
 30
0.0
 10
24.83778382303007
 20
-17.44089474141975
 30
0.0
  0
SPLINE
  5
130
330
70
100
AcDbEntity
  8
Layer 1
 62
     7
370
     5
100
AcDbSpline
210
0.0
220
0.0
230
1.0
 70
     8
 71
     3
 72
    11
 73
     7
 74
     0
 42
0.0000000001
 43
0.0000000001
 40
0.0
 40
0.0
 40
0.0
 40
0.0
 40
1.0
 40
1.0
 40
1.0
 40
2.0
 40
2.0
 40
2.0
 40
2.0
 10
21.30127606157518
 20
-16.95593054966949
 30
0.0
 10
21.32902001219456
 20
-16.93792618890944
 30
0.0
 10
21.33691550978314
 20
-16.90083985494794
 30
0.0
 10
21.31891114902315
 20
-16.87309590432844
 30
0.0
 10
21.31593682841481
 20
-16.86851260336119
 30
0.0
 10
21.31234925968139
 20
-16.86435790763067
 30
0.0
 10
21.30824829834832
 20
-16.86074745793826
 30
0.0
  0
SPLINE
  5
131
330
70
100
AcDbEntity
  8
Layer 1
 62
     7
370
     5
100
AcDbSpline
210
0.0
220
0.0
230
1.0
 70
     8
 71
     3
 72
    11
 73
     7
 74
     0
 42
0.0000000001
 43
0.0000000001
 40
0.0
 40
0.0
 40
0.0
 40
0.0
 40
1.0
 40
1.0
 40
1.0
 40
2.0
 40
2.0
 40
2.0
 40
2.0
 10
24.50150107176693
 20
-17.219097090512
 30
0.0
 10
24.50150107176693
 20
-17.1865744081879
 30
0.0
 10
24.47513622852746
 20
-17.16020956494829
 30
0.0
 10
24.44261354620335
 20
-17.16020956494829
 30
0.0
 10
24.41774390221647
 20
-17.16020956494829
 30
0.0
 10
24.39555535135153
 20
-17.17583317764759
 30
0.0
 10
24.38717232528857
 20
-17.19924736279386
 30
0.0
  0
SPLINE
  5
132
330
70
100
AcDbEntity
  8
Layer 1
 62
     7
370
     5
100
AcDbSpline
210
0.0
220
0.0
230
1.0
 70
     8
 71
     3
 72
    11
 73
     7
 74
     0
 42
0.0000000001
 43
0.0000000001
 40
0.0
 40
0.0
 40
0.0
 40
0.0
 40
1.0
 40
1.0
 40
1.0
 40
2.0
 40
2.0
 40
2.0
 40
2.0
 10
21.61329645814099
 20
-16.43305785975907
 30
0.0
 10
21.61961326936193
 20
-16.46101722624366
 30
0.0
 10
21.64739960146842
 20
-16.47856198381125
 30
0.0
 10
21.67535896795286
 20
-16.47224517259042
 30
0.0
 10
21.69893231853189
 20
-16.46691928634275
 30
0.0
 10
21.71570992469406
 20
-16.44602750966798
 30
0.0
 10
21.71582168449961
 20
-16.42186027086025
 30
0.0
  0
SPLINE
  5
133
330
70
100
AcDbEntity
  8
Layer 1
 62
     7
370
     5
100
AcDbSpline
210
0.0
220
0.0
230
1.0
 70
     8
 71
     3
 72
     8
 73
     4
 74
     0
 42
0.0000000001
 43
0.0000000001
 40
0.0
 40
0.0
 40
0.0
 40
0.0
 40
1.0
 40
1.0
 40
1.0
 40
1.0
 10
21.33812521148828
 20
-16.47618947178719
 30
0.0
 10
21.32348755878883
 20
-16.48529893750454
 30
0.0
 10
21.31458859073505
 20
-16.5013185600289
 30
0.0
 10
21.31458859069524
 20
-16.51855930369616
 30
0.0
  0
SPLINE
  5
134
330
70
100
AcDbEntity
  8
Layer 1
 62
     7
370
     5
100
AcDbSpline
210
0.0
220
0.0
230
1.0
 70
     8
 71
     3
 72
     8
 73
     4
 74
     0
 42
0.0000000001
 43
0.0000000001
 40
0.0
 40
0.0
 40
0.0
 40
0.0
 40
1.0
 40
1.0
 40
1.0
 40
1.0
 10
21.29532032835214
 20
-16.84286713230979
 30
0.0
 10
21.2982415972449
 20
-16.84971716309698
 30
0.0
 10
21.30265887326942
 20
-16.85582657804603
 30
0.0
 10
21.30824829848317
 20
-16.86074745799889
 30
0.0
  0
SPLINE
  5
135
330
70
100
AcDbEntity
  8
Layer 1
 62
     7
370
     5
100
AcDbSpline
210
0.0
220
0.0
230
1.0
 70
     8
 71
     3
 72
     8
 73
     4
 74
     0
 42
0.0000000001
 43
0.0000000001
 40
0.0
 40
0.0
 40
0.0
 40
0.0
 40
1.0
 40
1.0
 40
1.0
 40
1.0
 10
21.30127606174263
 20
-16.955930549557
 30
0.0
 10
21.28805789680885
 20
-16.96450844144834
 30
0.0
 10
21.27966748858274
 20
-16.97882529675801
 30
0.0
 10
21.27864337131129
 20
-16.99454952320431
 30
0.0
  0
SPLINE
  5
136
330
70
100
AcDbEntity
  8
Layer 1
 62
     7
370
     5
100
AcDbSpline
210
0.0
220
0.0
230
1.0
 70
     8
 71
     3
 72
     8
 73
     4
 74
     0
 42
0.0000000001
 43
0.0000000001
 40
0.0
 40
0.0
 40
0.0
 40
0.0
 40
1.0
 40
1.0
 40
1.0
 40
1.0
 10
21.26919047904451
 20
-16.58000386347278
 30
0.0
 10
21.24591941101039
 20
-16.58762862509752
 30
0.0
 10
21.2316189255269
 20
-16.6110118863457
 30
0.0
 10
21.23543339863209
 20
-16.63520133429736
 30
0.0
  0
SPLINE
  5
137
330
70
100
AcDbEntity
  8
Layer 1
 62
     7
370
     5
100
AcDbSpline
210
0.0
220
0.0
230
1.0
 70
     8
 71
     3
 72
     8
 73
     4
 74
     0
 42
0.0000000001
 43
0.0000000001
 40
0.0
 40
0.0
 40
0.0
 40
0.0
 40
1.0
 40
1.0
 40
1.0
 40
1.0
 10
21.43557652753637
 20
-19.57295498991912
 30
0.0
 10
21.4384467026575
 20
-19.58815607133374
 30
0.0
 10
21.44820416420041
 20
-19.60116665558204
 30
0.0
 10
21.46199322450641
 20
-19.60817897312166
 30
0.0
  0
SPLINE
  5
138
330
70
100
AcDbEntity
  8
Layer 1
 62
     7
370
     5
100
AcDbSpline
210
0.0
220
0.0
230
1.0
 70
     8
 71
     3
 72
     8
 73
     4
 74
     0
 42
0.0000000001
 43
0.0000000001
 40
0.0
 40
0.0
 40
0.0
 40
0.0
 40
1.0
 40
1.0
 40
1.0
 40
1.0
 10
21.61329645814817
 20
-16.43305785980349
 30
0.0
 10
21.60966542250119
 20
-16.41698622918165
 30
0.0
 10
21.59529813874732
 20
-16.40563682778523
 30
0.0
 10
21.57882251348234
 20
-16.40582524976879
 30
0.0
  0
SPLINE
  5
139
330
70
100
AcDbEntity
  8
Layer 1
 62
     7
370
     5
100
AcDbSpline
210
0.0
220
0.0
230
1.0
 70
     8
 71
     3
 72
     8
 73
     4
 74
     0
 42
0.0000000001
 43
0.0000000001
 40
0.0
 40
0.0
 40
0.0
 40
0.0
 40
1.0
 40
1.0
 40
1.0
 40
1.0
 10
21.29149481298178
 20
-16.57233424649015
 30
0.0
 10
21.30535129178702
 20
-16.56734261890167
 30
0.0
 10
21.31458859069524
 20
-16.5541966049409
 30
0.0
 10
21.31458859069524
 20
-16.53946845669136
 30
0.0
  0
SPLINE
  5
13A
330
70
100
AcDbEntity
  8
Layer 1
 62
     7
370
     5
100
AcDbSpline
210
0.0
220
0.0
230
1.0
 70
     8
 71
     3
 72
     8
 73
     4
 74
     0
 42
0.0000000001
 43
0.0000000001
 40
0.0
 40
0.0
 40
0.0
 40
0.0
 40
1.0
 40
1.0
 40
1.0
 40
1.0
 10
22.10445436675463
 20
-16.68262175169065
 30
0.0
 10
22.10445436675463
 20
-16.66332863505775
 30
0.0
 10
22.0888142055108
 20
-16.64768847381396
 30
0.0
 10
22.06952108887807
 20
-16.64768847381396
 30
0.0
  0
SPLINE
  5
13B
330
70
100
AcDbEntity
  8
Layer 1
 62
     7
370
     5
100
AcDbSpline
210
0.0
220
0.0
230
1.0
 70
     8
 71
     3
 72
     8
 73
     4
 74
     0
 42
0.0000000001
 43
0.0000000001
 40
0.0
 40
0.0
 40
0.0
 40
0.0
 40
1.0
 40
1.0
 40
1.0
 40
1.0
 10
22.29626443293023
 20
-16.81387106714186
 30
0.0
 10
22.30238686573039
 20
-16.81387106714186
 30
0.0
 10
22.30840177987933
 20
-16.81226199811767
 30
0.0
 10
22.31370645116807
 20
-16.80920509676022
 30
0.0
  0
SPLINE
  5
13C
330
70
100
AcDbEntity
  8
Layer 1
 62
     7
370
     5
100
AcDbSpline
210
0.0
220
0.0
230
1.0
 70
     8
 71
     3
 72
     8
 73
     4
 74
     0
 42
0.0000000001
 43
0.0000000001
 40
0.0
 40
0.0
 40
0.0
 40
0.0
 40
1.0
 40
1.0
 40
1.0
 40
1.0
 10
22.00504538960182
 20
-16.63014524969192
 30
0.0
 10
22.01127397638177
 20
-16.64099678020071
 30
0.0
 10
22.02283054858276
 20
-16.64768847381396
 30
0.0
 10
22.0353425830958
 20
-16.64768847381396
 30
0.0
  0
SPLINE
  5
13D
330
70
100
AcDbEntity
  8
Layer 1
 62
     7
370
     5
100
AcDbSpline
210
0.0
220
0.0
230
1.0
 70
     8
 71
     3
 72
     8
 73
     4
 74
     0
 42
0.0000000001
 43
0.0000000001
 40
0.0
 40
0.0
 40
0.0
 40
0.0
 40
1.0
 40
1.0
 40
1.0
 40
1.0
 10
21.7357635493201
 20
-16.32153424854671
 30
0.0
 10
21.72381034947504
 20
-16.32576987727647
 30
0.0
 10
21.71582168454342
 20
-16.33707605381202
 30
0.0
 10
21.71582168451083
 20
-16.34975751813087
 30
0.0
  0
SPLINE
  5
13E
330
70
100
AcDbEntity
  8
Layer 1
 62
     7
370
     5
100
AcDbSpline
210
0.0
220
0.0
230
1.0
 70
     8
 71
     3
 72
     8
 73
     4
 74
     0
 42
0.0000000001
 43
0.0000000001
 40
0.0
 40
0.0
 40
0.0
 40
0.0
 40
1.0
 40
1.0
 40
1.0
 40
1.0
 10
22.10445436675463
 20
-16.68731105278433
 30
0.0
 10
22.10445436675463
 20
-16.701415380697
 30
0.0
 10
22.11429727171149
 20
-16.71360739751347
 30
0.0
 10
22.12808460005415
 20
-16.71658088755662
 30
0.0
  0
SPLINE
  5
13F
330
70
100
AcDbEntity
  8
Layer 1
 62
     7
370
     5
100
AcDbSpline
210
0.0
220
0.0
230
1.0
 70
     8
 71
     3
 72
     8
 73
     4
 74
     0
 42
0.0000000001
 43
0.0000000001
 40
0.0
 40
0.0
 40
0.0
 40
0.0
 40
1.0
 40
1.0
 40
1.0
 40
1.0
 10
22.21147421900077
 20
-16.79282914611192
 30
0.0
 10
22.21537081796039
 20
-16.80534485129217
 30
0.0
 10
22.22695522784137
 20
-16.81387106714186
 30
0.0
 10
22.24006348324047
 20
-16.81387106714186
 30
0.0
  0
SPLINE
  5
140
330
70
100
AcDbEntity
  8
Layer 1
 62
     7
370
     5
100
AcDbSpline
210
0.0
220
0.0
230
1.0
 70
     8
 71
     3
 72
     8
 73
     4
 74
     0
 42
0.0000000001
 43
0.0000000001
 40
0.0
 40
0.0
 40
0.0
 40
0.0
 40
1.0
 40
1.0
 40
1.0
 40
1.0
 10
24.29401914665815
 20
-17.19184957523685
 30
0.0
 10
24.295413702277
 20
-17.2072792067529
 30
0.0
 10
24.30834787696432
 20
-17.219097090512
 30
0.0
 10
24.32384040142236
 20
-17.219097090512
 30
0.0
  0
SPLINE
  5
141
330
70
100
AcDbEntity
  8
Layer 1
 62
     7
370
     5
100
AcDbSpline
210
0.0
220
0.0
230
1.0
 70
     8
 71
     3
 72
     8
 73
     4
 74
     0
 42
0.0000000001
 43
0.0000000001
 40
0.0
 40
0.0
 40
0.0
 40
0.0
 40
1.0
 40
1.0
 40
1.0
 40
1.0
 10
24.35898187404991
 20
-17.219097090512
 30
0.0
 10
24.37162745573836
 20
-17.219097090512
 30
0.0
 10
24.38290976973761
 20
-17.21115288066443
 30
0.0
 10
24.3871723253627
 20
-17.19924736279325
 30
0.0
  0
SPLINE
  5
142
330
70
100
AcDbEntity
  8
Layer 1
 62
     7
370
     5
100
AcDbSpline
210
0.0
220
0.0
230
1.0
 70
     8
 71
     3
 72
     8
 73
     4
 74
     0
 42
0.0000000001
 43
0.0000000001
 40
0.0
 40
0.0
 40
0.0
 40
0.0
 40
1.0
 40
1.0
 40
1.0
 40
1.0
 10
24.50150107176693
 20
-17.28541660427122
 30
0.0
 10
24.50150107176693
 20
-17.29962977567432
 30
0.0
 10
24.51149302865121
 20
-17.31188450113043
 30
0.0
 10
24.52541512776308
 20
-17.31474621349358
 30
0.0
  0
SPLINE
  5
143
330
70
100
AcDbEntity
  8
Layer 1
 62
     7
370
     5
100
AcDbSpline
210
0.0
220
0.0
230
1.0
 70
     8
 71
     3
 72
     8
 73
     4
 74
     0
 42
0.0000000001
 43
0.0000000001
 40
0.0
 40
0.0
 40
0.0
 40
0.0
 40
1.0
 40
1.0
 40
1.0
 40
1.0
 10
24.61462776214489
 20
-17.39490120035066
 30
0.0
 10
24.61859524027975
 20
-17.40730462143705
 30
0.0
 10
24.63012458696001
 20
-17.4157215402754
 30
0.0
 10
24.64314709583502
 20
-17.4157215402754
 30
0.0
  0
SPLINE
  5
144
330
70
100
AcDbEntity
  8
Layer 1
 62
     7
370
     5
100
AcDbSpline
210
0.0
220
0.0
230
1.0
 70
     8
 71
     3
 72
     8
 73
     4
 74
     0
 42
0.0000000001
 43
0.0000000001
 40
0.0
 40
0.0
 40
0.0
 40
0.0
 40
1.0
 40
1.0
 40
1.0
 40
1.0
 10
21.73578355758317
 20
-16.40733437922462
 30
0.0
 10
21.73578355758317
 20
-16.41165326831722
 30
0.0
 10
21.7385613693417
 20
-16.41548219430413
 30
0.0
 10
21.74266701693839
 20
-16.41682251546171
 30
0.0
  0
SPLINE
  5
145
330
70
100
AcDbEntity
  8
Layer 1
 62
     7
370
     5
100
AcDbSpline
210
0.0
220
0.0
230
1.0
 70
     8
 71
     3
 72
     8
 73
     4
 74
     0
 42
0.0000000001
 43
0.0000000001
 40
0.0
 40
0.0
 40
0.0
 40
0.0
 40
1.0
 40
1.0
 40
1.0
 40
1.0
 10
24.76599588997657
 20
-17.4157215402754
 30
0.0
 10
24.77150820901455
 20
-17.4157215402754
 30
0.0
 10
24.77597682651279
 20
-17.41125292277709
 30
0.0
 10
24.77597682651279
 20
-17.40574060373908
 30
0.0
  0
SPLINE
  5
146
330
70
100
AcDbEntity
  8
Layer 1
 62
     7
370
     5
100
AcDbSpline
210
0.0
220
0.0
230
1.0
 70
     8
 71
     3
 72
     8
 73
     4
 74
     0
 42
0.0000000001
 43
0.0000000001
 40
0.0
 40
0.0
 40
0.0
 40
0.0
 40
1.0
 40
1.0
 40
1.0
 40
1.0
 10
20.74281855090837
 20
-16.57233424650366
 30
0.0
 10
20.75021568567058
 20
-16.57499897412109
 30
0.0
 10
20.75765125277422
 20
-16.57755578446656
 30
0.0
 10
20.76512288480052
 20
-16.58000386347493
 30
0.0
  0
SPLINE
  5
147
330
70
100
AcDbEntity
  8
Layer 1
 62
     7
370
     5
100
AcDbSpline
210
0.0
220
0.0
230
1.0
 70
     8
 71
     3
 72
     8
 73
     4
 74
     0
 42
0.0000000001
 43
0.0000000001
 40
0.0
 40
0.0
 40
0.0
 40
0.0
 40
1.0
 40
1.0
 40
1.0
 40
1.0
 10
21.26919047903172
 20
-16.58000386347493
 30
0.0
 10
21.27666211105803
 20
-16.57755578446656
 30
0.0
 10
21.28409767816177
 20
-16.57499897412109
 30
0.0
 10
21.29149481292408
 20
-16.57233424650366
 30
0.0
  0
SPLINE
  5
148
330
70
100
AcDbEntity
  8
Layer 1
 62
     7
370
     5
100
AcDbSpline
210
0.0
220
0.0
230
1.0
 70
     8
 71
     3
 72
     8
 73
     4
 74
     0
 42
0.0000000001
 43
0.0000000001
 40
0.0
 40
0.0
 40
0.0
 40
0.0
 40
1.0
 40
1.0
 40
1.0
 40
1.0
 10
20.5722258248822
 20
-15.85533985253131
 30
0.0
 10
20.50273278158973
 20
-16.02852643092776
 30
0.0
 10
20.50273278158973
 20
-16.22184646135904
 30
0.0
 10
20.5722258248822
 20
-16.39503303975531
 30
0.0
  0
SPLINE
  5
149
330
70
100
AcDbEntity
  8
Layer 1
 62
     7
370
     5
100
AcDbSpline
210
0.0
220
0.0
230
1.0
 70
     8
 71
     3
 72
     8
 73
     4
 74
     0
 42
0.0000000001
 43
0.0000000001
 40
0.0
 40
0.0
 40
0.0
 40
0.0
 40
1.0
 40
1.0
 40
1.0
 40
1.0
 10
20.59046381906235
 20
-16.3981777487804
 30
0.0
 10
20.59887041827286
 20
-16.41884773457463
 30
0.0
 10
20.60822730985706
 20
-16.4391183748414
 30
0.0
 10
20.61850457906608
 20
-16.45892486268301
 30
0.0
  0
SPLINE
  5
14A
330
70
100
AcDbEntity
  8
Layer 1
 62
     7
370
     5
100
AcDbSpline
210
0.0
220
0.0
230
1.0
 70
     8
 71
     3
 72
     8
 73
     4
 74
     0
 42
0.0000000001
 43
0.0000000001
 40
0.0
 40
0.0
 40
0.0
 40
0.0
 40
1.0
 40
1.0
 40
1.0
 40
1.0
 10
20.61850457906608
 20
-15.79144802960379
 30
0.0
 10
20.60822730985706
 20
-15.81125451744527
 30
0.0
 10
20.59887041827286
 20
-15.83152515771227
 30
0.0
 10
20.59046381906235
 20
-15.85219514350638
 30
0.0
  0
SPLINE
  5
14B
330
70
100
AcDbEntity
  8
Layer 1
 62
     7
370
     5
100
AcDbSpline
210
0.0
220
0.0
230
1.0
 70
     8
 71
     3
 72
     8
 73
     4
 74
     0
 42
0.0000000001
 43
0.0000000001
 40
0.0
 40
0.0
 40
0.0
 40
0.0
 40
1.0
 40
1.0
 40
1.0
 40
1.0
 10
21.74266701694485
 20
-15.83355037678315
 30
0.0
 10
21.85351254482073
 20
-15.79736397690895
 30
0.0
 10
21.94699967743309
 20
-15.72135568957333
 30
0.0
 10
22.00504538960384
 20
-15.62022764260046
 30
0.0
  0
SPLINE
  5
14C
330
70
100
AcDbEntity
  8
Layer 1
 62
     7
370
     5
100
AcDbSpline
210
0.0
220
0.0
230
1.0
 70
     8
 71
     3
 72
     8
 73
     4
 74
     0
 42
0.0000000001
 43
0.0000000001
 40
0.0
 40
0.0
 40
0.0
 40
0.0
 40
1.0
 40
1.0
 40
1.0
 40
1.0
 10
22.12808460005481
 20
-15.53379200474066
 30
0.0
 10
22.16759587870706
 20
-15.5252706733599
 30
0.0
 10
22.19945893119077
 20
-15.49613632432104
 30
0.0
 10
22.2114742189992
 20
-15.45754374617301
 30
0.0
  0
SPLINE
  5
14D
330
70
100
AcDbEntity
  8
Layer 1
 62
     7
370
     5
100
AcDbSpline
210
0.0
220
0.0
230
1.0
 70
     8
 71
     3
 72
    11
 73
     7
 74
     0
 42
0.0000000001
 43
0.0000000001
 40
0.0
 40
0.0
 40
0.0
 40
0.0
 40
1.0
 40
1.0
 40
1.0
 40
2.0
 40
2.0
 40
2.0
 40
2.0
 10
21.71582168449961
 20
-15.82851262142652
 30
0.0
 10
21.71568913086243
 20
-15.7998488689202
 30
0.0
 10
21.69234511237753
 20
-15.77671976234387
 30
0.0
 10
21.66368135987116
 20
-15.776852315981
 30
0.0
 10
21.63951412106343
 20
-15.77696407578635
 30
0.0
 10
21.61862234438859
 20
-15.7937416819487
 30
0.0
 10
21.61329645814099
 20
-15.8173150325276
 30
0.0
  0
SPLINE
  5
14E
330
70
100
AcDbEntity
  8
Layer 1
 62
     7
370
     5
100
AcDbSpline
210
0.0
220
0.0
230
1.0
 70
     8
 71
     3
 72
     8
 73
     4
 74
     0
 42
0.0000000001
 43
0.0000000001
 40
0.0
 40
0.0
 40
0.0
 40
0.0
 40
1.0
 40
1.0
 40
1.0
 40
1.0
 10
21.31458859069524
 20
-15.73181358849072
 30
0.0
 10
21.31458859073505
 20
-15.74905433215804
 30
0.0
 10
21.32348755878883
 20
-15.76507395468229
 30
0.0
 10
21.33812521148828
 20
-15.77418342039974
 30
0.0
  0
SPLINE
  5
14F
330
70
100
AcDbEntity
  8
Layer 1
 62
     7
370
     5
100
AcDbSpline
210
0.0
220
0.0
230
1.0
 70
     8
 71
     3
 72
     8
 73
     4
 74
     0
 42
0.0000000001
 43
0.0000000001
 40
0.0
 40
0.0
 40
0.0
 40
0.0
 40
1.0
 40
1.0
 40
1.0
 40
1.0
 10
21.57882251348234
 20
-15.84454764251814
 30
0.0
 10
21.59529813874732
 20
-15.84473606450137
 30
0.0
 10
21.60966542250119
 20
-15.83338666310502
 30
0.0
 10
21.61329645814817
 20
-15.81731503248309
 30
0.0
  0
SPLINE
  5
150
330
70
100
AcDbEntity
  8
Layer 1
 62
     7
370
     5
100
AcDbSpline
210
0.0
220
0.0
230
1.0
 70
     8
 71
     3
 72
     8
 73
     4
 74
     0
 42
0.0000000001
 43
0.0000000001
 40
0.0
 40
0.0
 40
0.0
 40
0.0
 40
1.0
 40
1.0
 40
1.0
 40
1.0
 10
21.31458859069524
 20
-15.71090443559524
 30
0.0
 10
21.31458859069524
 20
-15.69617628734573
 30
0.0
 10
21.30535129178702
 20
-15.68303027338513
 30
0.0
 10
21.29149481298178
 20
-15.67803864579665
 30
0.0
  0
SPLINE
  5
151
330
70
100
AcDbEntity
  8
Layer 1
 62
     7
370
     5
100
AcDbSpline
210
0.0
220
0.0
230
1.0
 70
     8
 71
     3
 72
     8
 73
     4
 74
     0
 42
0.0000000001
 43
0.0000000001
 40
0.0
 40
0.0
 40
0.0
 40
0.0
 40
1.0
 40
1.0
 40
1.0
 40
1.0
 10
22.06952108887807
 20
-15.60268441847276
 30
0.0
 10
22.0888142055108
 20
-15.60268441847276
 30
0.0
 10
22.10445436675463
 20
-15.58704425722893
 30
0.0
 10
22.10445436675463
 20
-15.56775114059607
 30
0.0
  0
SPLINE
  5
152
330
70
100
AcDbEntity
  8
Layer 1
 62
     7
370
     5
100
AcDbSpline
210
0.0
220
0.0
230
1.0
 70
     8
 71
     3
 72
     8
 73
     4
 74
     0
 42
0.0000000001
 43
0.0000000001
 40
0.0
 40
0.0
 40
0.0
 40
0.0
 40
1.0
 40
1.0
 40
1.0
 40
1.0
 10
22.31370645116807
 20
-15.44116779552645
 30
0.0
 10
22.30840177987933
 20
-15.43811089416918
 30
0.0
 10
22.30238686573044
 20
-15.43650182514489
 30
0.0
 10
22.29626443293043
 20
-15.43650182514489
 30
0.0
  0
SPLINE
  5
153
330
70
100
AcDbEntity
  8
Layer 1
 62
     7
370
     5
100
AcDbSpline
210
0.0
220
0.0
230
1.0
 70
     8
 71
     3
 72
     8
 73
     4
 74
     0
 42
0.0000000001
 43
0.0000000001
 40
0.0
 40
0.0
 40
0.0
 40
0.0
 40
1.0
 40
1.0
 40
1.0
 40
1.0
 10
22.0353425830958
 20
-15.60268441847276
 30
0.0
 10
22.02283054858276
 20
-15.60268441847276
 30
0.0
 10
22.01127397638177
 20
-15.60937611208601
 30
0.0
 10
22.00504538960182
 20
-15.6202276425949
 30
0.0
  0
SPLINE
  5
154
330
70
100
AcDbEntity
  8
Layer 1
 62
     7
370
     5
100
AcDbSpline
210
0.0
220
0.0
230
1.0
 70
     8
 71
     3
 72
     8
 73
     4
 74
     0
 42
0.0000000001
 43
0.0000000001
 40
0.0
 40
0.0
 40
0.0
 40
0.0
 40
1.0
 40
1.0
 40
1.0
 40
1.0
 10
21.71582168451083
 20
-15.9006153741558
 30
0.0
 10
21.71582168454342
 20
-15.91329683847463
 30
0.0
 10
21.72381034947504
 20
-15.92460301501036
 30
0.0
 10
21.7357635493201
 20
-15.92883864374001
 30
0.0
  0
SPLINE
  5
155
330
70
100
AcDbEntity
  8
Layer 1
 62
     7
370
     5
100
AcDbSpline
210
0.0
220
0.0
230
1.0
 70
     8
 71
     3
 72
     8
 73
     4
 74
     0
 42
0.0000000001
 43
0.0000000001
 40
0.0
 40
0.0
 40
0.0
 40
0.0
 40
1.0
 40
1.0
 40
1.0
 40
1.0
 10
22.12808460005415
 20
-15.53379200472998
 30
0.0
 10
22.11429727171149
 20
-15.53676549477318
 30
0.0
 10
22.10445436675463
 20
-15.54895751158978
 30
0.0
 10
22.10445436675463
 20
-15.56306183950237
 30
0.0
  0
SPLINE
  5
156
330
70
100
AcDbEntity
  8
Layer 1
 62
     7
370
     5
100
AcDbSpline
210
0.0
220
0.0
230
1.0
 70
     8
 71
     3
 72
     8
 73
     4
 74
     0
 42
0.0000000001
 43
0.0000000001
 40
0.0
 40
0.0
 40
0.0
 40
0.0
 40
1.0
 40
1.0
 40
1.0
 40
1.0
 10
22.24006348324047
 20
-15.43650182514489
 30
0.0
 10
22.22695522784137
 20
-15.43650182514489
 30
0.0
 10
22.21537081796039
 20
-15.4450280409946
 30
0.0
 10
22.21147421900077
 20
-15.45754374617465
 30
0.0
  0
SPLINE
  5
157
330
70
100
AcDbEntity
  8
Layer 1
 62
     7
370
     5
100
AcDbSpline
210
0.0
220
0.0
230
1.0
 70
     8
 71
     3
 72
     8
 73
     4
 74
     0
 42
0.0000000001
 43
0.0000000001
 40
0.0
 40
0.0
 40
0.0
 40
0.0
 40
1.0
 40
1.0
 40
1.0
 40
1.0
 10
21.74266701693839
 20
-15.83355037672524
 30
0.0
 10
21.7385613693417
 20
-15.83489069788283
 30
0.0
 10
21.73578355758317
 20
-15.83871962386971
 30
0.0
 10
21.73578355758317
 20
-15.84303851296224
 30
0.0
  0
SPLINE
  5
158
330
70
100
AcDbEntity
  8
Layer 1
 62
     7
370
     5
100
AcDbSpline
210
0.0
220
0.0
230
1.0
 70
     8
 71
     3
 72
     8
 73
     4
 74
     0
 42
0.0000000001
 43
0.0000000001
 40
0.0
 40
0.0
 40
0.0
 40
0.0
 40
1.0
 40
1.0
 40
1.0
 40
1.0
 10
25.75410860705862
 20
-19.60246718549713
 30
0.0
 10
25.77404568804294
 20
-19.60565364297442
 30
0.0
 10
25.79400821396927
 20
-19.60867880410859
 30
0.0
 10
25.81399422627325
 20
-19.61154237209464
 30
0.0
  0
SPLINE
  5
159
330
70
100
AcDbEntity
  8
Layer 1
 62
     7
370
     5
100
AcDbSpline
210
0.0
220
0.0
230
1.0
 70
     8
 71
     3
 72
     8
 73
     4
 74
     0
 42
0.0000000001
 43
0.0000000001
 40
0.0
 40
0.0
 40
0.0
 40
0.0
 40
1.0
 40
1.0
 40
1.0
 40
1.0
 10
24.52541512776308
 20
-14.93562667878958
 30
0.0
 10
24.56744913973011
 20
-14.92698651247959
 30
0.0
 10
24.60155380677318
 20
-14.89634444973724
 30
0.0
 10
24.61462776207067
 20
-14.85547169195436
 30
0.0
  0
SPLINE
  5
15A
330
70
100
AcDbEntity
  8
Layer 1
 62
     7
370
     5
100
AcDbSpline
210
0.0
220
0.0
230
1.0
 70
     8
 71
     3
 72
     8
 73
     4
 74
     0
 42
0.0000000001
 43
0.0000000001
 40
0.0
 40
0.0
 40
0.0
 40
0.0
 40
1.0
 40
1.0
 40
1.0
 40
1.0
 10
24.25711933623984
 20
-15.12735360839173
 30
0.0
 10
24.27825753490801
 20
-15.1103744073466
 30
0.0
 10
24.29157857366643
 20
-15.08552628566116
 30
0.0
 10
24.29401914663693
 20
-15.05852331703487
 30
0.0
  0
SPLINE
  5
15B
330
70
100
AcDbEntity
  8
Layer 1
 62
     7
370
     5
100
AcDbSpline
210
0.0
220
0.0
230
1.0
 70
     8
 71
     3
 72
     8
 73
     4
 74
     0
 42
0.0000000001
 43
0.0000000001
 40
0.0
 40
0.0
 40
0.0
 40
0.0
 40
1.0
 40
1.0
 40
1.0
 40
1.0
 10
24.83778382303007
 20
-14.8094781508669
 30
0.0
 10
24.82390408287122
 20
-14.82123590825674
 30
0.0
 10
24.81590057265761
 20
-14.83850501325259
 30
0.0
 10
24.81590057265761
 20
-14.85669545155742
 30
0.0
  0
SPLINE
  5
15C
330
70
100
AcDbEntity
  8
Layer 1
 62
     7
370
     5
100
AcDbSpline
210
0.0
220
0.0
230
1.0
 70
     8
 71
     3
 72
    11
 73
     7
 74
     0
 42
0.0000000001
 43
0.0000000001
 40
0.0
 40
0.0
 40
0.0
 40
0.0
 40
1.0
 40
1.0
 40
1.0
 40
2.0
 40
2.0
 40
2.0
 40
2.0
 10
24.38717232528857
 20
-15.05112552949281
 30
0.0
 10
24.39813502719549
 20
-15.08174487031611
 30
0.0
 10
24.43184393309818
 20
-15.09767972459654
 30
0.0
 10
24.46246327392148
 20
-15.0867170226895
 30
0.0
 10
24.48587745906765
 20
-15.07833399662652
 30
0.0
 10
24.50150107176693
 20
-15.05614544576156
 30
0.0
 10
24.50150107176693
 20
-15.0312758017748
 30
0.0
  0
SPLINE
  5
15D
330
70
100
AcDbEntity
  8
Layer 1
 62
     7
370
     5
100
AcDbSpline
210
0.0
220
0.0
230
1.0
 70
     8
 71
     3
 72
     8
 73
     4
 74
     0
 42
0.0000000001
 43
0.0000000001
 40
0.0
 40
0.0
 40
0.0
 40
0.0
 40
1.0
 40
1.0
 40
1.0
 40
1.0
 10
24.32384040142236
 20
-15.0312758017748
 30
0.0
 10
24.30834787696432
 20
-15.0312758017748
 30
0.0
 10
24.295413702277
 20
-15.04309368553398
 30
0.0
 10
24.29401914665815
 20
-15.05852331704995
 30
0.0
  0
SPLINE
  5
15E
330
70
100
AcDbEntity
  8
Layer 1
 62
     7
370
     5
100
AcDbSpline
210
0.0
220
0.0
230
1.0
 70
     8
 71
     3
 72
     8
 73
     4
 74
     0
 42
0.0000000001
 43
0.0000000001
 40
0.0
 40
0.0
 40
0.0
 40
0.0
 40
1.0
 40
1.0
 40
1.0
 40
1.0
 10
24.3871723253627
 20
-15.0511255294936
 30
0.0
 10
24.38290976973761
 20
-15.03922001162219
 30
0.0
 10
24.37162745573836
 20
-15.0312758017748
 30
0.0
 10
24.35898187404991
 20
-15.0312758017748
 30
0.0
  0
SPLINE
  5
15F
330
70
100
AcDbEntity
  8
Layer 1
 62
     7
370
     5
100
AcDbSpline
210
0.0
220
0.0
230
1.0
 70
     8
 71
     3
 72
     8
 73
     4
 74
     0
 42
0.0000000001
 43
0.0000000001
 40
0.0
 40
0.0
 40
0.0
 40
0.0
 40
1.0
 40
1.0
 40
1.0
 40
1.0
 10
24.52541512776308
 20
-14.93562667879301
 30
0.0
 10
24.51149302865121
 20
-14.93848839115617
 30
0.0
 10
24.50150107176693
 20
-14.95074311661238
 30
0.0
 10
24.50150107176693
 20
-14.96495628801545
 30
0.0
  0
SPLINE
  5
160
330
70
100
AcDbEntity
  8
Layer 1
 62
     7
370
     5
100
AcDbSpline
210
0.0
220
0.0
230
1.0
 70
     8
 71
     3
 72
     8
 73
     4
 74
     0
 42
0.0000000001
 43
0.0000000001
 40
0.0
 40
0.0
 40
0.0
 40
0.0
 40
1.0
 40
1.0
 40
1.0
 40
1.0
 10
24.64314709583502
 20
-14.83465135201153
 30
0.0
 10
24.63012458696001
 20
-14.83465135201153
 30
0.0
 10
24.61859524027975
 20
-14.84306827084957
 30
0.0
 10
24.61462776214489
 20
-14.85547169193604
 30
0.0
  0
SPLINE
  5
161
330
70
100
AcDbEntity
  8
Layer 1
 62
     7
370
     5
100
AcDbSpline
210
0.0
220
0.0
230
1.0
 70
     8
 71
     3
 72
     8
 73
     4
 74
     0
 42
0.0000000001
 43
0.0000000001
 40
0.0
 40
0.0
 40
0.0
 40
0.0
 40
1.0
 40
1.0
 40
1.0
 40
1.0
 10
24.77597682651279
 20
-14.84463228854755
 30
0.0
 10
24.77597682651279
 20
-14.83911996950953
 30
0.0
 10
24.77150820901455
 20
-14.83465135201153
 30
0.0
 10
24.76599588997657
 20
-14.83465135201153
 30
0.0
  0
SPLINE
  5
162
330
70
100
AcDbEntity
  8
Layer 1
 62
     7
370
     5
100
AcDbSpline
210
0.0
220
0.0
230
1.0
 70
     8
 71
     3
 72
     8
 73
     4
 74
     0
 42
0.0000000001
 43
0.0000000001
 40
0.0
 40
0.0
 40
0.0
 40
0.0
 40
1.0
 40
1.0
 40
1.0
 40
1.0
 10
25.86389890895981
 20
-12.63185865842504
 30
0.0
 10
25.74142964839497
 20
-12.6460092926384
 30
0.0
 10
25.62068874659025
 20
-12.67240949961931
 30
0.0
 10
25.50348957199557
 20
-12.71066278322026
 30
0.0
  0
SPLINE
  5
163
330
70
100
AcDbEntity
  8
Layer 1
 62
     7
370
     5
100
AcDbSpline
210
0.0
220
0.0
230
1.0
 70
     8
 71
     3
 72
     8
 73
     4
 74
     0
 42
0.0000000001
 43
0.0000000001
 40
0.0
 40
0.0
 40
0.0
 40
0.0
 40
1.0
 40
1.0
 40
1.0
 40
1.0
 10
25.503489571994
 20
-12.71066278330115
 30
0.0
 10
25.4636621444563
 20
-12.72366227656534
 30
0.0
 10
25.43671482520987
 20
-12.76080416317614
 30
0.0
 10
25.43671482520987
 20
-12.80269939929434
 30
0.0
  0
SPLINE
  5
164
330
70
100
AcDbEntity
  8
Layer 1
 62
     7
370
     5
100
AcDbSpline
210
0.0
220
0.0
230
1.0
 70
     8
 71
     3
 72
    92
 73
    88
 74
     0
 42
0.0000000001
 43
0.0000000001
 40
0.0
 40
0.0
 40
0.0
 40
0.0
 40
1.0
 40
1.0
 40
1.0
 40
2.0
 40
2.0
 40
2.0
 40
3.0
 40
3.0
 40
3.0
 40
4.0
 40
4.0
 40
4.0
 40
5.0
 40
5.0
 40
5.0
 40
6.0
 40
6.0
 40
6.0
 40
7.0
 40
7.0
 40
7.0
 40
8.0
 40
8.0
 40
8.0
 40
9.0
 40
9.0
 40
9.0
 40
10.0
 40
10.0
 40
10.0
 40
11.0
 40
11.0
 40
11.0
 40
12.0
 40
12.0
 40
12.0
 40
13.0
 40
13.0
 40
13.0
 40
14.0
 40
14.0
 40
14.0
 40
15.0
 40
15.0
 40
15.0
 40
16.0
 40
16.0
 40
16.0
 40
17.0
 40
17.0
 40
17.0
 40
18.0
 40
18.0
 40
18.0
 40
19.0
 40
19.0
 40
19.0
 40
20.0
 40
20.0
 40
20.0
 40
21.0
 40
21.0
 40
21.0
 40
22.0
 40
22.0
 40
22.0
 40
23.0
 40
23.0
 40
23.0
 40
24.0
 40
24.0
 40
24.0
 40
25.0
 40
25.0
 40
25.0
 40
26.0
 40
26.0
 40
26.0
 40
27.0
 40
27.0
 40
27.0
 40
28.0
 40
28.0
 40
28.0
 40
29.0
 40
29.0
 40
29.0
 40
29.0
 10
10.06623297770317
 20
-16.580003863472
 30
0.0
 10
10.0581969532093
 20
-16.5800039175688
 30
0.0
 10
10.05016075695526
 20
-16.57992955891889
 30
0.0
 10
10.04212590636761
 20
-16.57978405892188
 30
0.0
 10
10.03416683590169
 20
-16.57963993119768
 30
0.0
 10
10.02620908583891
 20
-16.57942599772713
 30
0.0
 10
10.01825387707881
 20
-16.57914060231731
 30
0.0
 10
10.01048069445381
 20
-16.57886173714756
 30
0.0
 10
10.00270993816509
 20
-16.57851464291922
 30
0.0
 10
9.99494284802971
 20
-16.57809926698966
 30
0.0
 10
9.987443510251155
 20
-16.57769821017872
 30
0.0
 10
9.979947590218404
 20
-16.57723349822817
 30
0.0
 10
9.972456074679433
 20
-16.5767062176077
 30
0.0
 10
9.965302433119934
 20
-16.57620271780979
 30
0.0
 10
9.958152807720239
 20
-16.57564216587649
 30
0.0
 10
9.951008225414764
 20
-16.57502342133024
 30
0.0
 10
9.944267565014481
 20
-16.57443965776196
 30
0.0
 10
9.937531393600767
 20
-16.57380409546929
 30
0.0
 10
9.930800403542939
 20
-16.5731177968112
 30
0.0
 10
9.924530026706305
 20
-16.57247846274981
 30
0.0
 10
9.91826414635126
 20
-16.57179509868327
 30
0.0
 10
9.912003414295515
 20
-16.57106744631225
 30
0.0
 10
9.906258190380349
 20
-16.57039970877506
 30
0.0
 10
9.900517301848278
 20
-16.56969467605513
 30
0.0
 10
9.894781278257394
 20
-16.56895210206319
 30
0.0
 10
9.889606215535069
 20
-16.5682821489287
 30
0.0
 10
9.884435112737858
 20
-16.56758163825611
 30
0.0
 10
9.879268319204609
 20
-16.56685067004074
 30
0.0
 10
9.874701302965592
 20
-16.56620455486553
 30
0.0
 10
9.870137653593928
 20
-16.56553464293438
 30
0.0
 10
9.865577560065919
 20
-16.56484146344014
 30
0.0
 10
9.863534302806858
 20
-16.56453086804895
 30
0.0
 10
9.861491759454262
 20
-16.56421560123133
 30
0.0
 10
9.859449961534146
 20
-16.56389557167535
 30
0.0
 10
9.85757121384568
 20
-16.56360109846506
 30
0.0
 10
9.855693097288545
 20
-16.56330259281294
 30
0.0
 10
9.853815644941466
 20
-16.56299996827488
 30
0.0
 10
9.852104577909724
 20
-16.56272416320795
 30
0.0
 10
9.850394062576279
 20
-16.56244493696072
 30
0.0
 10
9.848684116215078
 20
-16.56216226919658
 30
0.0
 10
9.847143907518278
 20
-16.56190766042161
 30
0.0
 10
9.845604160442158
 20
-16.56165025946209
 30
0.0
 10
9.844064881426662
 20
-16.56139009026845
 30
0.0
 10
9.842698711847662
 20
-16.56115918006061
 30
0.0
 10
9.841332910971598
 20
-16.56092608924564
 30
0.0
 10
9.839967446607651
 20
-16.56069104726685
 30
0.0
 10
9.838778417770475
 20
-16.56048637572924
 30
0.0
 10
9.837589644100363
 20
-16.56028022468179
 30
0.0
 10
9.836401125220971
 20
-16.56007260751729
 30
0.0
 10
9.835391362744163
 20
-16.55989621652664
 30
0.0
 10
9.834381784179299
 20
-16.55971876726966
 30
0.0
 10
9.833372429211888
 20
-16.55954007528956
 30
0.0
 10
9.832543382486164
 20
-16.55939330432622
 30
0.0
 10
9.831714486607539
 20
-16.55924569497572
 30
0.0
 10
9.830885753391056
 20
-16.55909712036924
 30
0.0
 10
9.830539479043283
 20
-16.55903504059021
 30
0.0
 10
9.830193233094139
 20
-16.55897279229025
 30
0.0
 10
9.829847030098006
 20
-16.55891036859728
 30
0.0
 10
9.829546480868543
 20
-16.55885617671277
 30
0.0
 10
9.829245964010523
 20
-16.55880185264307
 30
0.0
 10
9.828945440317825
 20
-16.55874737220453
 30
0.0
 10
9.828690767956748
 20
-16.55870120392476
 30
0.0
 10
9.828436090687405
 20
-16.55865492335079
 30
0.0
 10
9.828181526942014
 20
-16.55860858488288
 30
0.0
 10
9.827972996497338
 20
-16.55857062589798
 30
0.0
 10
9.827764542231255
 20
-16.55853262806436
 30
0.0
 10
9.827555832714134
 20
-16.55849446031541
 30
0.0
 10
9.827393397923097
 20
-16.55846475505601
 30
0.0
 10
9.827230808520841
 20
-16.55843494687539
 30
0.0
 10
9.827068900547322
 20
-16.55840545214732
 30
0.0
 10
9.827005306207448
 20
-16.55839386718498
 30
0.0
 10
9.826941816996104
 20
-16.5583823305813
 30
0.0
 10
9.826877639795965
 20
-16.5583705085172
 30
0.0
 10
9.826825172907344
 20
-16.55836084360599
 30
0.0
 10
9.826772246195988
 20
-16.55835098790549
 30
0.0
 10
9.826721265885668
 20
-16.55834200807478
 30
0.0
 10
9.826681664477707
 20
-16.55833503255962
 30
0.0
 10
9.826643237557895
 20
-16.55832858555777
 30
0.0
 10
9.826599779791068
 20
-16.55831995221208
 30
0.0
 10
9.826568797871901
 20
-16.5583137973255
 30
0.0
 10
9.826535258998761
 20
-16.5583065312184
 30
0.0
 10
9.826513153582114
 20
-16.55830431828129
 30
0.0
 10
9.826499941580992
 20
-16.5583029956493
 30
0.0
 10
9.826490813877132
 20
-16.5583034781276
 30
0.0
 10
9.826461359091151
 20
-16.55829508337312
 30
0.0
 10
9.826451712935964
 20
-16.55829233417295
 30
0.0
 10
9.826439886704026
 20
-16.55828863289053
 30
0.0
 10
9.826444368244324
 20
-16.55829222473014
 30
0.0
  0
SPLINE
  5
165
330
70
100
AcDbEntity
  8
Layer 1
 62
     7
370
     5
100
AcDbSpline
210
0.0
220
0.0
230
1.0
 70
     8
 71
     3
 72
    71
 73
    67
 74
     0
 42
0.0000000001
 43
0.0000000001
 40
0.0
 40
0.0
 40
0.0
 40
0.0
 40
1.0
 40
1.0
 40
1.0
 40
2.0
 40
2.0
 40
2.0
 40
3.0
 40
3.0
 40
3.0
 40
4.0
 40
4.0
 40
4.0
 40
5.0
 40
5.0
 40
5.0
 40
6.0
 40
6.0
 40
6.0
 40
7.0
 40
7.0
 40
7.0
 40
8.0
 40
8.0
 40
8.0
 40
9.0
 40
9.0
 40
9.0
 40
10.0
 40
10.0
 40
10.0
 40
11.0
 40
11.0
 40
11.0
 40
12.0
 40
12.0
 40
12.0
 40
13.0
 40
13.0
 40
13.0
 40
14.0
 40
14.0
 40
14.0
 40
15.0
 40
15.0
 40
15.0
 40
16.0
 40
16.0
 40
16.0
 40
17.0
 40
17.0
 40
17.0
 40
18.0
 40
18.0
 40
18.0
 40
19.0
 40
19.0
 40
19.0
 40
20.0
 40
20.0
 40
20.0
 40
21.0
 40
21.0
 40
21.0
 40
22.0
 40
22.0
 40
22.0
 40
22.0
 10
10.30602186832497
 20
-16.55829198289206
 30
0.0
 10
10.30599852041925
 20
-16.55830000327331
 30
0.0
 10
10.30597371509724
 20
-16.55830253254135
 30
0.0
 10
10.30594910273611
 20
-16.55830577532348
 30
0.0
 10
10.30587747131396
 20
-16.55831521306438
 30
0.0
 10
10.30580747433499
 20
-16.55833069450788
 30
0.0
 10
10.30573713646854
 20
-16.5583448981264
 30
0.0
 10
10.30562072312979
 20
-16.55836840595733
 30
0.0
 10
10.30550337602459
 20
-16.55838841354342
 30
0.0
 10
10.3053862267646
 20
-16.55840914311933
 30
0.0
 10
10.30522280602748
 20
-16.5584380604389
 30
0.0
 10
10.30505977029023
 20
-16.55846838272562
 30
0.0
 10
10.30489663090668
 20
-16.5584983020994
 30
0.0
 10
10.30468739478823
 20
-16.55853667550468
 30
0.0
 10
10.30447798817547
 20
-16.55857438613353
 30
0.0
 10
10.30426860614185
 20
-16.5586121669368
 30
0.0
 10
10.30401319036432
 20
-16.55865825404877
 30
0.0
 10
10.30375781116182
 20
-16.55870444558327
 30
0.0
 10
10.30350240979395
 20
-16.55875052936567
 30
0.0
 10
10.30285389384564
 20
-16.55886754544958
 30
0.0
 10
10.30220523498563
 20
-16.55898386679587
 30
0.0
 10
10.30155653136715
 20
-16.5590999143192
 30
0.0
 10
10.30072487988153
 20
-16.55924868964969
 30
0.0
 10
10.299893154832
 20
-16.55939701493129
 30
0.0
 10
10.29906129607305
 20
-16.55954459715361
 30
0.0
 10
10.29804843237454
 20
-16.55972429193227
 30
0.0
 10
10.29703537044801
 20
-16.559902885105
 30
0.0
 10
10.29602209225673
 20
-16.56008023953952
 30
0.0
 10
10.29483050504159
 20
-16.56028880346465
 30
0.0
 10
10.29363861875153
 20
-16.56049565432477
 30
0.0
 10
10.2924464377934
 20
-16.56070079404657
 30
0.0
 10
10.29107863757883
 20
-16.56093615274224
 30
0.0
 10
10.28971044948736
 20
-16.56116925903486
 30
0.0
 10
10.28834189261056
 20
-16.56140017950168
 30
0.0
 10
10.28680039022165
 20
-16.56166028155321
 30
0.0
 10
10.28525841995076
 20
-16.56191761042381
 30
0.0
 10
10.28371601669249
 20
-16.56217231466565
 30
0.0
 10
10.28200343482437
 20
-16.56245512129501
 30
0.0
 10
10.28029031915187
 20
-16.56273469217669
 30
0.0
 10
10.27857666213133
 20
-16.56301091993444
 30
0.0
 10
10.27465377099685
 20
-16.5636432584998
 30
0.0
 10
10.27072804297983
 20
-16.56425807774778
 30
0.0
 10
10.26679961970955
 20
-16.56485515976513
 30
0.0
 10
10.26223692141363
 20
-16.5655486453994
 30
0.0
 10
10.25767058726297
 20
-16.56621820378475
 30
0.0
 10
10.25310091042704
 20
-16.56686413692336
 30
0.0
 10
10.24793191374405
 20
-16.56759478514426
 30
0.0
 10
10.24275864008295
 20
-16.56829520477554
 30
0.0
 10
10.23758141782949
 20
-16.56896513763106
 30
0.0
 10
10.23184560400031
 20
-16.56970735226842
 30
0.0
 10
10.22610494355321
 20
-16.57041214654489
 30
0.0
 10
10.22035994996218
 20
-16.5710796628164
 30
0.0
 10
10.21410191850447
 20
-16.57180678944559
 30
0.0
 10
10.2078387454323
 20
-16.57248968280446
 30
0.0
 10
10.20157103672548
 20
-16.57312815701144
 30
0.0
 10
10.19484209214427
 20
-16.57381361604567
 30
0.0
 10
10.1881079198186
 20
-16.57444787783925
 30
0.0
 10
10.18136934542826
 20
-16.57503098827677
 30
0.0
 10
10.17422836872651
 20
-16.57564891987608
 30
0.0
 10
10.16708244851275
 20
-16.57620940857888
 30
0.0
 10
10.15993236311556
 20
-16.57671234194425
 30
0.0
 10
10.14469987501738
 20
-16.57778378739916
 30
0.0
 10
10.12944848293361
 20
-16.57859401380516
 30
0.0
 10
10.11418742431717
 20
-16.57914244900325
 30
0.0
 10
10.09820919635218
 20
-16.57971665704738
 30
0.0
 10
10.08222037198027
 20
-16.58000389081988
 30
0.0
 10
10.06623297770317
 20
-16.580003863472
 30
0.0
  0
SPLINE
  5
166
330
70
100
AcDbEntity
  8
Layer 1
 62
     7
370
     5
100
AcDbSpline
210
0.0
220
0.0
230
1.0
 70
     8
 71
     3
 72
    17
 73
    13
 74
     0
 42
0.0000000001
 43
0.0000000001
 40
0.0
 40
0.0
 40
0.0
 40
0.0
 40
1.0
 40
1.0
 40
1.0
 40
2.0
 40
2.0
 40
2.0
 40
3.0
 40
3.0
 40
3.0
 40
4.0
 40
4.0
 40
4.0
 40
4.0
 10
10.34687178130279
 20
-8.300718749413476
 30
0.0
 10
10.34711571778718
 20
-8.322048566629707
 30
0.0
 10
10.34873288717541
 20
-8.343394011821525
 30
0.0
 10
10.35182716047594
 20
-8.364520235899741
 30
0.0
 10
10.35486490406451
 20
-8.385260502033904
 30
0.0
 10
10.35932627372962
 20
-8.40578948384949
 30
0.0
 10
10.36520632383383
 20
-8.42590361505913
 30
0.0
 10
10.37109035816183
 20
-8.446031375268249
 30
0.0
 10
10.37839499612857
 20
-8.465743722489415
 30
0.0
 10
10.38700927142555
 20
-8.484868886788982
 30
0.0
 10
10.39579507739257
 20
-8.504374878509919
 30
0.0
 10
10.40594319594062
 20
-8.523270070078082
 30
0.0
 10
10.41723600322018
 20
-8.541416051181398
 30
0.0
  0
SPLINE
  5
167
330
70
100
AcDbEntity
  8
Layer 1
 62
     7
370
     5
100
AcDbSpline
210
0.0
220
0.0
230
1.0
 70
     8
 71
     3
 72
    17
 73
    13
 74
     0
 42
0.0000000001
 43
0.0000000001
 40
0.0
 40
0.0
 40
0.0
 40
0.0
 40
1.0
 40
1.0
 40
1.0
 40
2.0
 40
2.0
 40
2.0
 40
3.0
 40
3.0
 40
3.0
 40
4.0
 40
4.0
 40
4.0
 40
4.0
 10
9.785594174103493
 20
-8.300718749413476
 30
0.0
 10
9.785350237519359
 20
-8.322048566629707
 30
0.0
 10
9.783733068131077
 20
-8.343394011821525
 30
0.0
 10
9.780638794830565
 20
-8.364520235899741
 30
0.0
 10
9.777601051241958
 20
-8.385260502033904
 30
0.0
 10
9.773139681576896
 20
-8.40578948384949
 30
0.0
 10
9.767259631472635
 20
-8.42590361505913
 30
0.0
 10
9.761375597144679
 20
-8.446031375268249
 30
0.0
 10
9.754070959177889
 20
-8.465743722489415
 30
0.0
 10
9.745456683880938
 20
-8.484868886788982
 30
0.0
 10
9.736670877913891
 20
-8.504374878509919
 30
0.0
 10
9.726522759365922
 20
-8.523270070078082
 30
0.0
 10
9.715229952086334
 20
-8.541416051181398
 30
0.0
  0
SPLINE
  5
168
330
70
100
AcDbEntity
  8
Layer 1
 62
     7
370
     5
100
AcDbSpline
210
0.0
220
0.0
230
1.0
 70
     8
 71
     3
 72
    44
 73
    40
 74
     0
 42
0.0000000001
 43
0.0000000001
 40
0.0
 40
0.0
 40
0.0
 40
0.0
 40
1.0
 40
1.0
 40
1.0
 40
2.0
 40
2.0
 40
2.0
 40
3.0
 40
3.0
 40
3.0
 40
4.0
 40
4.0
 40
4.0
 40
5.0
 40
5.0
 40
5.0
 40
6.0
 40
6.0
 40
6.0
 40
7.0
 40
7.0
 40
7.0
 40
8.0
 40
8.0
 40
8.0
 40
9.0
 40
9.0
 40
9.0
 40
10.0
 40
10.0
 40
10.0
 40
11.0
 40
11.0
 40
11.0
 40
12.0
 40
12.0
 40
12.0
 40
13.0
 40
13.0
 40
13.0
 40
13.0
 10
12.50948366798222
 20
-4.442500465518112
 30
0.0
 10
12.45239621300637
 20
-4.454411337501861
 30
0.0
 10
12.39563638300026
 20
-4.467970834624603
 30
0.0
 10
12.33934275686991
 20
-4.483239732492872
 30
0.0
 10
12.28366568394393
 20
-4.49834139849943
 30
0.0
 10
12.22844465866711
 20
-4.515115226047226
 30
0.0
 10
12.17382793022509
 20
-4.533694408871446
 30
0.0
 10
12.12034953538634
 20
-4.551886360370454
 30
0.0
 10
12.06745051011861
 20
-4.57180919618218
 30
0.0
 10
12.01536583590587
 20
-4.59365720193552
 30
0.0
 10
11.98988385566559
 20
-4.604346151407058
 30
0.0
 10
11.96459679619084
 20
-4.615495904111551
 30
0.0
 10
11.93953789082141
 20
-4.627139363289832
 30
0.0
 10
11.91491866628823
 20
-4.638578527595933
 30
0.0
 10
11.89051965976503
 20
-4.650494225326901
 30
0.0
 10
11.86638311274287
 20
-4.662920822724509
 30
0.0
 10
11.84269952525041
 20
-4.675114215856839
 30
0.0
 10
11.81926863877816
 20
-4.687799512945717
 30
0.0
 10
11.79613367656934
 20
-4.701004543782119
 30
0.0
 10
11.77338131171051
 20
-4.713991194758691
 30
0.0
 10
11.75091516427892
 20
-4.727480531301883
 30
0.0
 10
11.72877890664323
 20
-4.741492038841
 30
0.0
 10
11.70693591717412
 20
-4.755317917481331
 30
0.0
 10
11.6854141344331
 20
-4.769652222993764
 30
0.0
 10
11.6642563563792
 20
-4.784505828985818
 30
0.0
 10
11.64330162998067
 20
-4.799216884598687
 30
0.0
 10
11.62270395507332
 20
-4.814437321044301
 30
0.0
 10
11.60250357936663
 20
-4.830168435057063
 30
0.0
 10
11.58241699565673
 20
-4.845810933149979
 30
0.0
 10
11.56272324765293
 20
-4.861958371555715
 30
0.0
 10
11.54345812904643
 20
-4.878602378164891
 30
0.0
 10
11.52422052044878
 20
-4.895222617634266
 30
0.0
 10
11.50541031798275
 20
-4.912338008150615
 30
0.0
 10
11.48705755884288
 20
-4.929930179403665
 30
0.0
 10
11.46865104958856
 20
-4.947573873221068
 30
0.0
 10
11.45070466703201
 20
-4.965697144580277
 30
0.0
 10
11.43323942234524
 20
-4.984274359588336
 30
0.0
 10
11.4156460799436
 20
-5.002987827986101
 30
0.0
 10
11.39854095904368
 20
-5.022161923293083
 30
0.0
 10
11.38194127293627
 20
-5.041757439901743
 30
0.0
  0
SPLINE
  5
169
330
70
100
AcDbEntity
  8
Layer 1
 62
     7
370
     5
100
AcDbSpline
210
0.0
220
0.0
230
1.0
 70
     8
 71
     3
 72
    44
 73
    40
 74
     0
 42
0.0000000001
 43
0.0000000001
 40
0.0
 40
0.0
 40
0.0
 40
0.0
 40
1.0
 40
1.0
 40
1.0
 40
2.0
 40
2.0
 40
2.0
 40
3.0
 40
3.0
 40
3.0
 40
4.0
 40
4.0
 40
4.0
 40
5.0
 40
5.0
 40
5.0
 40
6.0
 40
6.0
 40
6.0
 40
7.0
 40
7.0
 40
7.0
 40
8.0
 40
8.0
 40
8.0
 40
9.0
 40
9.0
 40
9.0
 40
10.0
 40
10.0
 40
10.0
 40
11.0
 40
11.0
 40
11.0
 40
12.0
 40
12.0
 40
12.0
 40
13.0
 40
13.0
 40
13.0
 40
13.0
 10
7.622982287324234
 20
-4.442500465518112
 30
0.0
 10
7.680069742300196
 20
-4.454411337501861
 30
0.0
 10
7.736829572306292
 20
-4.467970834624603
 30
0.0
 10
7.793123198436584
 20
-4.483239732492872
 30
0.0
 10
7.848800271362556
 20
-4.49834139849943
 30
0.0
 10
7.90402129663942
 20
-4.515115226047226
 30
0.0
 10
7.958638025081413
 20
-4.533694408871446
 30
0.0
 10
8.012116419920124
 20
-4.551886360370454
 30
0.0
 10
8.065015445187896
 20
-4.57180919618218
 30
0.0
 10
8.11710011940065
 20
-4.59365720193552
 30
0.0
 10
8.142582099640964
 20
-4.604346151407058
 30
0.0
 10
8.167869159115639
 20
-4.615495904111551
 30
0.0
 10
8.192928064485107
 20
-4.627139363289832
 30
0.0
 10
8.217547289018297
 20
-4.638578527595933
 30
0.0
 10
8.241946295541525
 20
-4.650494225326901
 30
0.0
 10
8.266082842563605
 20
-4.662920822724509
 30
0.0
 10
8.289766430056147
 20
-4.675114215856839
 30
0.0
 10
8.313197316528379
 20
-4.687799512945717
 30
0.0
 10
8.336332278737106
 20
-4.701004543782119
 30
0.0
 10
8.359084643595956
 20
-4.713991194758691
 30
0.0
 10
8.381550791027581
 20
-4.727480531301883
 30
0.0
 10
8.403687048663313
 20
-4.741492038841
 30
0.0
 10
8.425530038132389
 20
-4.755317917481331
 30
0.0
 10
8.447051820873424
 20
-4.769652222993764
 30
0.0
 10
8.468209598927348
 20
-4.784505828985818
 30
0.0
 10
8.489164325325885
 20
-4.799216884598687
 30
0.0
 10
8.509762000233155
 20
-4.814437321044301
 30
0.0
 10
8.529962375939817
 20
-4.830168435057063
 30
0.0
 10
8.550048959649819
 20
-4.845810933149979
 30
0.0
 10
8.569742707653606
 20
-4.861958371555715
 30
0.0
 10
8.589007826276681
 20
-4.878602378164891
 30
0.0
 10
8.608245434890994
 20
-4.895222617634266
 30
0.0
 10
8.62705563739026
 20
-4.912338008150615
 30
0.0
 10
8.645408396546788
 20
-4.929930179403665
 30
0.0
 10
8.663814905817755
 20
-4.947573873221068
 30
0.0
 10
8.681761288374293
 20
-4.965697144580277
 30
0.0
 10
8.699226533036267
 20
-4.984274359588336
 30
0.0
 10
8.716819875412953
 20
-5.002987827986101
 30
0.0
 10
8.733924996262834
 20
-5.022161923293083
 30
0.0
 10
8.750524682370244
 20
-5.041757439901743
 30
0.0
  0
SPLINE
  5
16A
330
70
100
AcDbEntity
  8
Layer 1
 62
     7
370
     5
100
AcDbSpline
210
0.0
220
0.0
230
1.0
 70
     8
 71
     3
 72
    74
 73
    70
 74
     0
 42
0.0000000001
 43
0.0000000001
 40
0.0
 40
0.0
 40
0.0
 40
0.0
 40
1.0
 40
1.0
 40
1.0
 40
2.0
 40
2.0
 40
2.0
 40
3.0
 40
3.0
 40
3.0
 40
4.0
 40
4.0
 40
4.0
 40
5.0
 40
5.0
 40
5.0
 40
6.0
 40
6.0
 40
6.0
 40
7.0
 40
7.0
 40
7.0
 40
8.0
 40
8.0
 40
8.0
 40
9.0
 40
9.0
 40
9.0
 40
10.0
 40
10.0
 40
10.0
 40
11.0
 40
11.0
 40
11.0
 40
12.0
 40
12.0
 40
12.0
 40
13.0
 40
13.0
 40
13.0
 40
14.0
 40
14.0
 40
14.0
 40
15.0
 40
15.0
 40
15.0
 40
16.0
 40
16.0
 40
16.0
 40
17.0
 40
17.0
 40
17.0
 40
18.0
 40
18.0
 40
18.0
 40
19.0
 40
19.0
 40
19.0
 40
20.0
 40
20.0
 40
20.0
 40
21.0
 40
21.0
 40
21.0
 40
22.0
 40
22.0
 40
22.0
 40
23.0
 40
23.0
 40
23.0
 40
23.0
 10
9.068400139927158
 20
-5.622421926604007
 30
0.0
 10
9.095292562237343
 20
-5.655901556530036
 30
0.0
 10
9.121145195985617
 20
-5.690230861109903
 30
0.0
 10
9.145936510121902
 20
-5.72530488561847
 30
0.0
 10
9.170768310297022
 20
-5.760436188587921
 30
0.0
 10
9.194535321603767
 20
-5.796314645837115
 30
0.0
 10
9.217230348364523
 20
-5.832860603383273
 30
0.0
 10
9.239943390930672
 20
-5.869435571904621
 30
0.0
 10
9.261582746346055
 20
-5.90667910089601
 30
0.0
 10
9.282133192736308
 20
-5.944507864792752
 30
0.0
 10
9.292408742534259
 20
-5.963422847944002
 30
0.0
 10
9.302412047769974
 20
-5.982484149122607
 30
0.0
 10
9.312141592884485
 20
-6.001684201915988
 30
0.0
 10
9.321867382463677
 20
-6.020876843625248
 30
0.0
 10
9.331319623219743
 20
-6.04020812985574
 30
0.0
 10
9.340490613865249
 20
-6.059673445191277
 30
0.0
 10
9.35881942347809
 20
-6.098576119136522
 30
0.0
 10
9.376024847831255
 20
-6.138014139790407
 30
0.0
 10
9.392039776235074
 20
-6.177929243934853
 30
0.0
 10
9.408045026403998
 20
-6.217820226350643
 30
0.0
 10
9.422861219083769
 20
-6.258187715803487
 30
0.0
 10
9.43642339712561
 20
-6.298973600638519
 30
0.0
 10
9.449984701657387
 20
-6.339756858544521
 30
0.0
 10
9.462292153082644
 20
-6.380958457938541
 30
0.0
 10
9.473281033620448
 20
-6.422509084037945
 30
0.0
 10
9.484279053673123
 20
-6.464094268031165
 30
0.0
 10
9.49395630860023
 20
-6.506029059545994
 30
0.0
 10
9.50225224306113
 20
-6.548238263754038
 30
0.0
 10
9.510565749027705
 20
-6.590536870702041
 30
0.0
 10
9.517492076818863
 20
-6.633111054033747
 30
0.0
 10
9.522976582610654
 20
-6.675863708947543
 30
0.0
 10
9.52572641040682
 20
-6.697299084039741
 30
0.0
 10
9.528113788586853
 20
-6.718779323863056
 30
0.0
 10
9.530133537856828
 20
-6.740294583989111
 30
0.0
 10
9.532158142069521
 20
-6.761861561106254
 30
0.0
 10
9.533813347882805
 20
-6.783463727087488
 30
0.0
 10
9.535093609636822
 20
-6.805087988924949
 30
0.0
 10
9.53637766354633
 20
-6.826776302168164
 30
0.0
 10
9.537284548926511
 20
-6.848486842358056
 30
0.0
 10
9.537811742499128
 20
-6.870206744800636
 30
0.0
 10
9.53834069901557
 20
-6.891999278946412
 30
0.0
 10
9.5384874200876
 20
-6.913801238064719
 30
0.0
 10
9.538231258236136
 20
-6.935598807112809
 30
0.0
 10
9.537974488373214
 20
-6.957448113642499
 30
0.0
 10
9.537312920796667
 20
-6.979293009237304
 30
0.0
 10
9.536220777516833
 20
-7.001116589610849
 30
0.0
 10
9.535127450786665
 20
-7.022963818094808
 30
0.0
 10
9.533602614700914
 20
-7.044789685137945
 30
0.0
 10
9.531619370068192
 20
-7.066574710720423
 30
0.0
 10
9.529635925947646
 20
-7.088361927585651
 30
0.0
 10
9.527193981055889
 20
-7.110108294773643
 30
0.0
 10
9.524266032430292
 20
-7.131787694706442
 30
0.0
 10
9.521339665839187
 20
-7.153455380786365
 30
0.0
 10
9.517927820569196
 20
-7.17505617195929
 30
0.0
 10
9.513999761061173
 20
-7.196570066287764
 30
0.0
 10
9.506154954211712
 20
-7.23953589846053
 30
0.0
 10
9.49625123257811
 20
-7.282155143529469
 30
0.0
 10
9.484084402985519
 20
-7.324101070485514
 30
0.0
 10
9.478000953892154
 20
-7.345074152204928
 30
0.0
 10
9.471351721429515
 20
-7.365878902497999
 30
0.0
 10
9.464113309208086
 20
-7.38647875242048
 30
0.0
 10
9.456866615577281
 20
-7.407102170465854
 30
0.0
 10
9.449029393264909
 20
-7.427520219022615
 30
0.0
 10
9.44058526764344
 20
-7.447683920139764
 30
0.0
 10
9.432117228333368
 20
-7.467904724679328
 30
0.0
 10
9.423038843357124
 20
-7.487869739119749
 30
0.0
 10
9.413339274777664
 20
-7.507531098439699
 30
0.0
 10
9.403590418149519
 20
-7.527292366330256
 30
0.0
 10
9.393214048828944
 20
-7.54674688523183
 30
0.0
 10
9.38221432705974
 20
-7.565834811731329
 30
0.0
  0
SPLINE
  5
16B
330
70
100
AcDbEntity
  8
Layer 1
 62
     7
370
     5
100
AcDbSpline
210
0.0
220
0.0
230
1.0
 70
     8
 71
     3
 72
    74
 73
    70
 74
     0
 42
0.0000000001
 43
0.0000000001
 40
0.0
 40
0.0
 40
0.0
 40
0.0
 40
1.0
 40
1.0
 40
1.0
 40
2.0
 40
2.0
 40
2.0
 40
3.0
 40
3.0
 40
3.0
 40
4.0
 40
4.0
 40
4.0
 40
5.0
 40
5.0
 40
5.0
 40
6.0
 40
6.0
 40
6.0
 40
7.0
 40
7.0
 40
7.0
 40
8.0
 40
8.0
 40
8.0
 40
9.0
 40
9.0
 40
9.0
 40
10.0
 40
10.0
 40
10.0
 40
11.0
 40
11.0
 40
11.0
 40
12.0
 40
12.0
 40
12.0
 40
13.0
 40
13.0
 40
13.0
 40
14.0
 40
14.0
 40
14.0
 40
15.0
 40
15.0
 40
15.0
 40
16.0
 40
16.0
 40
16.0
 40
17.0
 40
17.0
 40
17.0
 40
18.0
 40
18.0
 40
18.0
 40
19.0
 40
19.0
 40
19.0
 40
20.0
 40
20.0
 40
20.0
 40
21.0
 40
21.0
 40
21.0
 40
22.0
 40
22.0
 40
22.0
 40
23.0
 40
23.0
 40
23.0
 40
23.0
 10
11.06406581537931
 20
-5.622421926604007
 30
0.0
 10
11.03717339306915
 20
-5.655901556530036
 30
0.0
 10
11.01132075932091
 20
-5.690230861109903
 30
0.0
 10
10.98652944520122
 20
-5.72530488561847
 30
0.0
 10
10.96169764504269
 20
-5.760436188587921
 30
0.0
 10
10.93793063376928
 20
-5.796314645837115
 30
0.0
 10
10.91523560700522
 20
-5.832860603383273
 30
0.0
 10
10.89252256443573
 20
-5.869435571904621
 30
0.0
 10
10.87088320898043
 20
-5.90667910089601
 30
0.0
 10
10.85033276257689
 20
-5.944507864792752
 30
0.0
 10
10.84005721277224
 20
-5.963422847944002
 30
0.0
 10
10.83005390753654
 20
-5.982484149122607
 30
0.0
 10
10.82032436242202
 20
-6.001684201915988
 30
0.0
 10
10.81059857284282
 20
-6.020876843625248
 30
0.0
 10
10.80114633208676
 20
-6.04020812985574
 30
0.0
 10
10.79197534144126
 20
-6.059673445191277
 30
0.0
 10
10.77364653182837
 20
-6.098576119136522
 30
0.0
 10
10.75644110747528
 20
-6.138014139790407
 30
0.0
 10
10.74042617907139
 20
-6.177929243934853
 30
0.0
 10
10.72442092890253
 20
-6.217820226350643
 30
0.0
 10
10.70960473622277
 20
-6.258187715803487
 30
0.0
 10
10.69604255818087
 20
-6.298973600638519
 30
0.0
 10
10.68248125364909
 20
-6.339756858544521
 30
0.0
 10
10.67017380222381
 20
-6.380958457938541
 30
0.0
 10
10.65918492168609
 20
-6.422509084037945
 30
0.0
 10
10.64818690163342
 20
-6.464094268031165
 30
0.0
 10
10.6385096467063
 20
-6.506029059545994
 30
0.0
 10
10.63021371224539
 20
-6.548238263754038
 30
0.0
 10
10.62190020627877
 20
-6.590536870702041
 30
0.0
 10
10.61497387848763
 20
-6.633111054033747
 30
0.0
 10
10.60948937269587
 20
-6.675863708947543
 30
0.0
 10
10.60673954489963
 20
-6.697299084039741
 30
0.0
 10
10.60435216671962
 20
-6.718779323863056
 30
0.0
 10
10.60233241746621
 20
-6.740294583989111
 30
0.0
 10
10.60030781327014
 20
-6.761861561106254
 30
0.0
 10
10.59865260749015
 20
-6.783463727087488
 30
0.0
 10
10.59737234573625
 20
-6.805087988924949
 30
0.0
 10
10.59608829182687
 20
-6.826776302168164
 30
0.0
 10
10.5951814064134
 20
-6.848486842358056
 30
0.0
 10
10.59465421284063
 20
-6.870206744800636
 30
0.0
 10
10.59412525632412
 20
-6.891999278946412
 30
0.0
 10
10.59397853528533
 20
-6.913801238064719
 30
0.0
 10
10.59423469713694
 20
-6.935598807112809
 30
0.0
 10
10.59449146699983
 20
-6.957448113642499
 30
0.0
 10
10.59515303454319
 20
-6.979293009237304
 30
0.0
 10
10.59624517780632
 20
-7.001116589610849
 30
0.0
 10
10.59733850451982
 20
-7.022963818094808
 30
0.0
 10
10.59886334060561
 20
-7.044789685137945
 30
0.0
 10
10.60084658523831
 20
-7.066574710720423
 30
0.0
 10
10.60283002935887
 20
-7.088361927585651
 30
0.0
 10
10.60527197425062
 20
-7.110108294773643
 30
0.0
 10
10.60819992287627
 20
-7.131787694706442
 30
0.0
 10
10.61112628946728
 20
-7.153455380786365
 30
0.0
 10
10.61453813473733
 20
-7.17505617195929
 30
0.0
 10
10.61846619424535
 20
-7.196570066287764
 30
0.0
 10
10.6263110010948
 20
-7.23953589846053
 30
0.0
 10
10.63621472272838
 20
-7.282155143529469
 30
0.0
 10
10.648381552321
 20
-7.324101070485514
 30
0.0
 10
10.65446500141442
 20
-7.345074152204928
 30
0.0
 10
10.66111423387696
 20
-7.365878902497999
 30
0.0
 10
10.6683526460985
 20
-7.38647875242048
 30
0.0
 10
10.67559933972924
 20
-7.407102170465854
 30
0.0
 10
10.68343656204159
 20
-7.427520219022615
 30
0.0
 10
10.69188068766302
 20
-7.447683920139764
 30
0.0
 10
10.70034872697319
 20
-7.467904724679328
 30
0.0
 10
10.70942711194938
 20
-7.487869739119749
 30
0.0
 10
10.71912668052887
 20
-7.507531098439699
 30
0.0
 10
10.72887553715702
 20
-7.527292366330256
 30
0.0
 10
10.73925190647765
 20
-7.54674688523183
 30
0.0
 10
10.75025162824676
 20
-7.565834811731329
 30
0.0
  0
SPLINE
  5
16C
330
70
100
AcDbEntity
  8
Layer 1
 62
     7
370
     5
100
AcDbSpline
210
0.0
220
0.0
230
1.0
 70
     8
 71
     3
 72
    17
 73
    13
 74
     0
 42
0.0000000001
 43
0.0000000001
 40
0.0
 40
0.0
 40
0.0
 40
0.0
 40
1.0
 40
1.0
 40
1.0
 40
2.0
 40
2.0
 40
2.0
 40
3.0
 40
3.0
 40
3.0
 40
4.0
 40
4.0
 40
4.0
 40
4.0
 10
21.57882251351169
 20
-15.84454764254378
 30
0.0
 10
21.55749269629554
 20
-15.84430370605933
 30
0.0
 10
21.53614725105326
 20
-15.84268653667118
 30
0.0
 10
21.51502102696711
 20
-15.83959226335365
 30
0.0
 10
21.49428076082523
 20
-15.83655451974826
 30
0.0
 10
21.47375177904256
 20
-15.83209315005026
 30
0.0
 10
21.45363764784955
 20
-15.82621309994589
 30
0.0
 10
21.43350988765691
 20
-15.82032906561787
 30
0.0
 10
21.41379754043583
 20
-15.81302442768426
 30
0.0
 10
21.39467237613626
 20
-15.80441015237946
 30
0.0
 10
21.37516638441525
 20
-15.79562434640451
 30
0.0
 10
21.35627119284711
 20
-15.7854762278061
 30
0.0
 10
21.33812521174375
 20
-15.77418342062636
 30
0.0
  0
SPLINE
  5
16D
330
70
100
AcDbEntity
  8
Layer 1
 62
     7
370
     5
100
AcDbSpline
210
0.0
220
0.0
230
1.0
 70
     8
 71
     3
 72
    17
 73
    13
 74
     0
 42
0.0000000001
 43
0.0000000001
 40
0.0
 40
0.0
 40
0.0
 40
0.0
 40
1.0
 40
1.0
 40
1.0
 40
2.0
 40
2.0
 40
2.0
 40
3.0
 40
3.0
 40
3.0
 40
4.0
 40
4.0
 40
4.0
 40
4.0
 10
21.57882251351169
 20
-16.4058252497431
 30
0.0
 10
21.55749269629554
 20
-16.40606918622734
 30
0.0
 10
21.53614725105326
 20
-16.4076863556156
 30
0.0
 10
21.51502102696711
 20
-16.4107806289332
 30
0.0
 10
21.49428076082523
 20
-16.41381837253839
 30
0.0
 10
21.47375177904256
 20
-16.41827974223659
 30
0.0
 10
21.45363764784955
 20
-16.42415979234068
 30
0.0
 10
21.43350988765691
 20
-16.43004382666873
 30
0.0
 10
21.41379754043583
 20
-16.43734846460259
 30
0.0
 10
21.39467237613626
 20
-16.44596273990729
 30
0.0
 10
21.37516638441525
 20
-16.45474854588221
 30
0.0
 10
21.35627119284711
 20
-16.46489666448067
 30
0.0
 10
21.33812521174375
 20
-16.47618947166029
 30
0.0
  0
SPLINE
  5
16E
330
70
100
AcDbEntity
  8
Layer 1
 62
     7
370
     5
100
AcDbSpline
210
0.0
220
0.0
230
1.0
 70
     8
 71
     3
 72
    11
 73
     7
 74
     0
 42
0.0000000001
 43
0.0000000001
 40
0.0
 40
0.0
 40
0.0
 40
0.0
 40
1.0
 40
1.0
 40
1.0
 40
2.0
 40
2.0
 40
2.0
 40
2.0
 10
21.23543339742312
 20
-16.63520132670861
 30
0.0
 10
21.24103198129799
 20
-16.67070473324671
 30
0.0
 10
21.24884894305814
 20
-16.70589477840922
 30
0.0
 10
21.25881699974083
 20
-16.74046162942649
 30
0.0
 10
21.26886738933002
 20
-16.77531399139275
 30
0.0
 10
21.28110455528357
 20
-16.80953282193587
 30
0.0
 10
21.29532032833496
 20
-16.84286713222079
 30
0.0
  0
SPLINE
  5
16F
330
70
100
AcDbEntity
  8
Layer 1
 62
     7
370
     5
100
AcDbSpline
210
0.0
220
0.0
230
1.0
 70
     8
 71
     3
 72
    11
 73
     7
 74
     0
 42
0.0000000001
 43
0.0000000001
 40
0.0
 40
0.0
 40
0.0
 40
0.0
 40
1.0
 40
1.0
 40
1.0
 40
2.0
 40
2.0
 40
2.0
 40
2.0
 10
20.79887996521158
 20
-16.635201334294
 30
0.0
 10
20.79328138123686
 20
-16.67070473963438
 30
0.0
 10
20.78546441952784
 20
-16.70589478344815
 30
0.0
 10
20.77549636307082
 20
-16.74046163316608
 30
0.0
 10
20.76544597370455
 20
-16.77531399383636
 30
0.0
 10
20.75320880814957
 20
-16.8095328231336
 30
0.0
 10
20.73899303559723
 20
-16.84286713222079
 30
0.0
  0
SPLINE
  5
170
330
70
100
AcDbEntity
  8
Layer 1
 62
     7
370
     5
100
AcDbSpline
210
0.0
220
0.0
230
1.0
 70
     8
 71
     3
 72
   158
 73
   154
 74
     0
 42
0.0000000001
 43
0.0000000001
 40
0.0
 40
0.0
 40
0.0
 40
0.0
 40
1.0
 40
1.0
 40
1.0
 40
2.0
 40
2.0
 40
2.0
 40
3.0
 40
3.0
 40
3.0
 40
4.0
 40
4.0
 40
4.0
 40
5.0
 40
5.0
 40
5.0
 40
6.0
 40
6.0
 40
6.0
 40
7.0
 40
7.0
 40
7.0
 40
8.0
 40
8.0
 40
8.0
 40
9.0
 40
9.0
 40
9.0
 40
10.0
 40
10.0
 40
10.0
 40
11.0
 40
11.0
 40
11.0
 40
12.0
 40
12.0
 40
12.0
 40
13.0
 40
13.0
 40
13.0
 40
14.0
 40
14.0
 40
14.0
 40
15.0
 40
15.0
 40
15.0
 40
16.0
 40
16.0
 40
16.0
 40
17.0
 40
17.0
 40
17.0
 40
18.0
 40
18.0
 40
18.0
 40
19.0
 40
19.0
 40
19.0
 40
20.0
 40
20.0
 40
20.0
 40
21.0
 40
21.0
 40
21.0
 40
22.0
 40
22.0
 40
22.0
 40
23.0
 40
23.0
 40
23.0
 40
24.0
 40
24.0
 40
24.0
 40
25.0
 40
25.0
 40
25.0
 40
26.0
 40
26.0
 40
26.0
 40
27.0
 40
27.0
 40
27.0
 40
28.0
 40
28.0
 40
28.0
 40
29.0
 40
29.0
 40
29.0
 40
30.0
 40
30.0
 40
30.0
 40
31.0
 40
31.0
 40
31.0
 40
32.0
 40
32.0
 40
32.0
 40
33.0
 40
33.0
 40
33.0
 40
34.0
 40
34.0
 40
34.0
 40
35.0
 40
35.0
 40
35.0
 40
36.0
 40
36.0
 40
36.0
 40
37.0
 40
37.0
 40
37.0
 40
38.0
 40
38.0
 40
38.0
 40
39.0
 40
39.0
 40
39.0
 40
40.0
 40
40.0
 40
40.0
 40
41.0
 40
41.0
 40
41.0
 40
42.0
 40
42.0
 40
42.0
 40
43.0
 40
43.0
 40
43.0
 40
44.0
 40
44.0
 40
44.0
 40
45.0
 40
45.0
 40
45.0
 40
46.0
 40
46.0
 40
46.0
 40
47.0
 40
47.0
 40
47.0
 40
48.0
 40
48.0
 40
48.0
 40
49.0
 40
49.0
 40
49.0
 40
50.0
 40
50.0
 40
50.0
 40
51.0
 40
51.0
 40
51.0
 40
51.0
 10
21.26919047902
 20
-16.580003863472
 30
0.0
 10
21.26918352071028
 20
-16.58000439266132
 30
0.0
 10
21.26917668547192
 20
-16.58000220734938
 30
0.0
 10
21.26916983429927
 20
-16.58000038673291
 30
0.0
 10
21.26914947773798
 20
-16.57999497722249
 30
0.0
 10
21.26912898050217
 20
-16.57999278736626
 30
0.0
 10
21.2691085118246
 20
-16.57998994736416
 30
0.0
 10
21.26907449991083
 20
-16.57998522825581
 30
0.0
 10
21.2690405668493
 20
-16.57997871402777
 30
0.0
 10
21.26900661614417
 20
-16.57997259324904
 30
0.0
 10
21.26895918304462
 20
-16.57996404180668
 30
0.0
 10
21.26891171550589
 20
-16.57995625835247
 30
0.0
 10
21.26886425179193
 20
-16.5799483723533
 30
0.0
 10
21.26872899699596
 20
-16.57992590004536
 30
0.0
 10
21.26859377325928
 20
-16.57990259502334
 30
0.0
 10
21.26845853484123
 20
-16.57987952211538
 30
0.0
 10
21.26826977629831
 20
-16.57984731818611
 30
0.0
 10
21.26808098915472
 20
-16.57981556644035
 30
0.0
 10
21.26789219657593
 20
-16.57978378036086
 30
0.0
 10
21.26765016604746
 20
-16.57974303086929
 30
0.0
 10
21.26740812658623
 20
-16.57970222495062
 30
0.0
 10
21.26716607278637
 20
-16.57966153081924
 30
0.0
 10
21.26687106763789
 20
-16.5796119344971
 30
0.0
 10
21.26657604119087
 20
-16.57956250422093
 30
0.0
 10
21.26628099921928
 20
-16.57951315708838
 30
0.0
 10
21.26593329097975
 20
-16.57945500127936
 30
0.0
 10
21.26558556117872
 20
-16.57939696094604
 30
0.0
 10
21.26523781156334
 20
-16.5793390429096
 30
0.0
 10
21.26483768105444
 20
-16.57927240078455
 30
0.0
 10
21.26443752431252
 20
-16.57920592057369
 30
0.0
 10
21.26403734561909
 20
-16.57913957200933
 30
0.0
 10
21.26308099626645
 20
-16.57898101182647
 30
0.0
 10
21.26212452154603
 20
-16.57882320349841
 30
0.0
 10
21.2611679313213
 20
-16.57866609911684
 30
0.0
 10
21.26000623537253
 20
-16.57847530945676
 30
0.0
 10
21.25884436907814
 20
-16.57828555797689
 30
0.0
 10
21.25768229423897
 20
-16.57809709096467
 30
0.0
 10
21.25632072658631
 20
-16.57787626991381
 30
0.0
 10
21.25495887264158
 20
-16.57765721219264
 30
0.0
 10
21.25359673358154
 20
-16.57743994201774
 30
0.0
 10
21.25204103536223
 20
-16.57719179787869
 30
0.0
 10
21.25048496524154
 20
-16.57694598539908
 30
0.0
 10
21.24892853257453
 20
-16.57670248937979
 30
0.0
 10
21.24718446027643
 20
-16.57642963808919
 30
0.0
 10
21.24543993274754
 20
-16.57615969546021
 30
0.0
 10
21.24369497444769
 20
-16.57589257015095
 30
0.0
 10
21.24176829076646
 20
-16.57559762558147
 30
0.0
 10
21.23984108191853
 20
-16.57530611569695
 30
0.0
 10
21.23791335905705
 20
-16.57501802948869
 30
0.0
 10
21.23353948179927
 20
-16.57436438069976
 30
0.0
 10
21.22916295836606
 20
-16.57372835721847
 30
0.0
 10
21.2247838459056
 20
-16.57311067988522
 30
0.0
 10
21.2197626559252
 20
-16.57240243700153
 30
0.0
 10
21.21473806203724
 20
-16.5717183146007
 30
0.0
 10
21.20971025460335
 20
-16.57105865751888
 30
0.0
 10
21.20409973720171
 20
-16.57032254787544
 30
0.0
 10
21.19848521820548
 20
-16.56961690310951
 30
0.0
 10
21.19286700889923
 20
-16.56894195183395
 30
0.0
 10
21.18672714268139
 20
-16.5682043305901
 30
0.0
 10
21.1805828690395
 20
-16.56750336730404
 30
0.0
 10
21.17443457236082
 20
-16.56683959453567
 30
0.0
 10
21.16782695628806
 20
-16.56612623344666
 30
0.0
 10
21.16121469362974
 20
-16.56545582720635
 30
0.0
 10
21.15459822215636
 20
-16.56482985406069
 30
0.0
 10
21.1475848938327
 20
-16.56416633496163
 30
0.0
 10
21.14056683666157
 20
-16.56355273901654
 30
0.0
 10
21.13354481035122
 20
-16.5629885473132
 30
0.0
 10
21.12619006108644
 20
-16.56239762265222
 30
0.0
 10
21.11883095763341
 20
-16.56186089496969
 30
0.0
 10
21.11146820417483
 20
-16.56137966087042
 30
0.0
 10
21.10383721884614
 20
-16.5608808949711
 30
0.0
 10
21.09620231272131
 20
-16.56044173967115
 30
0.0
 10
21.08856443014441
 20
-16.56006351868111
 30
0.0
 10
21.08072365999429
 20
-16.5596752508832
 30
0.0
 10
21.07287975316292
 20
-16.55935119762696
 30
0.0
 10
21.06503357442814
 20
-16.55909055533625
 30
0.0
 10
21.04900367830525
 20
-16.55855805805489
 30
0.0
 10
21.03296429941891
 20
-16.5582902336196
 30
0.0
 10
21.01692512605321
 20
-16.55829201238849
 30
0.0
 10
21.000889663996
 20
-16.55829379074612
 30
0.0
 10
20.98485440736439
 20
-16.55856504755527
 30
0.0
 10
20.9688280333819
 20
-16.55910374328735
 30
0.0
 10
20.95335350699308
 20
-16.55962388972413
 30
0.0
 10
20.93788726206036
 20
-16.56039337434943
 30
0.0
 10
20.92243759459802
 20
-16.56140625948721
 30
0.0
 10
20.91508571417648
 20
-16.56188825111778
 30
0.0
 10
20.90773758760469
 20
-16.56242535905231
 30
0.0
 10
20.90039386743014
 20
-16.56301749500332
 30
0.0
 10
20.89338538333855
 20
-16.56358260033062
 30
0.0
 10
20.88638091252827
 20
-16.56419782435882
 30
0.0
 10
20.8793810848252
 20
-16.56486182239314
 30
0.0
 10
20.8727792104942
 20
-16.56548807089022
 30
0.0
 10
20.8661814663389
 20
-16.56615770524991
 30
0.0
 10
20.85958839507978
 20
-16.56687053391652
 30
0.0
 10
20.85345556824695
 20
-16.56753360194708
 30
0.0
 10
20.8473267846772
 20
-16.56823404421826
 30
0.0
 10
20.84120239713298
 20
-16.5689709694889
 30
0.0
 10
20.8355997670959
 20
-16.5696451135768
 30
0.0
 10
20.8300008159655
 20
-16.57034978923202
 30
0.0
 10
20.82440584147952
 20
-16.57108470264398
 30
0.0
 10
20.81939323433721
 20
-16.57174312069873
 30
0.0
 10
20.81438381908464
 20
-16.57242580936316
 30
0.0
 10
20.80937775755044
 20
-16.57313225799119
 30
0.0
 10
20.80501320408952
 20
-16.57374817786806
 30
0.0
 10
20.80065119988697
 20
-16.57438215838093
 30
0.0
 10
20.79629189117802
 20
-16.57503408883559
 30
0.0
 10
20.79437039708396
 20
-16.57532144644248
 30
0.0
 10
20.79244942668823
 20
-16.57561229148251
 30
0.0
 10
20.79052898032046
 20
-16.57590655908845
 30
0.0
 10
20.78878977533085
 20
-16.57617305530354
 30
0.0
 10
20.78705100012669
 20
-16.57644235856118
 30
0.0
 10
20.78531266432959
 20
-16.57671446780068
 30
0.0
 10
20.78376176586282
 20
-16.57695723666195
 30
0.0
 10
20.78221121715278
 20
-16.57720223901462
 30
0.0
 10
20.78066102958577
 20
-16.57744950506586
 30
0.0
 10
20.77930405777738
 20
-16.57766595181576
 30
0.0
 10
20.7779473626967
 20
-16.57788413313551
 30
0.0
 10
20.77659093321035
 20
-16.57810395234514
 30
0.0
 10
20.77543327794797
 20
-16.57829155875427
 30
0.0
 10
20.77427581614203
 20
-16.57848035818632
 30
0.0
 10
20.77311856116449
 20
-16.57867041868669
 30
0.0
 10
20.77216456220395
 20
-16.57882709765835
 30
0.0
 10
20.77121070379879
 20
-16.57898463362148
 30
0.0
 10
20.77025698946851
 20
-16.57914303202511
 30
0.0
 10
20.76985765129694
 20
-16.57920935642333
 30
0.0
 10
20.76945833838527
 20
-16.5792758320293
 30
0.0
 10
20.76905904864354
 20
-16.57934245111747
 30
0.0
 10
20.76871213577682
 20
-16.5794003314395
 30
0.0
 10
20.76836524039994
 20
-16.57945832007019
 30
0.0
 10
20.76801835882237
 20
-16.57951637703607
 30
0.0
 10
20.76772427010385
 20
-16.57956559815309
 30
0.0
 10
20.76743019130377
 20
-16.57961486838781
 30
0.0
 10
20.76713612778579
 20
-16.57966427082975
 30
0.0
 10
20.76689507432782
 20
-16.57970476762309
 30
0.0
 10
20.76665403113871
 20
-16.57974535325454
 30
0.0
 10
20.76641299200732
 20
-16.57978584830706
 30
0.0
 10
20.76622515983563
 20
-16.57981740448468
 30
0.0
 10
20.76603733012823
 20
-16.57984890565886
 30
0.0
 10
20.76584952565602
 20
-16.57988085285829
 30
0.0
 10
20.76571512036816
 20
-16.57990371638503
 30
0.0
 10
20.76558072800524
 20
-16.57992680835612
 30
0.0
 10
20.76544630288196
 20
-16.57994902793876
 30
0.0
 10
20.76539918051122
 20
-16.57995681695466
 30
0.0
 10
20.765352054115
 20
-16.57996449876842
 30
0.0
 10
20.76530496229732
 20
-16.57997297426287
 30
0.0
 10
20.76527128857376
 20
-16.57997903479466
 30
0.0
 10
20.76523763253067
 20
-16.57998550115
 30
0.0
 10
20.76520389786773
 20
-16.57999011697858
 30
0.0
 10
20.76518363066894
 20
-16.57999289008843
 30
0.0
 10
20.76516333509332
 20
-16.57999499526932
 30
0.0
 10
20.76514318146062
 20
-16.58000042407161
 30
0.0
 10
20.76513644472513
 20
-16.58000223875208
 30
0.0
 10
20.76512972384977
 20
-16.58000442479985
 30
0.0
 10
20.76512288481235
 20
-16.580003863472
 30
0.0
  0
SPLINE
  5
171
330
70
100
AcDbEntity
  8
Layer 1
 62
     7
370
     5
100
AcDbSpline
210
0.0
220
0.0
230
1.0
 70
     8
 71
     3
 72
    44
 73
    40
 74
     0
 42
0.0000000001
 43
0.0000000001
 40
0.0
 40
0.0
 40
0.0
 40
0.0
 40
1.0
 40
1.0
 40
1.0
 40
2.0
 40
2.0
 40
2.0
 40
3.0
 40
3.0
 40
3.0
 40
4.0
 40
4.0
 40
4.0
 40
5.0
 40
5.0
 40
5.0
 40
6.0
 40
6.0
 40
6.0
 40
7.0
 40
7.0
 40
7.0
 40
8.0
 40
8.0
 40
8.0
 40
9.0
 40
9.0
 40
9.0
 40
10.0
 40
10.0
 40
10.0
 40
11.0
 40
11.0
 40
11.0
 40
12.0
 40
12.0
 40
12.0
 40
13.0
 40
13.0
 40
13.0
 40
13.0
 10
25.43704079740693
 20
-18.56843713652233
 30
0.0
 10
25.42512992542341
 20
-18.51134968144662
 30
0.0
 10
25.41157042830049
 20
-18.45458985144046
 30
0.0
 10
25.39630153043236
 20
-18.39829622532716
 30
0.0
 10
25.38119986442595
 20
-18.34261915241793
 30
0.0
 10
25.36442603687801
 20
-18.28739812717445
 30
0.0
 10
25.34584685405371
 20
-18.23278139872839
 30
0.0
 10
25.32765490255484
 20
-18.1793030038858
 30
0.0
 10
25.307732066743
 20
-18.12640397857833
 30
0.0
 10
25.28588406098958
 20
-18.07431930435253
 30
0.0
 10
25.27519511151803
 20
-18.04883732410574
 30
0.0
 10
25.26404535881357
 20
-18.02355026463104
 30
0.0
 10
25.25240189963539
 20
-17.99849135927868
 30
0.0
 10
25.24096273532938
 20
-17.97387213476228
 30
0.0
 10
25.22904703759835
 20
-17.94947312827233
 30
0.0
 10
25.21662044020066
 20
-17.92533658124951
 30
0.0
 10
25.20442704706837
 20
-17.90165299375649
 30
0.0
 10
25.1917417499795
 20
-17.87822210725108
 30
0.0
 10
25.17853671914294
 20
-17.85508714504279
 30
0.0
 10
25.16555006816642
 20
-17.83233478018446
 30
0.0
 10
25.15206073162327
 20
-17.80986863278614
 30
0.0
 10
25.13804922408425
 20
-17.78773237515009
 30
0.0
 10
25.12422334544395
 20
-17.76588938568046
 30
0.0
 10
25.10988903993153
 20
-17.74436760290614
 30
0.0
 10
25.09503543393933
 20
-17.7232098248526
 30
0.0
 10
25.0803243783265
 20
-17.70225509845439
 30
0.0
 10
25.06510394188088
 20
-17.68165742358037
 30
0.0
 10
25.04937282785136
 20
-17.66145704787337
 30
0.0
 10
25.03373032974183
 20
-17.64137046416327
 30
0.0
 10
25.01758289130291
 20
-17.6216767161263
 30
0.0
 10
25.0009388846936
 20
-17.60241159750325
 30
0.0
 10
24.98431864522442
 20
-17.5831739888889
 30
0.0
 10
24.96720325474126
 20
-17.56436378642307
 30
0.0
 10
24.94961108348836
 20
-17.546011027283
 30
0.0
 10
24.93196738967105
 20
-17.52760451802879
 30
0.0
 10
24.9138441182785
 20
-17.50965813547211
 30
0.0
 10
24.89526690327858
 20
-17.49219289078544
 30
0.0
 10
24.87655343488892
 20
-17.47459954838374
 30
0.0
 10
24.85737933963216
 20
-17.45749442748398
 30
0.0
 10
24.83778382302351
 20
-17.44089474137649
 30
0.0
  0
SPLINE
  5
172
330
70
100
AcDbEntity
  8
Layer 1
 62
     7
370
     5
100
AcDbSpline
210
0.0
220
0.0
230
1.0
 70
     8
 71
     3
 72
    44
 73
    40
 74
     0
 42
0.0000000001
 43
0.0000000001
 40
0.0
 40
0.0
 40
0.0
 40
0.0
 40
1.0
 40
1.0
 40
1.0
 40
2.0
 40
2.0
 40
2.0
 40
3.0
 40
3.0
 40
3.0
 40
4.0
 40
4.0
 40
4.0
 40
5.0
 40
5.0
 40
5.0
 40
6.0
 40
6.0
 40
6.0
 40
7.0
 40
7.0
 40
7.0
 40
8.0
 40
8.0
 40
8.0
 40
9.0
 40
9.0
 40
9.0
 40
10.0
 40
10.0
 40
10.0
 40
11.0
 40
11.0
 40
11.0
 40
12.0
 40
12.0
 40
12.0
 40
13.0
 40
13.0
 40
13.0
 40
13.0
 10
25.43704079740693
 20
-13.68193575576444
 30
0.0
 10
25.42512992542341
 20
-13.73902321074027
 30
0.0
 10
25.41157042830049
 20
-13.79578304074637
 30
0.0
 10
25.39630153043236
 20
-13.8520766668768
 30
0.0
 10
25.38119986442595
 20
-13.9077537398027
 30
0.0
 10
25.36442603687801
 20
-13.9629747650795
 30
0.0
 10
25.34584685405371
 20
-14.01759149354219
 30
0.0
 10
25.32765490255484
 20
-14.07106988840094
 30
0.0
 10
25.307732066743
 20
-14.12396891370859
 30
0.0
 10
25.28588406098958
 20
-14.17605358793427
 30
0.0
 10
25.27519511151803
 20
-14.20153556818089
 30
0.0
 10
25.26404535881357
 20
-14.22682262765571
 30
0.0
 10
25.25240189963539
 20
-14.25188153300799
 30
0.0
 10
25.24096273532938
 20
-14.27650075752439
 30
0.0
 10
25.22904703759835
 20
-14.30089976401425
 30
0.0
 10
25.21662044020066
 20
-14.32503631103716
 30
0.0
 10
25.20442704706837
 20
-14.34871989853016
 30
0.0
 10
25.1917417499795
 20
-14.3721507850357
 30
0.0
 10
25.17853671914294
 20
-14.39528574724383
 30
0.0
 10
25.16555006816642
 20
-14.41803811210209
 30
0.0
 10
25.15206073162327
 20
-14.44050425950061
 30
0.0
 10
25.13804922408425
 20
-14.46264051713683
 30
0.0
 10
25.12422334544395
 20
-14.48448350660626
 30
0.0
 10
25.10988903993153
 20
-14.50600528938051
 30
0.0
 10
25.09503543393933
 20
-14.5271630674341
 30
0.0
 10
25.0803243783265
 20
-14.54811779383228
 30
0.0
 10
25.06510394188088
 20
-14.56871546870646
 30
0.0
 10
25.04937282785136
 20
-14.58891584441319
 30
0.0
 10
25.03373032974183
 20
-14.60900242812338
 30
0.0
 10
25.01758289130291
 20
-14.62869617616045
 30
0.0
 10
25.0009388846936
 20
-14.64796129478339
 30
0.0
 10
24.98431864522442
 20
-14.6671989033977
 30
0.0
 10
24.96720325474126
 20
-14.68600910586383
 30
0.0
 10
24.94961108348836
 20
-14.70436186500357
 30
0.0
 10
24.93196738967105
 20
-14.72276837425789
 30
0.0
 10
24.9138441182785
 20
-14.74071475681454
 30
0.0
 10
24.89526690327858
 20
-14.75818000150118
 30
0.0
 10
24.87655343488892
 20
-14.77577334390296
 30
0.0
 10
24.85737933963216
 20
-14.79287846480287
 30
0.0
 10
24.83778382302351
 20
-14.80947815091015
 30
0.0
  0
SPLINE
  5
173
330
70
100
AcDbEntity
  8
Layer 1
 62
     7
370
     5
100
AcDbSpline
210
0.0
220
0.0
230
1.0
 70
     8
 71
     3
 72
    74
 73
    70
 74
     0
 42
0.0000000001
 43
0.0000000001
 40
0.0
 40
0.0
 40
0.0
 40
0.0
 40
1.0
 40
1.0
 40
1.0
 40
2.0
 40
2.0
 40
2.0
 40
3.0
 40
3.0
 40
3.0
 40
4.0
 40
4.0
 40
4.0
 40
5.0
 40
5.0
 40
5.0
 40
6.0
 40
6.0
 40
6.0
 40
7.0
 40
7.0
 40
7.0
 40
8.0
 40
8.0
 40
8.0
 40
9.0
 40
9.0
 40
9.0
 40
10.0
 40
10.0
 40
10.0
 40
11.0
 40
11.0
 40
11.0
 40
12.0
 40
12.0
 40
12.0
 40
13.0
 40
13.0
 40
13.0
 40
14.0
 40
14.0
 40
14.0
 40
15.0
 40
15.0
 40
15.0
 40
16.0
 40
16.0
 40
16.0
 40
17.0
 40
17.0
 40
17.0
 40
18.0
 40
18.0
 40
18.0
 40
19.0
 40
19.0
 40
19.0
 40
20.0
 40
20.0
 40
20.0
 40
21.0
 40
21.0
 40
21.0
 40
22.0
 40
22.0
 40
22.0
 40
23.0
 40
23.0
 40
23.0
 40
23.0
 10
24.25711933632124
 20
-17.12301928381958
 30
0.0
 10
24.22363970639513
 20
-17.0961268615095
 30
0.0
 10
24.1893104018154
 20
-17.07027422776112
 30
0.0
 10
24.15423637730674
 20
-17.04548291364143
 30
0.0
 10
24.11910507433719
 20
-17.02065111348295
 30
0.0
 10
24.08322661708803
 20
-16.99688410220943
 30
0.0
 10
24.04668065954191
 20
-16.9741890754654
 30
0.0
 10
24.01010569102055
 20
-16.95147603291578
 30
0.0
 10
23.97286216202926
 20
-16.92983667750043
 30
0.0
 10
23.93503339813234
 20
-16.90928623107695
 30
0.0
 10
23.91611841498123
 20
-16.89901068126237
 30
0.0
 10
23.89705711380255
 20
-16.8890073760017
 30
0.0
 10
23.87785706100923
 20
-16.8792778308872
 30
0.0
 10
23.85866441929989
 20
-16.86955204130797
 30
0.0
 10
23.83933313306935
 20
-16.86009980057684
 30
0.0
 10
23.81986781773404
 20
-16.85092880994125
 30
0.0
 10
23.78096514378869
 20
-16.83260000034849
 30
0.0
 10
23.74152712313472
 20
-16.81539457595548
 30
0.0
 10
23.70161201899042
 20
-16.79937964753157
 30
0.0
 10
23.66172103657454
 20
-16.78337439734269
 30
0.0
 10
23.62135354712177
 20
-16.76855820466297
 30
0.0
 10
23.58056766227004
 20
-16.75499602662098
 30
0.0
 10
23.53978440434747
 20
-16.74143472208925
 30
0.0
 10
23.49858280492013
 20
-16.72912727066407
 30
0.0
 10
23.45703217882068
 20
-16.71813839014294
 30
0.0
 10
23.41544699482748
 20
-16.70714037010695
 30
0.0
 10
23.37351220334598
 20
-16.69746311521291
 30
0.0
 10
23.33130299915458
 20
-16.68916718074868
 30
0.0
 10
23.28900439222321
 20
-16.68085367477892
 30
0.0
 10
23.24643020889135
 20
-16.67392734694774
 30
0.0
 10
23.20367755397771
 20
-16.6684428411427
 30
0.0
 10
23.18224217888542
 20
-16.66569301333991
 30
0.0
 10
23.16076193906209
 20
-16.66330563515991
 30
0.0
 10
23.13924667893614
 20
-16.66128588590641
 30
0.0
 10
23.11767970181894
 20
-16.65926128171031
 30
0.0
 10
23.09607753583767
 20
-16.65760607593031
 30
0.0
 10
23.07445327400023
 20
-16.65632581417637
 30
0.0
 10
23.05276496075701
 20
-16.65504176026714
 30
0.0
 10
23.03105442056724
 20
-16.6541348748536
 30
0.0
 10
23.00933451812456
 20
-16.65360768128092
 30
0.0
 10
22.98754198397882
 20
-16.65307872476438
 30
0.0
 10
22.96574002486045
 20
-16.65293200372548
 30
0.0
 10
22.94394245581237
 20
-16.6531881655771
 30
0.0
 10
22.9220931492826
 20
-16.65344493544012
 30
0.0
 10
22.90024825368783
 20
-16.65410650298329
 30
0.0
 10
22.87842467331431
 20
-16.65519864624662
 30
0.0
 10
22.85657744483041
 20
-16.65629197296001
 30
0.0
 10
22.83475157778733
 20
-16.65781680904572
 30
0.0
 10
22.81296655220479
 20
-16.65980005367838
 30
0.0
 10
22.79117933533949
 20
-16.66178349779903
 30
0.0
 10
22.76943296815158
 20
-16.6642254426908
 30
0.0
 10
22.74775356821872
 20
-16.66715339132884
 30
0.0
 10
22.72608588213883
 20
-16.67007975793242
 30
0.0
 10
22.70448509096587
 20
-16.67349160322745
 30
0.0
 10
22.6829711966373
 20
-16.67741966275215
 30
0.0
 10
22.64000536446472
 20
-16.68526446963478
 30
0.0
 10
22.59738611939567
 20
-16.69516819126832
 30
0.0
 10
22.55544019243965
 20
-16.70733502086103
 30
0.0
 10
22.53446711072034
 20
-16.71341846995442
 30
0.0
 10
22.51366236042726
 20
-16.7200677024171
 30
0.0
 10
22.49306251048804
 20
-16.72730611462189
 30
0.0
 10
22.47243909242618
 20
-16.73455280823592
 30
0.0
 10
22.45202104383611
 20
-16.74239003051505
 30
0.0
 10
22.43185734271879
 20
-16.75083415613645
 30
0.0
 10
22.41163653817933
 20
-16.75930219544663
 30
0.0
 10
22.39167152377202
 20
-16.76838058045604
 30
0.0
 10
22.37201016446875
 20
-16.77808014902734
 30
0.0
 10
22.35224889659495
 20
-16.78782900564707
 30
0.0
 10
22.33279437769334
 20
-16.79820537491779
 30
0.0
 10
22.31370645119404
 20
-16.8092050967868
 30
0.0
  0
SPLINE
  5
174
330
70
100
AcDbEntity
  8
Layer 1
 62
     7
370
     5
100
AcDbSpline
210
0.0
220
0.0
230
1.0
 70
     8
 71
     3
 72
    74
 73
    70
 74
     0
 42
0.0000000001
 43
0.0000000001
 40
0.0
 40
0.0
 40
0.0
 40
0.0
 40
1.0
 40
1.0
 40
1.0
 40
2.0
 40
2.0
 40
2.0
 40
3.0
 40
3.0
 40
3.0
 40
4.0
 40
4.0
 40
4.0
 40
5.0
 40
5.0
 40
5.0
 40
6.0
 40
6.0
 40
6.0
 40
7.0
 40
7.0
 40
7.0
 40
8.0
 40
8.0
 40
8.0
 40
9.0
 40
9.0
 40
9.0
 40
10.0
 40
10.0
 40
10.0
 40
11.0
 40
11.0
 40
11.0
 40
12.0
 40
12.0
 40
12.0
 40
13.0
 40
13.0
 40
13.0
 40
14.0
 40
14.0
 40
14.0
 40
15.0
 40
15.0
 40
15.0
 40
16.0
 40
16.0
 40
16.0
 40
17.0
 40
17.0
 40
17.0
 40
18.0
 40
18.0
 40
18.0
 40
19.0
 40
19.0
 40
19.0
 40
20.0
 40
20.0
 40
20.0
 40
21.0
 40
21.0
 40
21.0
 40
22.0
 40
22.0
 40
22.0
 40
23.0
 40
23.0
 40
23.0
 40
23.0
 10
24.25711933632124
 20
-15.12735360836733
 30
0.0
 10
24.22363970639513
 20
-15.15424603077736
 30
0.0
 10
24.1893104018154
 20
-15.18009866452563
 30
0.0
 10
24.15423637730674
 20
-15.20488997864534
 30
0.0
 10
24.11910507433719
 20
-15.2297217788039
 30
0.0
 10
24.08322661708803
 20
-15.25348879007732
 30
0.0
 10
24.04668065954191
 20
-15.27618381682136
 30
0.0
 10
24.01010569102055
 20
-15.29889685937082
 30
0.0
 10
23.97286216202926
 20
-15.32053621478614
 30
0.0
 10
23.93503339813234
 20
-15.34108666120965
 30
0.0
 10
23.91611841498123
 20
-15.35136221102443
 30
0.0
 10
23.89705711380255
 20
-15.36136551628505
 30
0.0
 10
23.87785706100923
 20
-15.37109506139947
 30
0.0
 10
23.85866441929989
 20
-15.38082085097873
 30
0.0
 10
23.83933313306935
 20
-15.39027309170981
 30
0.0
 10
23.81986781773404
 20
-15.39944408233873
 30
0.0
 10
23.78096514378869
 20
-15.41777289191817
 30
0.0
 10
23.74152712313472
 20
-15.4349783162715
 30
0.0
 10
23.70161201899042
 20
-15.45099324467527
 30
0.0
 10
23.66172103657454
 20
-15.46699849484412
 30
0.0
 10
23.62135354712177
 20
-15.48181468752394
 30
0.0
 10
23.58056766227004
 20
-15.49537686556588
 30
0.0
 10
23.53978440434747
 20
-15.50893817009758
 30
0.0
 10
23.49858280492013
 20
-15.52124562152292
 30
0.0
 10
23.45703217882068
 20
-15.53223450206059
 30
0.0
 10
23.41544699482748
 20
-15.54323252211333
 30
0.0
 10
23.37351220334598
 20
-15.55290977704051
 30
0.0
 10
23.33130299915458
 20
-15.56120571152115
 30
0.0
 10
23.28900439222321
 20
-15.56951921750773
 30
0.0
 10
23.24643020889135
 20
-15.57644554533888
 30
0.0
 10
23.20367755397771
 20
-15.58193005114392
 30
0.0
 10
23.18224217888542
 20
-15.58467987894692
 30
0.0
 10
23.16076193906209
 20
-15.58706725712694
 30
0.0
 10
23.13924667893614
 20
-15.58908700638027
 30
0.0
 10
23.11767970181894
 20
-15.59111161057629
 30
0.0
 10
23.09607753583767
 20
-15.59276681635644
 30
0.0
 10
23.07445327400023
 20
-15.59404707811025
 30
0.0
 10
23.05276496075701
 20
-15.59533113201974
 30
0.0
 10
23.03105442056724
 20
-15.5962380174331
 30
0.0
 10
23.00933451812456
 20
-15.5967652110059
 30
0.0
 10
22.98754198397882
 20
-15.59729416752245
 30
0.0
 10
22.96574002486045
 20
-15.59744088856119
 30
0.0
 10
22.94394245581237
 20
-15.59718472669298
 30
0.0
 10
22.9220931492826
 20
-15.59692795681351
 30
0.0
 10
22.90024825368783
 20
-15.59626638923681
 30
0.0
 10
22.87842467331431
 20
-15.59517424597369
 30
0.0
 10
22.85657744483041
 20
-15.59408091925997
 30
0.0
 10
22.83475157778733
 20
-15.5925560832076
 30
0.0
 10
22.81296655220479
 20
-15.59057283857497
 30
0.0
 10
22.79117933533949
 20
-15.58858939445432
 30
0.0
 10
22.76943296815158
 20
-15.58614744952941
 30
0.0
 10
22.74775356821872
 20
-15.58321950088718
 30
0.0
 10
22.72608588213883
 20
-15.58029313427942
 30
0.0
 10
22.70448509096587
 20
-15.57688128900938
 30
0.0
 10
22.6829711966373
 20
-15.57295322950138
 30
0.0
 10
22.64000536446472
 20
-15.565108422652
 30
0.0
 10
22.59738611939567
 20
-15.55520470101833
 30
0.0
 10
22.55544019243965
 20
-15.54303787142569
 30
0.0
 10
22.53446711072034
 20
-15.53695442233238
 30
0.0
 10
22.51366236042726
 20
-15.53030518986972
 30
0.0
 10
22.49306251048804
 20
-15.52306677766483
 30
0.0
 10
22.47243909242618
 20
-15.51582008405072
 30
0.0
 10
22.45202104383611
 20
-15.50798286177152
 30
0.0
 10
22.43185734271879
 20
-15.49953873615029
 30
0.0
 10
22.41163653817933
 20
-15.4910706968403
 30
0.0
 10
22.39167152377202
 20
-15.48199231183088
 30
0.0
 10
22.37201016446875
 20
-15.47229274323457
 30
0.0
 10
22.35224889659495
 20
-15.46254388658968
 30
0.0
 10
22.33279437769334
 20
-15.45216751726917
 30
0.0
 10
22.31370645119404
 20
-15.44116779549992
 30
0.0
  0
LINE
  5
175
330
70
100
AcDbEntity
  8
Layer 1
 62
     7
370
     5
100
AcDbLine
 10
25.40598505139307
 20
-13.85951385242369
 30
0.0
 11
25.39427352057027
 21
-13.85951385242369
 31
0.0
  0
SPLINE
  5
176
330
70
100
AcDbEntity
  8
Layer 1
 62
     7
370
     5
100
AcDbSpline
210
0.0
220
0.0
230
1.0
 70
     8
 71
     3
 72
     8
 73
     4
 74
     0
 42
0.0000000001
 43
0.0000000001
 40
0.0
 40
0.0
 40
0.0
 40
0.0
 40
1.0
 40
1.0
 40
1.0
 40
1.0
 10
25.40598505134234
 20
-13.8595138524082
 30
0.0
 10
25.41722893527799
 20
-13.81492189444101
 30
0.0
 10
25.42748246490704
 20
-13.77008605091825
 30
0.0
 10
25.43673807691132
 20
-13.72503939413072
 30
0.0
  0
SPLINE
  5
177
330
70
100
AcDbEntity
  8
Layer 1
 62
     7
370
     5
100
AcDbSpline
210
0.0
220
0.0
230
1.0
 70
     8
 71
     3
 72
    32
 73
    28
 74
     0
 42
0.0000000001
 43
0.0000000001
 40
0.0
 40
0.0
 40
0.0
 40
0.0
 40
1.0
 40
1.0
 40
1.0
 40
2.0
 40
2.0
 40
2.0
 40
3.0
 40
3.0
 40
3.0
 40
4.0
 40
4.0
 40
4.0
 40
5.0
 40
5.0
 40
5.0
 40
6.0
 40
6.0
 40
6.0
 40
7.0
 40
7.0
 40
7.0
 40
8.0
 40
8.0
 40
8.0
 40
9.0
 40
9.0
 40
9.0
 40
9.0
 10
25.31278067209024
 20
-18.1413356264577
 30
0.0
 10
25.31278067209024
 20
-18.1413356264577
 30
0.0
 10
25.313152230169
 20
-18.14221212979737
 30
0.0
 10
25.31388928175135
 20
-18.14396466726435
 30
0.0
 10
25.31462633333379
 20
-18.14571720473143
 30
0.0
 10
25.31572887841985
 20
-18.14834577632597
 30
0.0
 10
25.31715730497623
 20
-18.15179580389975
 30
0.0
 10
25.31858573153272
 20
-18.15524583147369
 30
0.0
 10
25.32034003955982
 20
-18.15951731502696
 30
0.0
 10
25.32233988497968
 20
-18.16446941001999
 30
0.0
 10
25.32433973039964
 20
-18.16942150501313
 30
0.0
 10
25.32658511321256
 20
-18.17505421144604
 30
0.0
 10
25.32903932228659
 20
-18.18133436403104
 30
0.0
 10
25.33149353136269
 20
-18.18761451662173
 30
0.0
 10
25.3341565667
 20
-18.19454211536572
 30
0.0
 10
25.33706564762717
 20
-18.20229572663697
 30
0.0
 10
25.33997472855145
 20
-18.21004933790135
 30
0.0
 10
25.34312985506517
 20
-18.21862896169151
 30
0.0
 10
25.34652012610607
 20
-18.2281204738873
 30
0.0
 10
25.34991039714706
 20
-18.23761198608326
 30
0.0
 10
25.35353581271543
 20
-18.24801538668508
 30
0.0
 10
25.35743759188262
 20
-18.25960450102174
 30
0.0
 10
25.36133937105001
 20
-18.27119361535854
 30
0.0
 10
25.36551751381631
 20
-18.28396844343029
 30
0.0
 10
25.37002224160104
 20
-18.29835816423545
 30
0.0
 10
25.37452696938567
 20
-18.31274788504048
 30
0.0
 10
25.37935828218878
 20
-18.32875249857913
 30
0.0
 10
25.38429159642033
 20
-18.34594482545011
 30
0.0
  0
SPLINE
  5
178
330
70
100
AcDbEntity
  8
Layer 1
 62
     7
370
     5
100
AcDbSpline
210
0.0
220
0.0
230
1.0
 70
     8
 71
     3
 72
    38
 73
    34
 74
     0
 42
0.0000000001
 43
0.0000000001
 40
0.0
 40
0.0
 40
0.0
 40
0.0
 40
1.0
 40
1.0
 40
1.0
 40
2.0
 40
2.0
 40
2.0
 40
3.0
 40
3.0
 40
3.0
 40
4.0
 40
4.0
 40
4.0
 40
5.0
 40
5.0
 40
5.0
 40
6.0
 40
6.0
 40
6.0
 40
7.0
 40
7.0
 40
7.0
 40
8.0
 40
8.0
 40
8.0
 40
9.0
 40
9.0
 40
9.0
 40
10.0
 40
10.0
 40
10.0
 40
11.0
 40
11.0
 40
11.0
 40
11.0
 10
25.38429159642033
 20
-18.34594482545011
 30
0.0
 10
25.38868235682298
 20
-18.361246382368
 30
0.0
 10
25.39288015014177
 20
-18.37652452810628
 30
0.0
 10
25.39682621100137
 20
-18.39147102271441
 30
0.0
 10
25.40077227185826
 20
-18.40641751731217
 30
0.0
 10
25.40446660025628
 20
-18.42103236078006
 30
0.0
 10
25.40782397328796
 20
-18.43479313418396
 30
0.0
 10
25.4095026598039
 20
-18.44167352088602
 30
0.0
 10
25.4110971074782
 20
-18.44834039007201
 30
0.0
 10
25.4126122056508
 20
-18.45478325118122
 30
0.0
 10
25.41412730382553
 20
-18.46122611229965
 30
0.0
 10
25.41556305249815
 20
-18.46744496534074
 30
0.0
 10
25.41692466526944
 20
-18.47343708339245
 30
0.0
 10
25.41828627803875
 20
-18.47942920143562
 30
0.0
 10
25.41957375490673
 20
-18.48519458449022
 30
0.0
 10
25.42077471736631
 20
-18.49065010294922
 30
0.0
 10
25.42197567982574
 20
-18.49610562140792
 30
0.0
 10
25.42309012787678
 20
-18.50125127527109
 30
0.0
 10
25.42411012632543
 20
-18.50601846541227
 30
0.0
 10
25.42513012477551
 20
-18.51078565556011
 30
0.0
 10
25.42605567362294
 20
-18.51517438198516
 30
0.0
 10
25.42689794862238
 20
-18.51920914026749
 30
0.0
 10
25.4277402236205
 20
-18.52324389854425
 30
0.0
 10
25.42849922477088
 20
-18.52692468867955
 30
0.0
 10
25.4291782410747
 20
-18.53024510622266
 30
0.0
 10
25.42985725737852
 20
-18.5335655237659
 30
0.0
 10
25.43045628883593
 20
-18.5365255687171
 30
0.0
 10
25.43096829105563
 20
-18.53907115979468
 30
0.0
 10
25.43148029327517
 20
-18.54161675087223
 30
0.0
 10
25.43190526625694
 20
-18.54374788807611
 30
0.0
 10
25.43224390681879
 20
-18.54545129754044
 30
0.0
 10
25.43292118794274
 20
-18.54885811647162
 30
0.0
 10
25.43325313938645
 20
-18.55055402444236
 30
0.0
 10
25.43325313938645
 20
-18.55055402444236
 30
0.0
  0
LINE
  5
179
330
70
100
AcDbEntity
  8
Layer 1
 62
     7
370
     5
100
AcDbLine
 10
9.793254363437792
 20
-9.302683921382859
 30
0.0
 11
9.793254363437792
 21
-9.289045064129506
 31
0.0
  0
LINE
  5
17A
330
70
100
AcDbEntity
  8
Layer 1
 62
     7
370
     5
100
AcDbLine
 10
9.717221819744066
 20
-9.241661557433808
 30
0.0
 11
9.700006896432013
 21
-9.172198348992031
 31
0.0
  0
LINE
  5
17B
330
70
100
AcDbEntity
  8
Layer 1
 62
     7
370
     5
100
AcDbLine
 10
10.33921159196849
 20
-9.302683921382859
 30
0.0
 11
10.33921159196849
 21
-9.289045064129506
 31
0.0
  0
LINE
  5
17C
330
70
100
AcDbEntity
  8
Layer 1
 62
     7
370
     5
100
AcDbLine
 10
10.41524413566223
 20
-9.241661557433808
 30
0.0
 11
10.43245905887446
 21
-9.172198348992031
 31
0.0
  0
SPLINE
  5
17D
330
70
100
AcDbEntity
  8
Layer 1
 62
     7
370
     5
100
AcDbSpline
210
0.0
220
0.0
230
1.0
 70
     8
 71
     3
 72
     8
 73
     4
 74
     0
 42
0.0000000001
 43
0.0000000001
 40
0.0
 40
0.0
 40
0.0
 40
0.0
 40
1.0
 40
1.0
 40
1.0
 40
1.0
 10
9.64781313206908
 20
-19.57295498993769
 30
0.0
 10
9.808204238780275
 20
-18.72348825852312
 30
0.0
 10
9.86093049480419
 20
-17.8571979857487
 30
0.0
 10
9.80474628835898
 20
-16.99454952325734
 30
0.0
  0
SPLINE
  5
17E
330
70
100
AcDbEntity
  8
Layer 1
 62
     7
370
     5
100
AcDbSpline
210
0.0
220
0.0
230
1.0
 70
     8
 71
     3
 72
    11
 73
     7
 74
     0
 42
0.0000000001
 43
0.0000000001
 40
0.0
 40
0.0
 40
0.0
 40
0.0
 40
1.0
 40
1.0
 40
1.0
 40
2.0
 40
2.0
 40
2.0
 40
2.0
 10
9.621396435128909
 20
-19.60817897318518
 30
0.0
 10
9.5886261965137
 20
-19.62484401884378
 30
0.0
 10
9.575570358024895
 20
-19.66491923488519
 30
0.0
 10
9.592235403683515
 20
-19.6976894735003
 30
0.0
 10
9.598298645437163
 20
-19.7096122658599
 30
0.0
 10
9.607813095310941
 20
-19.71943192819124
 30
0.0
 10
9.619538563136263
 20
-19.72586848647107
 30
0.0
  0
SPLINE
  5
17F
330
70
100
AcDbEntity
  8
Layer 1
 62
     7
370
     5
100
AcDbSpline
210
0.0
220
0.0
230
1.0
 70
     8
 71
     3
 72
    11
 73
     7
 74
     0
 42
0.0000000001
 43
0.0000000001
 40
0.0
 40
0.0
 40
0.0
 40
0.0
 40
1.0
 40
1.0
 40
1.0
 40
2.0
 40
2.0
 40
2.0
 40
2.0
 10
9.775141361271126
 20
-16.86074745793826
 30
0.0
 10
9.750317141885652
 20
-16.8826024787401
 30
0.0
 10
9.747910130851904
 20
-16.9204434796091
 30
0.0
 10
9.769765151653851
 20
-16.94526769899461
 30
0.0
 10
9.773375601346275
 20
-16.94936866032776
 30
0.0
 10
9.777530297076912
 20
-16.95295622906105
 30
0.0
 10
9.782113598044121
 20
-16.95593054966949
 30
0.0
  0
SPLINE
  5
180
330
70
100
AcDbEntity
  8
Layer 1
 62
     7
370
     5
100
AcDbSpline
210
0.0
220
0.0
230
1.0
 70
     8
 71
     3
 72
     8
 73
     4
 74
     0
 42
0.0000000001
 43
0.0000000001
 40
0.0
 40
0.0
 40
0.0
 40
0.0
 40
1.0
 40
1.0
 40
1.0
 40
1.0
 10
10.32771966694748
 20
-16.99454952325734
 30
0.0
 10
10.27153546050226
 20
-17.8571979857487
 30
0.0
 10
10.3242617165262
 20
-18.72348825852312
 30
0.0
 10
10.48465282323742
 20
-19.57295498993769
 30
0.0
  0
SPLINE
  5
181
330
70
100
AcDbEntity
  8
Layer 1
 62
     7
370
     5
100
AcDbSpline
210
0.0
220
0.0
230
1.0
 70
     8
 71
     3
 72
     8
 73
     4
 74
     0
 42
0.0000000001
 43
0.0000000001
 40
0.0
 40
0.0
 40
0.0
 40
0.0
 40
1.0
 40
1.0
 40
1.0
 40
1.0
 10
9.631210666488021
 20
-19.73337644324811
 30
0.0
 10
9.889249536243267
 20
-19.92597464560988
 30
0.0
 10
10.24321641916305
 20
-19.92597464560988
 30
0.0
 10
10.50125528891835
 20
-19.73337644324811
 30
0.0
  0
SPLINE
  5
182
330
70
100
AcDbEntity
  8
Layer 1
 62
     7
370
     5
100
AcDbSpline
210
0.0
220
0.0
230
1.0
 70
     8
 71
     3
 72
    11
 73
     7
 74
     0
 42
0.0000000001
 43
0.0000000001
 40
0.0
 40
0.0
 40
0.0
 40
0.0
 40
1.0
 40
1.0
 40
1.0
 40
2.0
 40
2.0
 40
2.0
 40
2.0
 10
10.51292739217028
 20
-19.72586848647107
 30
0.0
 10
10.54515527695778
 20
-19.70817736644383
 30
0.0
 10
10.55693965317559
 20
-19.66771001742558
 30
0.0
 10
10.53924853314835
 20
-19.63548213263794
 30
0.0
 10
10.53281197486847
 20
-19.62375666481271
 30
0.0
 10
10.52299231253722
 20
-19.61424221493883
 30
0.0
 10
10.51106952017763
 20
-19.60817897318518
 30
0.0
  0
SPLINE
  5
183
330
70
100
AcDbEntity
  8
Layer 1
 62
     7
370
     5
100
AcDbSpline
210
0.0
220
0.0
230
1.0
 70
     8
 71
     3
 72
    11
 73
     7
 74
     0
 42
0.0000000001
 43
0.0000000001
 40
0.0
 40
0.0
 40
0.0
 40
0.0
 40
1.0
 40
1.0
 40
1.0
 40
2.0
 40
2.0
 40
2.0
 40
2.0
 10
10.3503523573622
 20
-16.95593054966949
 30
0.0
 10
10.37809630798169
 20
-16.93792618890944
 30
0.0
 10
10.38599180557019
 20
-16.90083985494794
 30
0.0
 10
10.36798744481009
 20
-16.87309590432844
 30
0.0
 10
10.36501312420174
 20
-16.86851260336119
 30
0.0
 10
10.36142555546844
 20
-16.86435790763067
 30
0.0
 10
10.35732459413522
 20
-16.86074745793826
 30
0.0
  0
SPLINE
  5
184
330
70
100
AcDbEntity
  8
Layer 1
 62
     7
370
     5
100
AcDbSpline
210
0.0
220
0.0
230
1.0
 70
     8
 71
     3
 72
     8
 73
     4
 74
     0
 42
0.0000000001
 43
0.0000000001
 40
0.0
 40
0.0
 40
0.0
 40
0.0
 40
1.0
 40
1.0
 40
1.0
 40
1.0
 10
9.796386384091078
 20
-9.307315438043044
 30
0.0
 10
9.969572962487466
 20
-9.376808481335361
 30
0.0
 10
10.16289299291883
 20
-9.376808481335361
 30
0.0
 10
10.33607957131519
 20
-9.307315438043044
 30
0.0
  0
SPLINE
  5
185
330
70
100
AcDbEntity
  8
Layer 1
 62
     7
370
     5
100
AcDbSpline
210
0.0
220
0.0
230
1.0
 70
     8
 71
     3
 72
     8
 73
     4
 74
     0
 42
0.0000000001
 43
0.0000000001
 40
0.0
 40
0.0
 40
0.0
 40
0.0
 40
1.0
 40
1.0
 40
1.0
 40
1.0
 10
10.33922496322026
 20
-9.289077166131328
 30
0.0
 10
10.3598947127138
 20
-9.280670638518699
 30
0.0
 10
10.38016512463514
 20
-9.271313839830087
 30
0.0
 10
10.39997139424276
 20
-9.261036683859034
 30
0.0
  0
SPLINE
  5
186
330
70
100
AcDbEntity
  8
Layer 1
 62
     7
370
     5
100
AcDbSpline
210
0.0
220
0.0
230
1.0
 70
     8
 71
     3
 72
     8
 73
     4
 74
     0
 42
0.0000000001
 43
0.0000000001
 40
0.0
 40
0.0
 40
0.0
 40
0.0
 40
1.0
 40
1.0
 40
1.0
 40
1.0
 10
9.732494561163598
 20
-9.261036683859034
 30
0.0
 10
9.752300830771218
 20
-9.271313839830087
 30
0.0
 10
9.772571242692542
 20
-9.280670638518699
 30
0.0
 10
9.793240992186015
 20
-9.289077166131328
 30
0.0
  0
SPLINE
  5
187
330
70
100
AcDbEntity
  8
Layer 1
 62
     7
370
     5
100
AcDbSpline
210
0.0
220
0.0
230
1.0
 70
     8
 71
     3
 72
    17
 73
    13
 74
     0
 42
0.0000000001
 43
0.0000000001
 40
0.0
 40
0.0
 40
0.0
 40
0.0
 40
1.0
 40
1.0
 40
1.0
 40
2.0
 40
2.0
 40
2.0
 40
3.0
 40
3.0
 40
3.0
 40
4.0
 40
4.0
 40
4.0
 40
4.0
 10
9.851784858924462
 20
-16.60818093781288
 30
0.0
 10
9.849254958302935
 20
-16.62829117341483
 30
0.0
 10
9.846025042576014
 20
-16.64832064396601
 30
0.0
 10
9.842096089228586
 20
-16.66821030983803
 30
0.0
 10
9.838172421436675
 20
-16.68807321847367
 30
0.0
 10
9.833551595566492
 20
-16.70779669833082
 30
0.0
 10
9.828247244722938
 20
-16.72733446625259
 30
0.0
 10
9.822924004331802
 20
-16.74694181094416
 30
0.0
 10
9.816912362039753
 20
-16.76636211865186
 30
0.0
 10
9.810238325392939
 20
-16.7855534070479
 30
0.0
 10
9.803508308963866
 20
-16.80490566611297
 30
0.0
 10
9.796104739654916
 20
-16.82402504786583
 30
0.0
 10
9.788069331284292
 20
-16.84286713222079
 30
0.0
  0
SPLINE
  5
188
330
70
100
AcDbEntity
  8
Layer 1
 62
     7
370
     5
100
AcDbSpline
210
0.0
220
0.0
230
1.0
 70
     8
 71
     3
 72
    17
 73
    13
 74
     0
 42
0.0000000001
 43
0.0000000001
 40
0.0
 40
0.0
 40
0.0
 40
0.0
 40
1.0
 40
1.0
 40
1.0
 40
2.0
 40
2.0
 40
2.0
 40
3.0
 40
3.0
 40
3.0
 40
4.0
 40
4.0
 40
4.0
 40
4.0
 10
10.28068106284614
 20
-16.60818067092279
 30
0.0
 10
10.2832109600741
 20
-16.6282909297802
 30
0.0
 10
10.2864408740311
 20
-16.64832042367548
 30
0.0
 10
10.29036982718136
 20
-16.66821011271385
 30
0.0
 10
10.29429349470866
 20
-16.68807304414205
 30
0.0
 10
10.29891432185888
 20
-16.70779654661929
 30
0.0
 10
10.30421867552077
 20
-16.72733433685776
 30
0.0
 10
10.30954191870206
 20
-16.74694170380442
 30
0.0
 10
10.31555356532372
 20
-16.76636203346452
 30
0.0
 10
10.32222760779861
 20
-16.78555334333229
 30
0.0
 10
10.32895763012925
 20
-16.80490562412011
 30
0.0
 10
10.33636120686832
 20
-16.82402502710546
 30
0.0
 10
10.3443966240222
 20
-16.84286713222079
 30
0.0
  0
ENDSEC
  0
SECTION
  2
OBJECTS
  0
DICTIONARY
  5
C
330
0
100
AcDbDictionary
281
     1
  3
ACAD_COLOR
350
63
  3
ACAD_DETAILVIEWSTYLE
350
6A
  3
ACAD_GROUP
350
D
  3
ACAD_LAYOUT
350
62
  3
ACAD_MATERIAL
350
10
  3
ACAD_MLEADERSTYLE
350
66
  3
ACAD_MLINESTYLE
350
5F
  3
ACAD_PLOTSETTINGS
350
61
  3
ACAD_PLOTSTYLENAME
350
E
  3
ACAD_SCALELIST
350
42
  3
ACAD_SECTIONVIEWSTYLE
350
68
  3
ACAD_TABLESTYLE
350
64
  3
ACAD_VISUALSTYLE
350
29
  3
ACDB_RECOMPOSE_DATA
350
196
  3
AcDbVariableDictionary
350
189
  0
DICTIONARY
  5
63
102
{ACAD_REACTORS
330
C
102
}
330
C
100
AcDbDictionary
281
     1
  0
DICTIONARY
  5
6A
102
{ACAD_REACTORS
330
C
102
}
330
C
100
AcDbDictionary
281
     1
  3
Imperial24
350
6B
  0
DICTIONARY
  5
D
102
{ACAD_REACTORS
330
C
102
}
330
C
100
AcDbDictionary
281
     1
  0
DICTIONARY
  5
62
102
{ACAD_REACTORS
330
C
102
}
330
C
100
AcDbDictionary
281
     1
  3
Layout1
350
6F
  3
Layout2
350
77
  3
Model
350
73
  0
DICTIONARY
  5
10
102
{ACAD_REACTORS
330
C
102
}
330
C
100
AcDbDictionary
281
     1
  3
ByBlock
350
19
  3
ByLayer
350
11
  3
Global
350
21
  0
DICTIONARY
  5
66
102
{ACAD_REACTORS
330
C
102
}
330
C
100
AcDbDictionary
281
     1
  3
Standard
350
67
  0
DICTIONARY
  5
5F
102
{ACAD_REACTORS
330
C
102
}
330
C
100
AcDbDictionary
281
     1
  3
Standard
350
60
  0
DICTIONARY
  5
61
102
{ACAD_REACTORS
330
C
102
}
330
C
100
AcDbDictionary
281
     1
  0
ACDBDICTIONARYWDFLT
  5
E
102
{ACAD_REACTORS
330
C
102
}
330
C
100
AcDbDictionary
281
     1
  3
Normal
350
F
100
AcDbDictionaryWithDefault
340
F
  0
DICTIONARY
  5
42
102
{ACAD_REACTORS
330
C
102
}
330
C
100
AcDbDictionary
281
     1
  3
A0
350
43
  3
A1
350
44
  3
A2
350
45
  3
A3
350
46
  3
A4
350
47
  3
A5
350
48
  3
A6
350
49
  3
A7
350
4A
  3
A8
350
4B
  3
A9
350
4C
  3
B0
350
4D
  3
B1
350
4E
  3
B2
350
4F
  3
B3
350
50
  3
B4
350
51
  3
B5
350
52
  3
B6
350
53
  0
DICTIONARY
  5
68
102
{ACAD_REACTORS
330
C
102
}
330
C
100
AcDbDictionary
281
     1
  3
Imperial24
350
69
  0
DICTIONARY
  5
64
102
{ACAD_REACTORS
330
C
102
}
330
C
100
AcDbDictionary
281
     1
  3
Standard
350
65
  0
DICTIONARY
  5
29
102
{ACAD_REACTORS
330
C
102
}
330
C
100
AcDbDictionary
281
     1
  3
2dWireframe
350
2F
  3
Basic
350
2E
  3
Brighten
350
35
  3
ColorChange
350
39
  3
Conceptual
350
32
  3
Dim
350
34
  3
EdgeColorOff
350
41
  3
Facepattern
350
38
  3
Flat
350
2A
  3
FlatWithEdges
350
2B
  3
Gouraud
350
2C
  3
GouraudWithEdges
350
2D
  3
Hidden
350
31
  3
JitterOff
350
3F
  3
Linepattern
350
37
  3
OverhangOff
350
40
  3
Realistic
350
33
  3
Shaded
350
3E
  3
Shaded with edges
350
3D
  3
Shades of Gray
350
3A
  3
Sketchy
350
3B
  3
Thicken
350
36
  3
Wireframe
350
30
  3
X-Ray
350
3C
  0
XRECORD
  5
196
102
{ACAD_REACTORS
330
C
102
}
330
C
100
AcDbXrecord
280
     1
 90
        1
330
65
  0
DICTIONARY
  5
189
102
{ACAD_REACTORS
330
C
102
}
330
C
100
AcDbDictionary
281
     1
  3
CANNOSCALE
350
18F
  3
CMLEADERSTYLE
350
18B
  3
CTABLESTYLE
350
18A
  3
CVIEWDETAILSTYLE
350
18C
  3
CVIEWSECTIONSTYLE
350
18D
  3
LAYEREVAL
350
191
  3
LAYERNOTIFY
350
192
  3
LIGHTINGUNITS
350
190
  3
MSLTSCALE
350
18E
  3
XCLIPFRAME
350
193
  0
ACDBDETAILVIEWSTYLE
  5
6B
102
{ACAD_XDICTIONARY
360
1D0
102
}
102
{ACAD_REACTORS
330
6A
102
}
330
6A
100
AcDbModelDocViewStyle
 70
     0
  3
Imperial24
290
     0
100
AcDbDetailViewStyle
 70
     0
 71
     0
 90
        3
 71
     1
340
55
 62
   256
 40
0.24
340
0
 62
   256
 40
0.24
300

 40
0.36
280
     3
 71
     2
340
5D
 90
       25
 62
   256
 71
     3
340
55
 62
   256
 40
0.24
 90
        1
 40
0.75
 90
        1
300
%<\AcVar ViewType \f "%tc1">% %<\AcVar ViewDetailId>%\PSCALE %<\AcVar ViewScale \f "%sn">%
 71
     4
340
5D
 90
       25
 62
   256
340
5D
 90
       25
 62
   256
280
     0
  0
LAYOUT
  5
6F
102
{ACAD_REACTORS
330
62
102
}
330
62
100
AcDbPlotSettings
  1

  2

  4

  6

 40
0.0
 41
0.0
 42
0.0
 43
0.0
 44
0.0
 45
0.0
 46
0.0
 47
0.0
 48
0.0
 49
0.0
140
0.0
141
0.0
142
1.0
143
1.0
 70
   688
 72
     0
 73
     0
 74
     5
  7

 75
    16
147
1.0
 76
     0
 77
     2
 78
   300
148
0.0
149
0.0
100
AcDbLayout
  1
Layout1
 70
     1
 71
     1
 10
0.0
 20
0.0
 11
12.0
 21
9.0
 12
0.0
 22
0.0
 32
0.0
 14
0.0
 24
0.0
 34
0.0
 15
0.0
 25
0.0
 35
0.0
146
0.0
 13
0.0
 23
0.0
 33
0.0
 16
1.0
 26
0.0
 36
0.0
 17
0.0
 27
1.0
 37
0.0
 76
     0
330
6C
  0
LAYOUT
  5
77
102
{ACAD_REACTORS
330
62
102
}
330
62
100
AcDbPlotSettings
  1

  2

  4

  6

 40
0.0
 41
0.0
 42
0.0
 43
0.0
 44
0.0
 45
0.0
 46
0.0
 47
0.0
 48
0.0
 49
0.0
140
0.0
141
0.0
142
1.0
143
1.0
 70
   688
 72
     0
 73
     0
 74
     5
  7

 75
    16
147
1.0
 76
     0
 77
     2
 78
   300
148
0.0
149
0.0
100
AcDbLayout
  1
Layout2
 70
     1
 71
     2
 10
0.0
 20
0.0
 11
12.0
 21
9.0
 12
0.0
 22
0.0
 32
0.0
 14
0.0
 24
0.0
 34
0.0
 15
0.0
 25
0.0
 35
0.0
146
0.0
 13
0.0
 23
0.0
 33
0.0
 16
1.0
 26
0.0
 36
0.0
 17
0.0
 27
1.0
 37
0.0
 76
     0
330
74
  0
LAYOUT
  5
73
102
{ACAD_REACTORS
330
62
102
}
330
62
100
AcDbPlotSettings
  1

  2

  4

  6

 40
0.0
 41
0.0
 42
0.0
 43
0.0
 44
0.0
 45
0.0
 46
0.0
 47
0.0
 48
0.0
 49
0.0
140
0.0
141
0.0
142
1.0
143
1.0
 70
  1712
 72
     0
 73
     0
 74
     0
  7

 75
     0
147
1.0
 76
     0
 77
     2
 78
   300
148
0.0
149
0.0
100
AcDbLayout
  1
Model
 70
     1
 71
     0
 10
0.0
 20
0.0
 11
12.0
 21
9.0
 12
0.0
 22
0.0
 32
0.0
 14
0.0
 24
0.0
 34
0.0
 15
0.0
 25
0.0
 35
0.0
146
0.0
 13
0.0
 23
0.0
 33
0.0
 16
1.0
 26
0.0
 36
0.0
 17
0.0
 27
1.0
 37
0.0
 76
     0
330
70
  0
MATERIAL
  5
19
102
{ACAD_XDICTIONARY
360
1A
102
}
102
{ACAD_REACTORS
330
10
102
}
330
10
100
AcDbMaterial
  1
ByBlock
 72
     0
 43
0.0208333333333333
 43
0.0
 43
0.0
 43
0.0
 43
0.0
 43
0.0208333333333333
 43
0.0
 43
0.0
 43
0.0
 43
0.0
 43
1.0
 43
0.0
 43
0.0
 43
0.0
 43
0.0
 43
1.0
 77
     0
 47
0.0208333333333333
 47
0.0
 47
0.0
 47
0.0
 47
0.0
 47
0.0208333333333333
 47
0.0
 47
0.0
 47
0.0
 47
0.0
 47
1.0
 47
0.0
 47
0.0
 47
0.0
 47
0.0
 47
1.0
171
     0
 49
0.0208333333333333
 49
0.0
 49
0.0
 49
0.0
 49
0.0
 49
0.0208333333333333
 49
0.0
 49
0.0
 49
0.0
 49
0.0
 49
1.0
 49
0.0
 49
0.0
 49
0.0
 49
0.0
 49
1.0
175
     0
142
0.0208333333333333
142
0.0
142
0.0
142
0.0
142
0.0
142
0.0208333333333333
142
0.0
142
0.0
142
0.0
142
0.0
142
1.0
142
0.0
142
0.0
142
0.0
142
0.0
142
1.0
179
     0
144
0.0208333333333333
144
0.0
144
0.0
144
0.0
144
0.0
144
0.0208333333333333
144
0.0
144
0.0
144
0.0
144
0.0
144
1.0
144
0.0
144
0.0
144
0.0
144
0.0
144
1.0
147
0.0208333333333333
147
0.0
147
0.0
147
0.0
147
0.0
147
0.0208333333333333
147
0.0
147
0.0
147
0.0
147
0.0
147
1.0
147
0.0
147
0.0
147
0.0
147
0.0
147
1.0
  0
MATERIAL
  5
11
102
{ACAD_XDICTIONARY
360
12
102
}
102
{ACAD_REACTORS
330
10
102
}
330
10
100
AcDbMaterial
  1
ByLayer
 72
     0
 43
0.0208333333333333
 43
0.0
 43
0.0
 43
0.0
 43
0.0
 43
0.0208333333333333
 43
0.0
 43
0.0
 43
0.0
 43
0.0
 43
1.0
 43
0.0
 43
0.0
 43
0.0
 43
0.0
 43
1.0
 77
     0
 47
0.0208333333333333
 47
0.0
 47
0.0
 47
0.0
 47
0.0
 47
0.0208333333333333
 47
0.0
 47
0.0
 47
0.0
 47
0.0
 47
1.0
 47
0.0
 47
0.0
 47
0.0
 47
0.0
 47
1.0
171
     0
 49
0.0208333333333333
 49
0.0
 49
0.0
 49
0.0
 49
0.0
 49
0.0208333333333333
 49
0.0
 49
0.0
 49
0.0
 49
0.0
 49
1.0
 49
0.0
 49
0.0
 49
0.0
 49
0.0
 49
1.0
175
     0
142
0.0208333333333333
142
0.0
142
0.0
142
0.0
142
0.0
142
0.0208333333333333
142
0.0
142
0.0
142
0.0
142
0.0
142
1.0
142
0.0
142
0.0
142
0.0
142
0.0
142
1.0
179
     0
144
0.0208333333333333
144
0.0
144
0.0
144
0.0
144
0.0
144
0.0208333333333333
144
0.0
144
0.0
144
0.0
144
0.0
144
1.0
144
0.0
144
0.0
144
0.0
144
0.0
144
1.0
147
0.0208333333333333
147
0.0
147
0.0
147
0.0
147
0.0
147
0.0208333333333333
147
0.0
147
0.0
147
0.0
147
0.0
147
1.0
147
0.0
147
0.0
147
0.0
147
0.0
147
1.0
  0
MATERIAL
  5
21
102
{ACAD_XDICTIONARY
360
22
102
}
102
{ACAD_REACTORS
330
10
102
}
330
10
100
AcDbMaterial
  1
Global
 72
     0
 43
0.0208333333333333
 43
0.0
 43
0.0
 43
0.0
 43
0.0
 43
0.0208333333333333
 43
0.0
 43
0.0
 43
0.0
 43
0.0
 43
1.0
 43
0.0
 43
0.0
 43
0.0
 43
0.0
 43
1.0
 77
     0
 47
0.0208333333333333
 47
0.0
 47
0.0
 47
0.0
 47
0.0
 47
0.0208333333333333
 47
0.0
 47
0.0
 47
0.0
 47
0.0
 47
1.0
 47
0.0
 47
0.0
 47
0.0
 47
0.0
 47
1.0
171
     0
 49
0.0208333333333333
 49
0.0
 49
0.0
 49
0.0
 49
0.0
 49
0.0208333333333333
 49
0.0
 49
0.0
 49
0.0
 49
0.0
 49
1.0
 49
0.0
 49
0.0
 49
0.0
 49
0.0
 49
1.0
175
     0
142
0.0208333333333333
142
0.0
142
0.0
142
0.0
142
0.0
142
0.0208333333333333
142
0.0
142
0.0
142
0.0
142
0.0
142
1.0
142
0.0
142
0.0
142
0.0
142
0.0
142
1.0
179
     0
144
0.0208333333333333
144
0.0
144
0.0
144
0.0
144
0.0
144
0.0208333333333333
144
0.0
144
0.0
144
0.0
144
0.0
144
1.0
144
0.0
144
0.0
144
0.0
144
0.0
144
1.0
147
0.0208333333333333
147
0.0
147
0.0
147
0.0
147
0.0
147
0.0208333333333333
147
0.0
147
0.0
147
0.0
147
0.0
147
1.0
147
0.0
147
0.0
147
0.0
147
0.0
147
1.0
  0
MLEADERSTYLE
  5
67
102
{ACAD_XDICTIONARY
360
1CC
102
}
102
{ACAD_REACTORS
330
66
102
}
330
66
100
AcDbMLeaderStyle
170
     2
171
     1
172
     0
 90
        2
 40
0.0
 41
0.0
173
     1
 91
-1056964608
340
5B
 92
       -2
290
     1
 42
0.09
291
     1
 43
0.36
  3
Standard
 44
0.18
300

342
55
174
     1
178
     6
175
     1
176
     0
 93
-1056964608
 45
0.18
292
     0
297
     0
 46
0.18
 94
-1056964608
 47
1.0
 49
1.0
140
1.0
293
     1
141
0.0
294
     1
177
     0
142
1.0
295
     0
296
     0
143
0.125
1001
ACAD_MLEADERVER
1070
     2
  0
MLINESTYLE
  5
60
102
{ACAD_REACTORS
330
5F
102
}
330
5F
100
AcDbMlineStyle
  2
STANDARD
 70
     0
  3

 62
   256
 51
90.0
 52
90.0
 71
     2
 49
0.5
 62
   256
  6
BYLAYER
 49
-0.5
 62
   256
  6
BYLAYER
  0
ACDBPLACEHOLDER
  5
F
102
{ACAD_REACTORS
330
E
102
}
330
E
  0
SCALE
  5
43
102
{ACAD_REACTORS
330
42
102
}
330
42
100
AcDbScale
 70
     0
300
1:1
140
1.0
141
1.0
290
     1
  0
SCALE
  5
44
102
{ACAD_REACTORS
330
42
102
}
330
42
100
AcDbScale
 70
     0
300
1/128" = 1'-0"
140
0.0078125
141
12.0
290
     0
  0
SCALE
  5
45
102
{ACAD_REACTORS
330
42
102
}
330
42
100
AcDbScale
 70
     0
300
1/64" = 1'-0"
140
0.015625
141
12.0
290
     0
  0
SCALE
  5
46
102
{ACAD_REACTORS
330
42
102
}
330
42
100
AcDbScale
 70
     0
300
1/32" = 1'-0"
140
0.03125
141
12.0
290
     0
  0
SCALE
  5
47
102
{ACAD_REACTORS
330
42
102
}
330
42
100
AcDbScale
 70
     0
300
1/16" = 1'-0"
140
0.0625
141
12.0
290
     0
  0
SCALE
  5
48
102
{ACAD_REACTORS
330
42
102
}
330
42
100
AcDbScale
 70
     0
300
3/32" = 1'-0"
140
0.09375
141
12.0
290
     0
  0
SCALE
  5
49
102
{ACAD_REACTORS
330
42
102
}
330
42
100
AcDbScale
 70
     0
300
1/8" = 1'-0"
140
0.125
141
12.0
290
     0
  0
SCALE
  5
4A
102
{ACAD_REACTORS
330
42
102
}
330
42
100
AcDbScale
 70
     0
300
3/16" = 1'-0"
140
0.1875
141
12.0
290
     0
  0
SCALE
  5
4B
102
{ACAD_REACTORS
330
42
102
}
330
42
100
AcDbScale
 70
     0
300
1/4" = 1'-0"
140
0.25
141
12.0
290
     0
  0
SCALE
  5
4C
102
{ACAD_REACTORS
330
42
102
}
330
42
100
AcDbScale
 70
     0
300
3/8" = 1'-0"
140
0.375
141
12.0
290
     0
  0
SCALE
  5
4D
102
{ACAD_REACTORS
330
42
102
}
330
42
100
AcDbScale
 70
     0
300
1/2" = 1'-0"
140
0.5
141
12.0
290
     0
  0
SCALE
  5
4E
102
{ACAD_REACTORS
330
42
102
}
330
42
100
AcDbScale
 70
     0
300
3/4" = 1'-0"
140
0.75
141
12.0
290
     0
  0
SCALE
  5
4F
102
{ACAD_REACTORS
330
42
102
}
330
42
100
AcDbScale
 70
     0
300
1" = 1'-0"
140
1.0
141
12.0
290
     0
  0
SCALE
  5
50
102
{ACAD_REACTORS
330
42
102
}
330
42
100
AcDbScale
 70
     0
300
1-1/2" = 1'-0"
140
1.5
141
12.0
290
     0
  0
SCALE
  5
51
102
{ACAD_REACTORS
330
42
102
}
330
42
100
AcDbScale
 70
     0
300
3" = 1'-0"
140
3.0
141
12.0
290
     0
  0
SCALE
  5
52
102
{ACAD_REACTORS
330
42
102
}
330
42
100
AcDbScale
 70
     0
300
6" = 1'-0"
140
6.0
141
12.0
290
     0
  0
SCALE
  5
53
102
{ACAD_REACTORS
330
42
102
}
330
42
100
AcDbScale
 70
     0
300
1'-0" = 1'-0"
140
12.0
141
12.0
290
     0
  0
ACDBSECTIONVIEWSTYLE
  5
69
102
{ACAD_XDICTIONARY
360
1CE
102
}
102
{ACAD_REACTORS
330
68
102
}
330
68
100
AcDbModelDocViewStyle
 70
     0
  3
Imperial24
290
     0
100
AcDbSectionViewStyle
 70
     0
 71
     0
 90
       78
 71
     1
340
55
 62
   256
 40
0.24
340
0
340
0
 62
   256
 40
0.24
300
I, O, Q, S, X, Z
 40
0.48
 90
        3
 40
0.18
 90
        1
 71
     2
340
5D
 90
       25
 62
   256
340
5D
 90
       50
 62
   256
 40
0.24
 40
0.0
 40
0.24
 71
     3
340
55
 62
   256
 40
0.24
 90
        1
 40
0.75
 90
        1
300
%<\AcVar ViewType \f "%tc1">% %<\AcVar ViewSectionStartId>%-%<\AcVar ViewSectionEndId>%\PSCALE %<\AcVar ViewScale \f "%sn">%
 71
     4
 62
   256
 62
   257
300
ANSI31
 40
1.0
 90
        0
290
     0
290
     0
 90
        6
 40
0.0
 40
1.570796326794896
 40
0.2617993877991494
 40
1.308996938995747
 40
-0.2617993877991494
 40
1.832595714594046
  0
TABLESTYLE
  5
65
102
{ACAD_XDICTIONARY
360
194
102
}
102
{ACAD_REACTORS
330
64
102
}
330
64
100
AcDbTableStyle
  3
Standard
 70
     0
 71
     0
 40
0.06
 41
0.06
280
     0
281
     0
  7
Standard
140
0.18
170
     2
 62
     0
 63
     7
283
     0
274
    -2
284
     1
 64
     0
275
    -2
285
     1
 65
     0
276
    -2
286
     1
 66
     0
277
    -2
287
     1
 67
     0
278
    -2
288
     1
 68
     0
279
    -2
289
     1
 69
     0
  7
Standard
140
0.25
170
     5
 62
     0
 63
     7
283
     0
274
    -2
284
     1
 64
     0
275
    -2
285
     1
 65
     0
276
    -2
286
     1
 66
     0
277
    -2
287
     1
 67
     0
278
    -2
288
     1
 68
     0
279
    -2
289
     1
 69
     0
  7
Standard
140
0.18
170
     5
 62
     0
 63
     7
283
     0
274
    -2
284
     1
 64
     0
275
    -2
285
     1
 65
     0
276
    -2
286
     1
 66
     0
277
    -2
287
     1
 67
     0
278
    -2
288
     1
 68
     0
279
    -2
289
     1
 69
     0
  0
VISUALSTYLE
  5
2F
102
{ACAD_XDICTIONARY
360
1A4
102
}
102
{ACAD_REACTORS
330
29
102
}
330
29
100
AcDbVisualStyle
  2
2dWireframe
 70
     4
 71
     0
 72
     2
 73
     0
 90
        0
 40
-0.6
 41
-30.0
 62
     5
 63
     7
421
 16777215
 74
     1
 91
        4
 64
     7
 65
   257
 75
     1
175
     1
 42
1.0
 92
        0
 66
   257
 43
1.0
 76
     1
 77
     6
 78
     2
 67
     7
 79
     5
170
     0
171
     0
290
     0
174
     0
 93
        1
 44
0.0
173
     0
291
     0
 45
0.0
1001
ACAD
1000
AcDbSavedByObjectVersion
1070
     0
  0
VISUALSTYLE
  5
2E
102
{ACAD_XDICTIONARY
360
1A2
102
}
102
{ACAD_REACTORS
330
29
102
}
330
29
100
AcDbVisualStyle
  2
Basic
 70
     7
 71
     1
 72
     0
 73
     1
 90
        0
 40
-0.6
 41
-30.0
 62
     5
 63
     7
421
 16777215
 74
     0
 91
        4
 64
     7
 65
   257
 75
     1
175
     1
 42
1.0
 92
        8
 66
     7
 43
1.0
 76
     1
 77
     6
 78
     2
 67
     7
 79
     5
170
     0
171
     0
290
     0
174
     0
 93
        1
 44
0.0
173
     0
291
     1
 45
0.0
1001
ACAD
1000
AcDbSavedByObjectVersion
1070
     0
  0
VISUALSTYLE
  5
35
102
{ACAD_XDICTIONARY
360
1B0
102
}
102
{ACAD_REACTORS
330
29
102
}
330
29
100
AcDbVisualStyle
  2
Brighten
 70
    12
 71
     2
 72
     2
 73
     0
 90
        0
 40
-0.6
 41
-30.0
 62
     5
 63
     7
421
 16777215
 74
     1
 91
        4
 64
     7
 65
   257
 75
     1
175
     1
 42
1.0
 92
        8
 66
     7
 43
1.0
 76
     1
 77
     6
 78
     2
 67
     7
 79
     5
170
     0
171
     0
290
     0
174
     0
 93
        1
 44
50.0
173
     0
291
     1
 45
0.0
1001
ACAD
1000
AcDbSavedByObjectVersion
1070
     0
  0
VISUALSTYLE
  5
39
102
{ACAD_XDICTIONARY
360
1B8
102
}
102
{ACAD_REACTORS
330
29
102
}
330
29
100
AcDbVisualStyle
  2
ColorChange
 70
    16
 71
     2
 72
     2
 73
     3
 90
        0
 40
-0.6
 41
-30.0
 62
     5
 63
     8
421
  8421504
 74
     1
 91
        4
 64
     7
 65
   257
 75
     1
175
     1
 42
1.0
 92
        8
 66
     8
424
  8421504
 43
1.0
 76
     1
 77
     6
 78
     2
 67
     7
 79
     5
170
     0
171
     0
290
     0
174
     0
 93
        1
 44
0.0
173
     0
291
     1
 45
0.0
1001
ACAD
1000
AcDbSavedByObjectVersion
1070
     0
  0
VISUALSTYLE
  5
32
102
{ACAD_XDICTIONARY
360
1AA
102
}
102
{ACAD_REACTORS
330
29
102
}
330
29
100
AcDbVisualStyle
  2
Conceptual
 70
     9
 71
     3
 72
     2
 73
     0
 90
        0
 40
-0.6
 41
-30.0
 62
     5
 63
     7
421
 16777215
 74
     2
 91
        2
 64
     7
 65
   257
 75
     1
175
     1
 42
179.0
 92
        8
 66
     7
 43
1.0
 76
     1
 77
     6
 78
     2
 67
     7
 79
     3
170
     0
171
     0
290
     0
174
     0
 93
        1
 44
0.0
173
     0
291
     0
 45
0.0
1001
ACAD
1000
AcDbSavedByObjectVersion
1070
     0
  0
VISUALSTYLE
  5
34
102
{ACAD_XDICTIONARY
360
1AE
102
}
102
{ACAD_REACTORS
330
29
102
}
330
29
100
AcDbVisualStyle
  2
Dim
 70
    11
 71
     2
 72
     2
 73
     0
 90
        0
 40
-0.6
 41
-30.0
 62
     5
 63
     7
421
 16777215
 74
     1
 91
        4
 64
     7
 65
   257
 75
     1
175
     1
 42
1.0
 92
        8
 66
     7
 43
1.0
 76
     1
 77
     6
 78
     2
 67
     7
 79
     5
170
     0
171
     0
290
     0
174
     0
 93
        1
 44
-50.0
173
     0
291
     1
 45
0.0
1001
ACAD
1000
AcDbSavedByObjectVersion
1070
     0
  0
VISUALSTYLE
  5
41
102
{ACAD_XDICTIONARY
360
1C8
102
}
102
{ACAD_REACTORS
330
29
102
}
330
29
100
AcDbVisualStyle
  2
EdgeColorOff
 70
    22
 71
     2
 72
     2
 73
     0
 90
        0
 40
-0.6
 41
-30.0
 62
     5
 63
     7
421
 16777215
 74
     1
 91
        4
 64
     7
 65
   257
 75
     1
175
     1
 42
1.0
 92
        8
 66
     7
 43
1.0
 76
     1
 77
     6
 78
     2
 67
     7
 79
     5
170
     0
171
     0
290
     0
174
     0
 93
        1
 44
0.0
173
     0
291
     1
 45
0.0
1001
ACAD
1000
AcDbSavedByObjectVersion
1070
     0
  0
VISUALSTYLE
  5
38
102
{ACAD_XDICTIONARY
360
1B6
102
}
102
{ACAD_REACTORS
330
29
102
}
330
29
100
AcDbVisualStyle
  2
Facepattern
 70
    15
 71
     2
 72
     2
 73
     0
 90
        0
 40
-0.6
 41
-30.0
 62
     5
 63
     7
421
 16777215
 74
     1
 91
        4
 64
     7
 65
   257
 75
     1
175
     1
 42
1.0
 92
        8
 66
     7
 43
1.0
 76
     1
 77
     6
 78
     2
 67
     7
 79
     5
170
     0
171
     0
290
     0
174
     0
 93
        1
 44
0.0
173
     0
291
     1
 45
0.0
1001
ACAD
1000
AcDbSavedByObjectVersion
1070
     0
  0
VISUALSTYLE
  5
2A
102
{ACAD_XDICTIONARY
360
19A
102
}
102
{ACAD_REACTORS
330
29
102
}
330
29
100
AcDbVisualStyle
  2
Flat
 70
     0
 71
     2
 72
     1
 73
     1
 90
        2
 40
-0.6
 41
30.0
 62
     5
 63
     7
421
 16777215
 74
     0
 91
        0
 64
     7
 65
   257
 75
     1
175
     1
 42
1.0
 92
        8
 66
     7
 43
1.0
 76
     1
 77
     6
 78
     2
 67
     7
 79
     5
170
     0
171
     0
290
     0
174
     0
 93
       13
 44
0.0
173
     0
291
     1
 45
0.0
1001
ACAD
1000
AcDbSavedByObjectVersion
1070
     0
  0
VISUALSTYLE
  5
2B
102
{ACAD_XDICTIONARY
360
19C
102
}
102
{ACAD_REACTORS
330
29
102
}
330
29
100
AcDbVisualStyle
  2
FlatWithEdges
 70
     1
 71
     2
 72
     1
 73
     1
 90
        2
 40
-0.6
 41
30.0
 62
     5
 63
     7
421
 16777215
 74
     1
 91
        0
 64
     7
 65
   257
 75
     1
175
     1
 42
1.0
 92
        0
 66
   257
 43
1.0
 76
     1
 77
     6
 78
     2
 67
     7
 79
     5
170
     0
171
     0
290
     0
174
     0
 93
       13
 44
0.0
173
     0
291
     1
 45
0.0
1001
ACAD
1000
AcDbSavedByObjectVersion
1070
     0
  0
VISUALSTYLE
  5
2C
102
{ACAD_XDICTIONARY
360
19E
102
}
102
{ACAD_REACTORS
330
29
102
}
330
29
100
AcDbVisualStyle
  2
Gouraud
 70
     2
 71
     2
 72
     2
 73
     1
 90
        2
 40
-0.6
 41
30.0
 62
     5
 63
     7
421
 16777215
 74
     0
 91
        0
 64
     7
 65
   257
 75
     1
175
     1
 42
1.0
 92
        0
 66
     7
 43
1.0
 76
     1
 77
     6
 78
     2
 67
     7
 79
     5
170
     0
171
     0
290
     0
174
     0
 93
       13
 44
0.0
173
     0
291
     1
 45
0.0
1001
ACAD
1000
AcDbSavedByObjectVersion
1070
     0
  0
VISUALSTYLE
  5
2D
102
{ACAD_XDICTIONARY
360
1A0
102
}
102
{ACAD_REACTORS
330
29
102
}
330
29
100
AcDbVisualStyle
  2
GouraudWithEdges
 70
     3
 71
     2
 72
     2
 73
     1
 90
        2
 40
-0.6
 41
30.0
 62
     5
 63
     7
421
 16777215
 74
     1
 91
        0
 64
     7
 65
   257
 75
     1
175
     1
 42
1.0
 92
        0
 66
   257
 43
1.0
 76
     1
 77
     6
 78
     2
 67
     7
 79
     5
170
     0
171
     0
290
     0
174
     0
 93
       13
 44
0.0
173
     0
291
     1
 45
0.0
1001
ACAD
1000
AcDbSavedByObjectVersion
1070
     0
  0
VISUALSTYLE
  5
31
102
{ACAD_XDICTIONARY
360
1A8
102
}
102
{ACAD_REACTORS
330
29
102
}
330
29
100
AcDbVisualStyle
  2
Hidden
 70
     6
 71
     1
 72
     2
 73
     2
 90
        0
 40
-0.6
 41
-30.0
 62
     5
 63
     7
421
 16777215
 74
     2
 91
        2
 64
     7
 65
   257
 75
     2
175
     1
 42
40.0
 92
        0
 66
   257
 43
1.0
 76
     1
 77
     6
 78
     2
 67
     7
 79
     3
170
     0
171
     0
290
     0
174
     0
 93
        1
 44
0.0
173
     0
291
     0
 45
0.0
1001
ACAD
1000
AcDbSavedByObjectVersion
1070
     0
  0
VISUALSTYLE
  5
3F
102
{ACAD_XDICTIONARY
360
1C4
102
}
102
{ACAD_REACTORS
330
29
102
}
330
29
100
AcDbVisualStyle
  2
JitterOff
 70
    20
 71
     2
 72
     2
 73
     0
 90
        0
 40
-0.6
 41
-30.0
 62
     5
 63
     7
421
 16777215
 74
     1
 91
        4
 64
     7
 65
   257
 75
     1
175
     1
 42
1.0
 92
       10
 66
     7
 43
1.0
 76
     1
 77
     6
 78
     2
 67
     7
 79
     5
170
     0
171
     0
290
     0
174
     0
 93
        1
 44
0.0
173
     0
291
     1
 45
0.0
1001
ACAD
1000
AcDbSavedByObjectVersion
1070
     0
  0
VISUALSTYLE
  5
37
102
{ACAD_XDICTIONARY
360
1B4
102
}
102
{ACAD_REACTORS
330
29
102
}
330
29
100
AcDbVisualStyle
  2
Linepattern
 70
    14
 71
     2
 72
     2
 73
     0
 90
        0
 40
-0.6
 41
-30.0
 62
     5
 63
     7
421
 16777215
 74
     1
 91
        4
 64
     7
 65
   257
 75
     7
175
     7
 42
1.0
 92
        8
 66
     7
 43
1.0
 76
     1
 77
     6
 78
     2
 67
     7
 79
     5
170
     0
171
     0
290
     0
174
     0
 93
        1
 44
0.0
173
     0
291
     1
 45
0.0
1001
ACAD
1000
AcDbSavedByObjectVersion
1070
     0
  0
VISUALSTYLE
  5
40
102
{ACAD_XDICTIONARY
360
1C6
102
}
102
{ACAD_REACTORS
330
29
102
}
330
29
100
AcDbVisualStyle
  2
OverhangOff
 70
    21
 71
     2
 72
     2
 73
     0
 90
        0
 40
-0.6
 41
-30.0
 62
     5
 63
     7
421
 16777215
 74
     1
 91
        4
 64
     7
 65
   257
 75
     1
175
     1
 42
1.0
 92
        9
 66
     7
 43
1.0
 76
     1
 77
     6
 78
     2
 67
     7
 79
     5
170
     0
171
     0
290
     0
174
     0
 93
        1
 44
0.0
173
     0
291
     1
 45
0.0
1001
ACAD
1000
AcDbSavedByObjectVersion
1070
     0
  0
VISUALSTYLE
  5
33
102
{ACAD_XDICTIONARY
360
1AC
102
}
102
{ACAD_REACTORS
330
29
102
}
330
29
100
AcDbVisualStyle
  2
Realistic
 70
     8
 71
     2
 72
     3
 73
     0
 90
        2
 40
-0.6
 41
30.0
 62
     5
 63
     7
421
 16777215
 74
     0
 91
        0
 64
     7
 65
   257
 75
     1
175
     1
 42
1.0
 92
        8
 66
   257
 43
1.0
 76
     1
 77
     6
 78
     2
 67
     7
 79
     3
170
     0
171
     0
290
     0
174
     0
 93
       13
 44
0.0
173
     0
291
     0
 45
0.0
1001
ACAD
1000
AcDbSavedByObjectVersion
1070
     0
  0
VISUALSTYLE
  5
3E
102
{ACAD_XDICTIONARY
360
1C2
102
}
102
{ACAD_REACTORS
330
29
102
}
330
29
100
AcDbVisualStyle
  2
Shaded
 70
    27
 71
     2
 72
     2
 73
     1
 90
        2
 40
-0.6
 41
30.0
 62
     5
 63
     7
421
 16777215
 74
     0
 91
        4
 64
     7
 65
   257
 75
     1
175
     1
 42
1.0
 92
        8
 66
   257
 43
1.0
 76
     1
 77
     6
 78
     2
 67
     8
425
  7895160
 79
     3
170
     0
171
     0
290
     0
174
     0
 93
        5
 44
0.0
173
     0
291
     0
 45
0.0
1001
ACAD
1000
AcDbSavedByObjectVersion
1070
     0
  0
VISUALSTYLE
  5
3D
102
{ACAD_XDICTIONARY
360
1C0
102
}
102
{ACAD_REACTORS
330
29
102
}
330
29
100
AcDbVisualStyle
  2
Shaded with edges
 70
    26
 71
     2
 72
     2
 73
     1
 90
        2
 40
-0.6
 41
30.0
 62
     5
 63
     7
421
 16777215
 74
     1
 91
        2
 64
     7
 65
   257
 75
     2
175
     1
 42
1.0
 92
        8
 66
   257
 43
1.0
 76
     1
 77
     6
 78
     2
 67
     7
 79
     3
170
     0
171
     0
290
     0
174
     0
 93
        5
 44
0.0
173
     0
291
     0
 45
0.0
1001
ACAD
1000
AcDbSavedByObjectVersion
1070
     0
  0
VISUALSTYLE
  5
3A
102
{ACAD_XDICTIONARY
360
1BA
102
}
102
{ACAD_REACTORS
330
29
102
}
330
29
100
AcDbVisualStyle
  2
Shades of Gray
 70
    23
 71
     2
 72
     2
 73
     3
 90
        0
 40
-0.6
 41
-30.0
 62
     5
 63
     7
421
 16777215
 74
     2
 91
        2
 64
     7
 65
     7
 75
     1
175
     1
 42
40.0
 92
        8
 66
     7
 43
1.0
 76
     1
 77
     6
 78
     2
 67
     7
 79
     3
170
     0
171
     0
290
     0
174
     0
 93
        1
 44
0.0
173
     0
291
     0
 45
0.0
1001
ACAD
1000
AcDbSavedByObjectVersion
1070
     0
  0
VISUALSTYLE
  5
3B
102
{ACAD_XDICTIONARY
360
1BC
102
}
102
{ACAD_REACTORS
330
29
102
}
330
29
100
AcDbVisualStyle
  2
Sketchy
 70
    24
 71
     1
 72
     2
 73
     2
 90
        0
 40
-0.6
 41
-30.0
 62
     5
 63
     7
421
 16777215
 74
     2
 91
        2
 64
     7
 65
     7
 75
     1
175
     1
 42
40.0
 92
       11
 66
     7
 43
1.0
 76
     1
 77
     6
 78
     2
 67
     7
 79
     6
170
     0
171
     0
290
     0
174
     0
 93
        1
 44
0.0
173
     0
291
     0
 45
0.0
1001
ACAD
1000
AcDbSavedByObjectVersion
1070
     0
  0
VISUALSTYLE
  5
36
102
{ACAD_XDICTIONARY
360
1B2
102
}
102
{ACAD_REACTORS
330
29
102
}
330
29
100
AcDbVisualStyle
  2
Thicken
 70
    13
 71
     2
 72
     2
 73
     0
 90
        0
 40
-0.6
 41
-30.0
 62
     5
 63
     7
421
 16777215
 74
     1
 91
        4
 64
     7
 65
   257
 75
     1
175
     1
 42
1.0
 92
       12
 66
     7
 43
1.0
 76
     1
 77
     6
 78
     2
 67
     7
 79
     5
170
     0
171
     0
290
     0
174
     0
 93
        1
 44
0.0
173
     0
291
     1
 45
0.0
1001
ACAD
1000
AcDbSavedByObjectVersion
1070
     0
  0
VISUALSTYLE
  5
30
102
{ACAD_XDICTIONARY
360
1A6
102
}
102
{ACAD_REACTORS
330
29
102
}
330
29
100
AcDbVisualStyle
  2
Wireframe
 70
     5
 71
     0
 72
     2
 73
     0
 90
        0
 40
-0.6
 41
-30.0
 62
     5
 63
     7
421
 16777215
 74
     1
 91
        4
 64
     7
 65
   257
 75
     1
175
     1
 42
1.0
 92
        0
 66
   257
 43
1.0
 76
     1
 77
     6
 78
     2
 67
     7
 79
     3
170
     0
171
     0
290
     0
174
     0
 93
        1
 44
0.0
173
     0
291
     0
 45
0.0
1001
ACAD
1000
AcDbSavedByObjectVersion
1070
     0
  0
VISUALSTYLE
  5
3C
102
{ACAD_XDICTIONARY
360
1BE
102
}
102
{ACAD_REACTORS
330
29
102
}
330
29
100
AcDbVisualStyle
  2
X-Ray
 70
    25
 71
     2
 72
     2
 73
     1
 90
        1
 40
0.5
 41
-30.0
 62
     5
 63
     7
421
 16777215
 74
     1
 91
        0
 64
     7
 65
   257
 75
     1
175
     1
 42
1.0
 92
        8
 66
     7
 43
1.0
 76
     1
 77
     6
 78
     2
 67
     7
 79
     3
170
     0
171
     0
290
     0
174
     0
 93
       13
 44
0.0
173
     0
291
     0
 45
0.0
1001
ACAD
1000
AcDbSavedByObjectVersion
1070
     0
  0
DICTIONARYVAR
  5
18F
102
{ACAD_REACTORS
330
189
102
}
330
189
100
DictionaryVariables
280
     0
  1
1:1
  0
DICTIONARYVAR
  5
18B
102
{ACAD_REACTORS
330
189
102
}
330
189
100
DictionaryVariables
280
     0
  1
STANDARD
  0
DICTIONARYVAR
  5
18A
102
{ACAD_REACTORS
330
189
102
}
330
189
100
DictionaryVariables
280
     0
  1
STANDARD
  0
DICTIONARYVAR
  5
18C
102
{ACAD_REACTORS
330
189
102
}
330
189
100
DictionaryVariables
280
     0
  1
Imperial24
  0
DICTIONARYVAR
  5
18D
102
{ACAD_REACTORS
330
189
102
}
330
189
100
DictionaryVariables
280
     0
  1
Imperial24
  0
DICTIONARYVAR
  5
191
102
{ACAD_REACTORS
330
189
102
}
330
189
100
DictionaryVariables
280
     0
  1
0
  0
DICTIONARYVAR
  5
192
102
{ACAD_REACTORS
330
189
102
}
330
189
100
DictionaryVariables
280
     0
  1
0
  0
DICTIONARYVAR
  5
190
102
{ACAD_REACTORS
330
189
102
}
330
189
100
DictionaryVariables
280
     0
  1
2
  0
DICTIONARYVAR
  5
18E
102
{ACAD_REACTORS
330
189
102
}
330
189
100
DictionaryVariables
280
     0
  1
1
  0
DICTIONARYVAR
  5
193
102
{ACAD_REACTORS
330
189
102
}
330
189
100
DictionaryVariables
280
     0
  1
2
  0
DICTIONARY
  5
1D0
330
6B
100
AcDbDictionary
280
     1
281
     1
  3
ACAD_XREC_ROUNDTRIP
360
1D1
  0
DICTIONARY
  5
1A
330
19
100
AcDbDictionary
280
     1
281
     1
  3
ACAD_XREC_ROUNDTRIP
360
198
  3
BUMPTILE
360
1C
  3
DIFFUSETILE
360
1B
  3
OPACITYTILE
360
1F
  3
REFLECTIONTILE
360
1E
  3
REFRACTIONTILE
360
20
  3
SPECULARTILE
360
1D
  0
DICTIONARY
  5
12
330
11
100
AcDbDictionary
280
     1
281
     1
  3
ACAD_XREC_ROUNDTRIP
360
197
  3
BUMPTILE
360
14
  3
DIFFUSETILE
360
13
  3
OPACITYTILE
360
17
  3
REFLECTIONTILE
360
16
  3
REFRACTIONTILE
360
18
  3
SPECULARTILE
360
15
  0
DICTIONARY
  5
22
330
21
100
AcDbDictionary
280
     1
281
     1
  3
ACAD_XREC_ROUNDTRIP
360
199
  3
BUMPTILE
360
24
  3
DIFFUSETILE
360
23
  3
OPACITYTILE
360
27
  3
REFLECTIONTILE
360
26
  3
REFRACTIONTILE
360
28
  3
SPECULARTILE
360
25
  0
DICTIONARY
  5
1CC
330
67
100
AcDbDictionary
280
     1
281
     1
  3
ACAD_XREC_ROUNDTRIP
360
1CD
  0
DICTIONARY
  5
1CE
330
69
100
AcDbDictionary
280
     1
281
     1
  3
ACAD_XREC_ROUNDTRIP
360
1CF
  0
DICTIONARY
  5
194
330
65
100
AcDbDictionary
280
     1
281
     1
  3
ACAD_ROUNDTRIP_2008_TABLESTYLE_CELLSTYLEMAP
360
195
  3
ACAD_XREC_ROUNDTRIP
360
1CA
  0
DICTIONARY
  5
1A4
330
2F
100
AcDbDictionary
280
     1
281
     1
  3
ACAD_XREC_ROUNDTRIP
360
1A5
  0
DICTIONARY
  5
1A2
330
2E
100
AcDbDictionary
280
     1
281
     1
  3
ACAD_XREC_ROUNDTRIP
360
1A3
  0
DICTIONARY
  5
1B0
330
35
100
AcDbDictionary
280
     1
281
     1
  3
ACAD_XREC_ROUNDTRIP
360
1B1
  0
DICTIONARY
  5
1B8
330
39
100
AcDbDictionary
280
     1
281
     1
  3
ACAD_XREC_ROUNDTRIP
360
1B9
  0
DICTIONARY
  5
1AA
330
32
100
AcDbDictionary
280
     1
281
     1
  3
ACAD_XREC_ROUNDTRIP
360
1AB
  0
DICTIONARY
  5
1AE
330
34
100
AcDbDictionary
280
     1
281
     1
  3
ACAD_XREC_ROUNDTRIP
360
1AF
  0
DICTIONARY
  5
1C8
330
41
100
AcDbDictionary
280
     1
281
     1
  3
ACAD_XREC_ROUNDTRIP
360
1C9
  0
DICTIONARY
  5
1B6
330
38
100
AcDbDictionary
280
     1
281
     1
  3
ACAD_XREC_ROUNDTRIP
360
1B7
  0
DICTIONARY
  5
19A
330
2A
100
AcDbDictionary
280
     1
281
     1
  3
ACAD_XREC_ROUNDTRIP
360
19B
  0
DICTIONARY
  5
19C
330
2B
100
AcDbDictionary
280
     1
281
     1
  3
ACAD_XREC_ROUNDTRIP
360
19D
  0
DICTIONARY
  5
19E
330
2C
100
AcDbDictionary
280
     1
281
     1
  3
ACAD_XREC_ROUNDTRIP
360
19F
  0
DICTIONARY
  5
1A0
330
2D
100
AcDbDictionary
280
     1
281
     1
  3
ACAD_XREC_ROUNDTRIP
360
1A1
  0
DICTIONARY
  5
1A8
330
31
100
AcDbDictionary
280
     1
281
     1
  3
ACAD_XREC_ROUNDTRIP
360
1A9
  0
DICTIONARY
  5
1C4
330
3F
100
AcDbDictionary
280
     1
281
     1
  3
ACAD_XREC_ROUNDTRIP
360
1C5
  0
DICTIONARY
  5
1B4
330
37
100
AcDbDictionary
280
     1
281
     1
  3
ACAD_XREC_ROUNDTRIP
360
1B5
  0
DICTIONARY
  5
1C6
330
40
100
AcDbDictionary
280
     1
281
     1
  3
ACAD_XREC_ROUNDTRIP
360
1C7
  0
DICTIONARY
  5
1AC
330
33
100
AcDbDictionary
280
     1
281
     1
  3
ACAD_XREC_ROUNDTRIP
360
1AD
  0
DICTIONARY
  5
1C2
330
3E
100
AcDbDictionary
280
     1
281
     1
  3
ACAD_XREC_ROUNDTRIP
360
1C3
  0
DICTIONARY
  5
1C0
330
3D
100
AcDbDictionary
280
     1
281
     1
  3
ACAD_XREC_ROUNDTRIP
360
1C1
  0
DICTIONARY
  5
1BA
330
3A
100
AcDbDictionary
280
     1
281
     1
  3
ACAD_XREC_ROUNDTRIP
360
1BB
  0
DICTIONARY
  5
1BC
330
3B
100
AcDbDictionary
280
     1
281
     1
  3
ACAD_XREC_ROUNDTRIP
360
1BD
  0
DICTIONARY
  5
1B2
330
36
100
AcDbDictionary
280
     1
281
     1
  3
ACAD_XREC_ROUNDTRIP
360
1B3
  0
DICTIONARY
  5
1A6
330
30
100
AcDbDictionary
280
     1
281
     1
  3
ACAD_XREC_ROUNDTRIP
360
1A7
  0
DICTIONARY
  5
1BE
330
3C
100
AcDbDictionary
280
     1
281
     1
  3
ACAD_XREC_ROUNDTRIP
360
1BF
  0
XRECORD
  5
1D1
102
{ACAD_REACTORS
330
1D0
102
}
330
1D0
100
AcDbXrecord
280
     1
102
DISPLAYNAME
  1
Imperial24
102
FLAGS
 90
        0
  0
XRECORD
  5
198
102
{ACAD_REACTORS
330
1A
102
}
330
1A
100
AcDbXrecord
280
     1
102
MATERIAL
148
0.0
149
0.0
149
0.0
 93
        0
 94
      127
282
     0
 72
     0
 77
     0
171
     0
175
     0
179
     0
273
     0
  0
XRECORD
  5
1C
102
{ACAD_REACTORS
330
1A
102
}
330
1A
100
AcDbXrecord
280
     1
270
     1
271
     1
  0
XRECORD
  5
1B
102
{ACAD_REACTORS
330
1A
102
}
330
1A
100
AcDbXrecord
280
     1
270
     1
271
     1
  0
XRECORD
  5
1F
102
{ACAD_REACTORS
330
1A
102
}
330
1A
100
AcDbXrecord
280
     1
270
     1
271
     1
  0
XRECORD
  5
1E
102
{ACAD_REACTORS
330
1A
102
}
330
1A
100
AcDbXrecord
280
     1
270
     1
271
     1
  0
XRECORD
  5
20
102
{ACAD_REACTORS
330
1A
102
}
330
1A
100
AcDbXrecord
280
     1
270
     1
271
     1
  0
XRECORD
  5
1D
102
{ACAD_REACTORS
330
1A
102
}
330
1A
100
AcDbXrecord
280
     1
270
     1
271
     1
  0
XRECORD
  5
197
102
{ACAD_REACTORS
330
12
102
}
330
12
100
AcDbXrecord
280
     1
102
MATERIAL
148
0.0
149
0.0
149
0.0
 93
        0
 94
      127
282
     0
 72
     0
 77
     0
171
     0
175
     0
179
     0
273
     0
  0
XRECORD
  5
14
102
{ACAD_REACTORS
330
12
102
}
330
12
100
AcDbXrecord
280
     1
270
     1
271
     1
  0
XRECORD
  5
13
102
{ACAD_REACTORS
330
12
102
}
330
12
100
AcDbXrecord
280
     1
270
     1
271
     1
  0
XRECORD
  5
17
102
{ACAD_REACTORS
330
12
102
}
330
12
100
AcDbXrecord
280
     1
270
     1
271
     1
  0
XRECORD
  5
16
102
{ACAD_REACTORS
330
12
102
}
330
12
100
AcDbXrecord
280
     1
270
     1
271
     1
  0
XRECORD
  5
18
102
{ACAD_REACTORS
330
12
102
}
330
12
100
AcDbXrecord
280
     1
270
     1
271
     1
  0
XRECORD
  5
15
102
{ACAD_REACTORS
330
12
102
}
330
12
100
AcDbXrecord
280
     1
270
     1
271
     1
  0
XRECORD
  5
199
102
{ACAD_REACTORS
330
22
102
}
330
22
100
AcDbXrecord
280
     1
102
MATERIAL
148
0.0
149
0.0
149
0.0
 93
        0
 94
      127
282
     0
 72
     0
 77
     0
171
     0
175
     0
179
     0
273
     0
  0
XRECORD
  5
24
102
{ACAD_REACTORS
330
22
102
}
330
22
100
AcDbXrecord
280
     1
270
     1
271
     1
  0
XRECORD
  5
23
102
{ACAD_REACTORS
330
22
102
}
330
22
100
AcDbXrecord
280
     1
270
     1
271
     1
  0
XRECORD
  5
27
102
{ACAD_REACTORS
330
22
102
}
330
22
100
AcDbXrecord
280
     1
270
     1
271
     1
  0
XRECORD
  5
26
102
{ACAD_REACTORS
330
22
102
}
330
22
100
AcDbXrecord
280
     1
270
     1
271
     1
  0
XRECORD
  5
28
102
{ACAD_REACTORS
330
22
102
}
330
22
100
AcDbXrecord
280
     1
270
     1
271
     1
  0
XRECORD
  5
25
102
{ACAD_REACTORS
330
22
102
}
330
22
100
AcDbXrecord
280
     1
270
     1
271
     1
  0
XRECORD
  5
1CD
102
{ACAD_REACTORS
330
1CC
102
}
330
1CC
100
AcDbXrecord
280
     1
102
ACAD_ROUNDTRIP_2012_MLEADER_STYLE
298
     1
  0
XRECORD
  5
1CF
102
{ACAD_REACTORS
330
1CE
102
}
330
1CE
100
AcDbXrecord
280
     1
102
DISPLAYNAME
  1
Imperial24
102
FLAGS
 90
        0
  0
CELLSTYLEMAP
  5
195
102
{ACAD_REACTORS
330
194
102
}
330
194
100
AcDbCellStyleMap
 90
        3
300
CELLSTYLE
  1
TABLEFORMAT_BEGIN
 90
        5
170
     1
 91
        0
 92
    32768
 62
   257
 93
        1
300
CONTENTFORMAT
  1
CONTENTFORMAT_BEGIN
 90
        0
 91
        0
 92
      512
 93
        0
300

 40
0.0
140
1.0
 94
        5
 62
     0
340
55
144
0.25
309
CONTENTFORMAT_END
171
     0
 94
        0
309
TABLEFORMAT_END
  1
CELLSTYLE_BEGIN
 90
        1
 91
        1
300
_TITLE
309
CELLSTYLE_END
300
CELLSTYLE
  1
TABLEFORMAT_BEGIN
 90
        5
170
     1
 91
        0
 92
        0
 62
   257
 93
        1
300
CONTENTFORMAT
  1
CONTENTFORMAT_BEGIN
 90
        0
 91
        0
 92
      512
 93
        0
300

 40
0.0
140
1.0
 94
        5
 62
     0
340
55
144
0.18
309
CONTENTFORMAT_END
171
     0
 94
        0
309
TABLEFORMAT_END
  1
CELLSTYLE_BEGIN
 90
        2
 91
        1
300
_HEADER
309
CELLSTYLE_END
300
CELLSTYLE
  1
TABLEFORMAT_BEGIN
 90
        5
170
     1
 91
        0
 92
        0
 62
   257
 93
        1
300
CONTENTFORMAT
  1
CONTENTFORMAT_BEGIN
 90
        0
 91
        0
 92
      512
 93
        0
300

 40
0.0
140
1.0
 94
        2
 62
     0
340
55
144
0.18
309
CONTENTFORMAT_END
171
     0
 94
        0
309
TABLEFORMAT_END
  1
CELLSTYLE_BEGIN
 90
        3
 91
        2
300
_DATA
309
CELLSTYLE_END
  0
XRECORD
  5
1CA
102
{ACAD_REACTORS
330
194
102
}
330
194
100
AcDbXrecord
280
     1
102
ACAD_ROUNDTRIP_PRE2007_TABLESTYLE
 90
      512
 91
        0
  1

 92
      512
 93
        0
  2

 94
      512
 95
        0
  3

  0
XRECORD
  5
1A5
102
{ACAD_REACTORS
330
1A4
102
}
330
1A4
100
AcDbXrecord
280
     1
102
RTVSPost2010Prop28
280
     1
102
RTVSPost2010PropOp28
 70
     1
102
RTVSPost2010Prop29
280
     1
102
RTVSPost2010PropOp29
 70
     1
102
RTVSPost2010Prop30
280
     0
102
RTVSPost2010PropOp30
 70
     1
102
RTVSPost2010Prop31
280
     0
102
RTVSPost2010PropOp31
 70
     1
102
RTVSPost2010Prop32
280
     0
102
RTVSPost2010PropOp32
 70
     1
102
RTVSPost2010Prop33
280
     0
102
RTVSPost2010PropOp33
 70
     1
102
RTVSPost2010Prop34
280
     0
102
RTVSPost2010PropOp34
 70
     1
102
RTVSPost2010Prop35
280
     0
102
RTVSPost2010PropOp35
 70
     1
102
RTVSPost2010Prop36
280
     0
102
RTVSPost2010PropOp36
 70
     1
102
RTVSPost2010Prop37
 90
       50
102
RTVSPost2010PropOp37
 70
     1
102
RTVSPost2010Prop38
140
0.0
102
RTVSPost2010PropOp38
 70
     1
102
RTVSPost2010Prop39
140
1.0
102
RTVSPost2010PropOp39
 70
     1
102
RTVSPost2010Prop40
 90
        0
102
RTVSPost2010PropOp40
 70
     1
102
RTVSPost2010Prop41ColorIndex
 90
       18
102
RTVSPost2010Prop41ColorRGB
 90
        0
102
RTVSPost2010PropOp41
 70
     1
102
RTVSPost2010Prop42
 90
       50
102
RTVSPost2010PropOp42
 70
     1
102
RTVSPost2010Prop43
 90
        3
102
RTVSPost2010PropOp43
 70
     1
102
RTVSPost2010Prop44ColorIndex
 90
        5
102
RTVSPost2010Prop44ColorRGB
 90
      255
102
RTVSPost2010PropOp44
 70
     1
102
RTVSPost2010Prop45
280
     0
102
RTVSPost2010PropOp45
 70
     1
102
RTVSPost2010Prop46
 90
       50
102
RTVSPost2010PropOp46
 70
     1
102
RTVSPost2010Prop47
 90
       50
102
RTVSPost2010PropOp47
 70
     1
102
RTVSPost2010Prop48
 90
       50
102
RTVSPost2010PropOp48
 70
     1
102
RTVSPost2010Prop49
280
     0
102
RTVSPost2010PropOp49
 70
     1
102
RTVSPost2010Prop50
 90
       50
102
RTVSPost2010PropOp50
 70
     1
102
RTVSPost2010Prop51ColorIndex
 90
      256
102
RTVSPost2010Prop51ColorRGB
 90
-16777216
102
RTVSPost2010PropOp51
 70
     0
102
RTVSPost2010Prop52
140
1.0
102
RTVSPost2010PropOp52
 70
     0
102
RTVSPost2010Prop53
 90
        2
102
RTVSPost2010PropOp53
 70
     1
102
RTVSPost2010Prop54
  1
strokes_ogs.tif
102
RTVSPost2010PropOp54
 70
     1
102
RTVSPost2010Prop55
280
     0
102
RTVSPost2010PropOp55
 70
     1
102
RTVSPost2010Prop56
140
1.0
102
RTVSPost2010PropOp56
 70
     1
102
RTVSPost2010Prop57
140
1.0
102
RTVSPost2010PropOp57
 70
     1
102
RTVSPropertyOp0
 70
     1
102
RTVSPropertyOp1
 70
     1
102
RTVSPropertyOp2
 70
     1
102
RTVSPropertyOp3
 70
     1
102
RTVSPropertyOp4
 70
     1
102
RTVSPropertyOp5
 70
     1
102
RTVSPropertyOp6
 70
     1
102
RTVSPropertyOp7
 70
     1
102
RTVSPropertyOp8
 70
     1
102
RTVSPropertyOp9
 70
     1
102
RTVSPropertyOp10
 70
     1
102
RTVSPropertyOp11
 70
     1
102
RTVSPropertyOp12
 70
     1
102
RTVSPropertyOp13
 70
     1
102
RTVSPropertyOp14
 70
     1
102
RTVSPropertyOp15
 70
     1
102
RTVSPropertyOp16
 70
     1
102
RTVSPropertyOp17
 70
     1
102
RTVSPropertyOp18
 70
     1
102
RTVSPropertyOp19
 70
     1
102
RTVSPropertyOp20
 70
     1
102
RTVSPropertyOp21
 70
     1
102
RTVSPropertyOp22
 70
     1
102
RTVSPropertyOp23
 70
     1
102
RTVSPropertyOp24
 70
     1
102
RTVSPropertyOp25
 70
     1
102
RTVSPropertyOp26
 70
     1
102
RTVSPropertyOp27
 70
     1
102
RTVSPropertyOp28
 70
     1
102
RTVSPropertyOp29
 70
     1
102
RTVSPropertyOp30
 70
     1
102
RTVSPropertyOp31
 70
     1
102
RTVSPropertyOp32
 70
     1
102
RTVSPropertyOp33
 70
     1
102
RTVSPropertyOp34
 70
     1
102
RTVSPropertyOp35
 70
     1
102
RTVSPropertyOp36
 70
     1
102
RTVSPropertyOp37
 70
     1
102
RTVSPropertyOp38
 70
     1
102
RTVSPropertyOp39
 70
     1
102
RTVSPropertyOp40
 70
     1
102
RTVSPropertyOp41
 70
     1
102
RTVSPropertyOp42
 70
     1
102
RTVSPropertyOp43
 70
     1
102
RTVSPropertyOp44
 70
     1
102
RTVSPropertyOp45
 70
     1
102
RTVSPropertyOp46
 70
     1
102
RTVSPropertyOp47
 70
     1
102
RTVSPropertyOp48
 70
     1
102
RTVSPropertyOp49
 70
     1
102
RTVSPropertyOp50
 70
     1
102
RTVSPropertyOp51
 70
     0
102
RTVSPropertyOp52
 70
     0
102
RTVSPropertyOp53
 70
     1
102
RTVSPropertyOp54
 70
     1
102
RTVSPropertyOp55
 70
     1
102
RTVSPropertyOp56
 70
     1
102
RTVSPropertyOp57
 70
     1
102
RTVSPropertyOp58
 70
     1
102
RTVSPropertyOp59
 70
     1
102
RTVSPropertyOp60
 70
     1
102
RTVSPropertyOp61
 70
     1
102
RTVSPropertyOp62
 70
     1
  0
XRECORD
  5
1A3
102
{ACAD_REACTORS
330
1A2
102
}
330
1A2
100
AcDbXrecord
280
     1
102
RTVSPost2010Prop28
280
     0
102
RTVSPost2010PropOp28
 70
     1
102
RTVSPost2010Prop29
280
     1
102
RTVSPost2010PropOp29
 70
     1
102
RTVSPost2010Prop30
280
     1
102
RTVSPost2010PropOp30
 70
     1
102
RTVSPost2010Prop31
280
     0
102
RTVSPost2010PropOp31
 70
     1
102
RTVSPost2010Prop32
280
     0
102
RTVSPost2010PropOp32
 70
     1
102
RTVSPost2010Prop33
280
     0
102
RTVSPost2010PropOp33
 70
     1
102
RTVSPost2010Prop34
280
     0
102
RTVSPost2010PropOp34
 70
     1
102
RTVSPost2010Prop35
280
     0
102
RTVSPost2010PropOp35
 70
     1
102
RTVSPost2010Prop36
280
     0
102
RTVSPost2010PropOp36
 70
     1
102
RTVSPost2010Prop37
 90
       50
102
RTVSPost2010PropOp37
 70
     1
102
RTVSPost2010Prop38
140
0.0
102
RTVSPost2010PropOp38
 70
     1
102
RTVSPost2010Prop39
140
1.0
102
RTVSPost2010PropOp39
 70
     1
102
RTVSPost2010Prop40
 90
        0
102
RTVSPost2010PropOp40
 70
     1
102
RTVSPost2010Prop41ColorIndex
 90
       18
102
RTVSPost2010Prop41ColorRGB
 90
        0
102
RTVSPost2010PropOp41
 70
     1
102
RTVSPost2010Prop42
 90
       50
102
RTVSPost2010PropOp42
 70
     1
102
RTVSPost2010Prop43
 90
        3
102
RTVSPost2010PropOp43
 70
     1
102
RTVSPost2010Prop44ColorIndex
 90
        5
102
RTVSPost2010Prop44ColorRGB
 90
      255
102
RTVSPost2010PropOp44
 70
     1
102
RTVSPost2010Prop45
280
     0
102
RTVSPost2010PropOp45
 70
     1
102
RTVSPost2010Prop46
 90
       50
102
RTVSPost2010PropOp46
 70
     1
102
RTVSPost2010Prop47
 90
       50
102
RTVSPost2010PropOp47
 70
     1
102
RTVSPost2010Prop48
 90
       50
102
RTVSPost2010PropOp48
 70
     1
102
RTVSPost2010Prop49
280
     0
102
RTVSPost2010PropOp49
 70
     1
102
RTVSPost2010Prop50
 90
       50
102
RTVSPost2010PropOp50
 70
     1
102
RTVSPost2010Prop51ColorIndex
 90
      256
102
RTVSPost2010Prop51ColorRGB
 90
-16777216
102
RTVSPost2010PropOp51
 70
     0
102
RTVSPost2010Prop52
140
1.0
102
RTVSPost2010PropOp52
 70
     0
102
RTVSPost2010Prop53
 90
        2
102
RTVSPost2010PropOp53
 70
     1
102
RTVSPost2010Prop54
  1
strokes_ogs.tif
102
RTVSPost2010PropOp54
 70
     1
102
RTVSPost2010Prop55
280
     0
102
RTVSPost2010PropOp55
 70
     1
102
RTVSPost2010Prop56
140
1.0
102
RTVSPost2010PropOp56
 70
     1
102
RTVSPost2010Prop57
140
1.0
102
RTVSPost2010PropOp57
 70
     1
102
RTVSPropertyOp0
 70
     1
102
RTVSPropertyOp1
 70
     1
102
RTVSPropertyOp2
 70
     1
102
RTVSPropertyOp3
 70
     1
102
RTVSPropertyOp4
 70
     1
102
RTVSPropertyOp5
 70
     1
102
RTVSPropertyOp6
 70
     1
102
RTVSPropertyOp7
 70
     1
102
RTVSPropertyOp8
 70
     1
102
RTVSPropertyOp9
 70
     1
102
RTVSPropertyOp10
 70
     1
102
RTVSPropertyOp11
 70
     1
102
RTVSPropertyOp12
 70
     1
102
RTVSPropertyOp13
 70
     1
102
RTVSPropertyOp14
 70
     1
102
RTVSPropertyOp15
 70
     1
102
RTVSPropertyOp16
 70
     1
102
RTVSPropertyOp17
 70
     1
102
RTVSPropertyOp18
 70
     1
102
RTVSPropertyOp19
 70
     1
102
RTVSPropertyOp20
 70
     1
102
RTVSPropertyOp21
 70
     1
102
RTVSPropertyOp22
 70
     1
102
RTVSPropertyOp23
 70
     1
102
RTVSPropertyOp24
 70
     1
102
RTVSPropertyOp25
 70
     1
102
RTVSPropertyOp26
 70
     1
102
RTVSPropertyOp27
 70
     1
102
RTVSPropertyOp28
 70
     1
102
RTVSPropertyOp29
 70
     1
102
RTVSPropertyOp30
 70
     1
102
RTVSPropertyOp31
 70
     1
102
RTVSPropertyOp32
 70
     1
102
RTVSPropertyOp33
 70
     1
102
RTVSPropertyOp34
 70
     1
102
RTVSPropertyOp35
 70
     1
102
RTVSPropertyOp36
 70
     1
102
RTVSPropertyOp37
 70
     1
102
RTVSPropertyOp38
 70
     1
102
RTVSPropertyOp39
 70
     1
102
RTVSPropertyOp40
 70
     1
102
RTVSPropertyOp41
 70
     1
102
RTVSPropertyOp42
 70
     1
102
RTVSPropertyOp43
 70
     1
102
RTVSPropertyOp44
 70
     1
102
RTVSPropertyOp45
 70
     1
102
RTVSPropertyOp46
 70
     1
102
RTVSPropertyOp47
 70
     1
102
RTVSPropertyOp48
 70
     1
102
RTVSPropertyOp49
 70
     1
102
RTVSPropertyOp50
 70
     1
102
RTVSPropertyOp51
 70
     0
102
RTVSPropertyOp52
 70
     0
102
RTVSPropertyOp53
 70
     1
102
RTVSPropertyOp54
 70
     1
102
RTVSPropertyOp55
 70
     1
102
RTVSPropertyOp56
 70
     1
102
RTVSPropertyOp57
 70
     1
102
RTVSPropertyOp58
 70
     1
102
RTVSPropertyOp59
 70
     1
102
RTVSPropertyOp60
 70
     1
102
RTVSPropertyOp61
 70
     1
102
RTVSPropertyOp62
 70
     1
  0
XRECORD
  5
1B1
102
{ACAD_REACTORS
330
1B0
102
}
330
1B0
100
AcDbXrecord
280
     1
102
RTVSPost2010Prop28
280
     0
102
RTVSPost2010PropOp28
 70
     1
102
RTVSPost2010Prop29
280
     1
102
RTVSPost2010PropOp29
 70
     1
102
RTVSPost2010Prop30
280
     1
102
RTVSPost2010PropOp30
 70
     1
102
RTVSPost2010Prop31
280
     0
102
RTVSPost2010PropOp31
 70
     1
102
RTVSPost2010Prop32
280
     0
102
RTVSPost2010PropOp32
 70
     1
102
RTVSPost2010Prop33
280
     0
102
RTVSPost2010PropOp33
 70
     1
102
RTVSPost2010Prop34
280
     0
102
RTVSPost2010PropOp34
 70
     1
102
RTVSPost2010Prop35
280
     0
102
RTVSPost2010PropOp35
 70
     1
102
RTVSPost2010Prop36
280
     0
102
RTVSPost2010PropOp36
 70
     1
102
RTVSPost2010Prop37
 90
       50
102
RTVSPost2010PropOp37
 70
     1
102
RTVSPost2010Prop38
140
0.0
102
RTVSPost2010PropOp38
 70
     1
102
RTVSPost2010Prop39
140
1.0
102
RTVSPost2010PropOp39
 70
     1
102
RTVSPost2010Prop40
 90
        0
102
RTVSPost2010PropOp40
 70
     1
102
RTVSPost2010Prop41ColorIndex
 90
       18
102
RTVSPost2010Prop41ColorRGB
 90
        0
102
RTVSPost2010PropOp41
 70
     1
102
RTVSPost2010Prop42
 90
       50
102
RTVSPost2010PropOp42
 70
     1
102
RTVSPost2010Prop43
 90
        3
102
RTVSPost2010PropOp43
 70
     1
102
RTVSPost2010Prop44ColorIndex
 90
        5
102
RTVSPost2010Prop44ColorRGB
 90
      255
102
RTVSPost2010PropOp44
 70
     1
102
RTVSPost2010Prop45
280
     0
102
RTVSPost2010PropOp45
 70
     1
102
RTVSPost2010Prop46
 90
       50
102
RTVSPost2010PropOp46
 70
     1
102
RTVSPost2010Prop47
 90
       50
102
RTVSPost2010PropOp47
 70
     1
102
RTVSPost2010Prop48
 90
       50
102
RTVSPost2010PropOp48
 70
     1
102
RTVSPost2010Prop49
280
     0
102
RTVSPost2010PropOp49
 70
     1
102
RTVSPost2010Prop50
 90
       50
102
RTVSPost2010PropOp50
 70
     1
102
RTVSPost2010Prop51ColorIndex
 90
      256
102
RTVSPost2010Prop51ColorRGB
 90
-16777216
102
RTVSPost2010PropOp51
 70
     0
102
RTVSPost2010Prop52
140
1.0
102
RTVSPost2010PropOp52
 70
     0
102
RTVSPost2010Prop53
 90
        2
102
RTVSPost2010PropOp53
 70
     1
102
RTVSPost2010Prop54
  1
strokes_ogs.tif
102
RTVSPost2010PropOp54
 70
     1
102
RTVSPost2010Prop55
280
     0
102
RTVSPost2010PropOp55
 70
     1
102
RTVSPost2010Prop56
140
1.0
102
RTVSPost2010PropOp56
 70
     1
102
RTVSPost2010Prop57
140
1.0
102
RTVSPost2010PropOp57
 70
     1
102
RTVSPropertyOp0
 70
     1
102
RTVSPropertyOp1
 70
     1
102
RTVSPropertyOp2
 70
     1
102
RTVSPropertyOp3
 70
     1
102
RTVSPropertyOp4
 70
     1
102
RTVSPropertyOp5
 70
     1
102
RTVSPropertyOp6
 70
     1
102
RTVSPropertyOp7
 70
     1
102
RTVSPropertyOp8
 70
     1
102
RTVSPropertyOp9
 70
     1
102
RTVSPropertyOp10
 70
     1
102
RTVSPropertyOp11
 70
     1
102
RTVSPropertyOp12
 70
     1
102
RTVSPropertyOp13
 70
     1
102
RTVSPropertyOp14
 70
     1
102
RTVSPropertyOp15
 70
     1
102
RTVSPropertyOp16
 70
     1
102
RTVSPropertyOp17
 70
     1
102
RTVSPropertyOp18
 70
     1
102
RTVSPropertyOp19
 70
     1
102
RTVSPropertyOp20
 70
     1
102
RTVSPropertyOp21
 70
     1
102
RTVSPropertyOp22
 70
     1
102
RTVSPropertyOp23
 70
     1
102
RTVSPropertyOp24
 70
     1
102
RTVSPropertyOp25
 70
     1
102
RTVSPropertyOp26
 70
     1
102
RTVSPropertyOp27
 70
     1
102
RTVSPropertyOp28
 70
     1
102
RTVSPropertyOp29
 70
     1
102
RTVSPropertyOp30
 70
     1
102
RTVSPropertyOp31
 70
     1
102
RTVSPropertyOp32
 70
     1
102
RTVSPropertyOp33
 70
     1
102
RTVSPropertyOp34
 70
     1
102
RTVSPropertyOp35
 70
     1
102
RTVSPropertyOp36
 70
     1
102
RTVSPropertyOp37
 70
     1
102
RTVSPropertyOp38
 70
     1
102
RTVSPropertyOp39
 70
     1
102
RTVSPropertyOp40
 70
     1
102
RTVSPropertyOp41
 70
     1
102
RTVSPropertyOp42
 70
     1
102
RTVSPropertyOp43
 70
     1
102
RTVSPropertyOp44
 70
     1
102
RTVSPropertyOp45
 70
     1
102
RTVSPropertyOp46
 70
     1
102
RTVSPropertyOp47
 70
     1
102
RTVSPropertyOp48
 70
     1
102
RTVSPropertyOp49
 70
     1
102
RTVSPropertyOp50
 70
     1
102
RTVSPropertyOp51
 70
     0
102
RTVSPropertyOp52
 70
     0
102
RTVSPropertyOp53
 70
     1
102
RTVSPropertyOp54
 70
     1
102
RTVSPropertyOp55
 70
     1
102
RTVSPropertyOp56
 70
     1
102
RTVSPropertyOp57
 70
     1
102
RTVSPropertyOp58
 70
     1
102
RTVSPropertyOp59
 70
     1
102
RTVSPropertyOp60
 70
     1
102
RTVSPropertyOp61
 70
     1
102
RTVSPropertyOp62
 70
     1
  0
XRECORD
  5
1B9
102
{ACAD_REACTORS
330
1B8
102
}
330
1B8
100
AcDbXrecord
280
     1
102
RTVSPost2010Prop28
280
     0
102
RTVSPost2010PropOp28
 70
     1
102
RTVSPost2010Prop29
280
     1
102
RTVSPost2010PropOp29
 70
     1
102
RTVSPost2010Prop30
280
     1
102
RTVSPost2010PropOp30
 70
     1
102
RTVSPost2010Prop31
280
     0
102
RTVSPost2010PropOp31
 70
     1
102
RTVSPost2010Prop32
280
     0
102
RTVSPost2010PropOp32
 70
     1
102
RTVSPost2010Prop33
280
     0
102
RTVSPost2010PropOp33
 70
     1
102
RTVSPost2010Prop34
280
     0
102
RTVSPost2010PropOp34
 70
     1
102
RTVSPost2010Prop35
280
     0
102
RTVSPost2010PropOp35
 70
     1
102
RTVSPost2010Prop36
280
     0
102
RTVSPost2010PropOp36
 70
     1
102
RTVSPost2010Prop37
 90
       50
102
RTVSPost2010PropOp37
 70
     1
102
RTVSPost2010Prop38
140
0.0
102
RTVSPost2010PropOp38
 70
     1
102
RTVSPost2010Prop39
140
1.0
102
RTVSPost2010PropOp39
 70
     1
102
RTVSPost2010Prop40
 90
        0
102
RTVSPost2010PropOp40
 70
     1
102
RTVSPost2010Prop41ColorIndex
 90
       18
102
RTVSPost2010Prop41ColorRGB
 90
        0
102
RTVSPost2010PropOp41
 70
     1
102
RTVSPost2010Prop42
 90
       50
102
RTVSPost2010PropOp42
 70
     1
102
RTVSPost2010Prop43
 90
        3
102
RTVSPost2010PropOp43
 70
     1
102
RTVSPost2010Prop44ColorIndex
 90
        5
102
RTVSPost2010Prop44ColorRGB
 90
      255
102
RTVSPost2010PropOp44
 70
     1
102
RTVSPost2010Prop45
280
     0
102
RTVSPost2010PropOp45
 70
     1
102
RTVSPost2010Prop46
 90
       50
102
RTVSPost2010PropOp46
 70
     1
102
RTVSPost2010Prop47
 90
       50
102
RTVSPost2010PropOp47
 70
     1
102
RTVSPost2010Prop48
 90
       50
102
RTVSPost2010PropOp48
 70
     1
102
RTVSPost2010Prop49
280
     0
102
RTVSPost2010PropOp49
 70
     1
102
RTVSPost2010Prop50
 90
       50
102
RTVSPost2010PropOp50
 70
     1
102
RTVSPost2010Prop51ColorIndex
 90
      256
102
RTVSPost2010Prop51ColorRGB
 90
-16777216
102
RTVSPost2010PropOp51
 70
     0
102
RTVSPost2010Prop52
140
1.0
102
RTVSPost2010PropOp52
 70
     0
102
RTVSPost2010Prop53
 90
        2
102
RTVSPost2010PropOp53
 70
     1
102
RTVSPost2010Prop54
  1
strokes_ogs.tif
102
RTVSPost2010PropOp54
 70
     1
102
RTVSPost2010Prop55
280
     0
102
RTVSPost2010PropOp55
 70
     1
102
RTVSPost2010Prop56
140
1.0
102
RTVSPost2010PropOp56
 70
     1
102
RTVSPost2010Prop57
140
1.0
102
RTVSPost2010PropOp57
 70
     1
102
RTVSPropertyOp0
 70
     1
102
RTVSPropertyOp1
 70
     1
102
RTVSPropertyOp2
 70
     1
102
RTVSPropertyOp3
 70
     1
102
RTVSPropertyOp4
 70
     1
102
RTVSPropertyOp5
 70
     1
102
RTVSPropertyOp6
 70
     1
102
RTVSPropertyOp7
 70
     1
102
RTVSPropertyOp8
 70
     1
102
RTVSPropertyOp9
 70
     1
102
RTVSPropertyOp10
 70
     1
102
RTVSPropertyOp11
 70
     1
102
RTVSPropertyOp12
 70
     1
102
RTVSPropertyOp13
 70
     1
102
RTVSPropertyOp14
 70
     1
102
RTVSPropertyOp15
 70
     1
102
RTVSPropertyOp16
 70
     1
102
RTVSPropertyOp17
 70
     1
102
RTVSPropertyOp18
 70
     1
102
RTVSPropertyOp19
 70
     1
102
RTVSPropertyOp20
 70
     1
102
RTVSPropertyOp21
 70
     1
102
RTVSPropertyOp22
 70
     1
102
RTVSPropertyOp23
 70
     1
102
RTVSPropertyOp24
 70
     1
102
RTVSPropertyOp25
 70
     1
102
RTVSPropertyOp26
 70
     1
102
RTVSPropertyOp27
 70
     1
102
RTVSPropertyOp28
 70
     1
102
RTVSPropertyOp29
 70
     1
102
RTVSPropertyOp30
 70
     1
102
RTVSPropertyOp31
 70
     1
102
RTVSPropertyOp32
 70
     1
102
RTVSPropertyOp33
 70
     1
102
RTVSPropertyOp34
 70
     1
102
RTVSPropertyOp35
 70
     1
102
RTVSPropertyOp36
 70
     1
102
RTVSPropertyOp37
 70
     1
102
RTVSPropertyOp38
 70
     1
102
RTVSPropertyOp39
 70
     1
102
RTVSPropertyOp40
 70
     1
102
RTVSPropertyOp41
 70
     1
102
RTVSPropertyOp42
 70
     1
102
RTVSPropertyOp43
 70
     1
102
RTVSPropertyOp44
 70
     1
102
RTVSPropertyOp45
 70
     1
102
RTVSPropertyOp46
 70
     1
102
RTVSPropertyOp47
 70
     1
102
RTVSPropertyOp48
 70
     1
102
RTVSPropertyOp49
 70
     1
102
RTVSPropertyOp50
 70
     1
102
RTVSPropertyOp51
 70
     0
102
RTVSPropertyOp52
 70
     0
102
RTVSPropertyOp53
 70
     1
102
RTVSPropertyOp54
 70
     1
102
RTVSPropertyOp55
 70
     1
102
RTVSPropertyOp56
 70
     1
102
RTVSPropertyOp57
 70
     1
102
RTVSPropertyOp58
 70
     1
102
RTVSPropertyOp59
 70
     1
102
RTVSPropertyOp60
 70
     1
102
RTVSPropertyOp61
 70
     1
102
RTVSPropertyOp62
 70
     1
  0
XRECORD
  5
1AB
102
{ACAD_REACTORS
330
1AA
102
}
330
1AA
100
AcDbXrecord
280
     1
102
RTVSPost2010Prop28
280
     0
102
RTVSPost2010PropOp28
 70
     1
102
RTVSPost2010Prop29
280
     1
102
RTVSPost2010PropOp29
 70
     1
102
RTVSPost2010Prop30
280
     1
102
RTVSPost2010PropOp30
 70
     1
102
RTVSPost2010Prop31
280
     0
102
RTVSPost2010PropOp31
 70
     1
102
RTVSPost2010Prop32
280
     0
102
RTVSPost2010PropOp32
 70
     1
102
RTVSPost2010Prop33
280
     0
102
RTVSPost2010PropOp33
 70
     1
102
RTVSPost2010Prop34
280
     0
102
RTVSPost2010PropOp34
 70
     1
102
RTVSPost2010Prop35
280
     0
102
RTVSPost2010PropOp35
 70
     1
102
RTVSPost2010Prop36
280
     0
102
RTVSPost2010PropOp36
 70
     1
102
RTVSPost2010Prop37
 90
       50
102
RTVSPost2010PropOp37
 70
     1
102
RTVSPost2010Prop38
140
0.0
102
RTVSPost2010PropOp38
 70
     1
102
RTVSPost2010Prop39
140
1.0
102
RTVSPost2010PropOp39
 70
     1
102
RTVSPost2010Prop40
 90
        0
102
RTVSPost2010PropOp40
 70
     1
102
RTVSPost2010Prop41ColorIndex
 90
       18
102
RTVSPost2010Prop41ColorRGB
 90
        0
102
RTVSPost2010PropOp41
 70
     1
102
RTVSPost2010Prop42
 90
       50
102
RTVSPost2010PropOp42
 70
     1
102
RTVSPost2010Prop43
 90
        3
102
RTVSPost2010PropOp43
 70
     1
102
RTVSPost2010Prop44ColorIndex
 90
        5
102
RTVSPost2010Prop44ColorRGB
 90
      255
102
RTVSPost2010PropOp44
 70
     1
102
RTVSPost2010Prop45
280
     0
102
RTVSPost2010PropOp45
 70
     1
102
RTVSPost2010Prop46
 90
       50
102
RTVSPost2010PropOp46
 70
     1
102
RTVSPost2010Prop47
 90
       50
102
RTVSPost2010PropOp47
 70
     1
102
RTVSPost2010Prop48
 90
       50
102
RTVSPost2010PropOp48
 70
     1
102
RTVSPost2010Prop49
280
     0
102
RTVSPost2010PropOp49
 70
     1
102
RTVSPost2010Prop50
 90
       50
102
RTVSPost2010PropOp50
 70
     1
102
RTVSPost2010Prop51ColorIndex
 90
      256
102
RTVSPost2010Prop51ColorRGB
 90
-16777216
102
RTVSPost2010PropOp51
 70
     0
102
RTVSPost2010Prop52
140
1.0
102
RTVSPost2010PropOp52
 70
     0
102
RTVSPost2010Prop53
 90
        2
102
RTVSPost2010PropOp53
 70
     1
102
RTVSPost2010Prop54
  1
strokes_ogs.tif
102
RTVSPost2010PropOp54
 70
     1
102
RTVSPost2010Prop55
280
     0
102
RTVSPost2010PropOp55
 70
     1
102
RTVSPost2010Prop56
140
1.0
102
RTVSPost2010PropOp56
 70
     1
102
RTVSPost2010Prop57
140
1.0
102
RTVSPost2010PropOp57
 70
     1
102
RTVSPropertyOp0
 70
     1
102
RTVSPropertyOp1
 70
     1
102
RTVSPropertyOp2
 70
     1
102
RTVSPropertyOp3
 70
     1
102
RTVSPropertyOp4
 70
     1
102
RTVSPropertyOp5
 70
     1
102
RTVSPropertyOp6
 70
     1
102
RTVSPropertyOp7
 70
     1
102
RTVSPropertyOp8
 70
     1
102
RTVSPropertyOp9
 70
     1
102
RTVSPropertyOp10
 70
     1
102
RTVSPropertyOp11
 70
     1
102
RTVSPropertyOp12
 70
     1
102
RTVSPropertyOp13
 70
     1
102
RTVSPropertyOp14
 70
     1
102
RTVSPropertyOp15
 70
     1
102
RTVSPropertyOp16
 70
     1
102
RTVSPropertyOp17
 70
     1
102
RTVSPropertyOp18
 70
     1
102
RTVSPropertyOp19
 70
     1
102
RTVSPropertyOp20
 70
     1
102
RTVSPropertyOp21
 70
     1
102
RTVSPropertyOp22
 70
     1
102
RTVSPropertyOp23
 70
     1
102
RTVSPropertyOp24
 70
     1
102
RTVSPropertyOp25
 70
     1
102
RTVSPropertyOp26
 70
     1
102
RTVSPropertyOp27
 70
     1
102
RTVSPropertyOp28
 70
     1
102
RTVSPropertyOp29
 70
     1
102
RTVSPropertyOp30
 70
     1
102
RTVSPropertyOp31
 70
     1
102
RTVSPropertyOp32
 70
     1
102
RTVSPropertyOp33
 70
     1
102
RTVSPropertyOp34
 70
     1
102
RTVSPropertyOp35
 70
     1
102
RTVSPropertyOp36
 70
     1
102
RTVSPropertyOp37
 70
     1
102
RTVSPropertyOp38
 70
     1
102
RTVSPropertyOp39
 70
     1
102
RTVSPropertyOp40
 70
     1
102
RTVSPropertyOp41
 70
     1
102
RTVSPropertyOp42
 70
     1
102
RTVSPropertyOp43
 70
     1
102
RTVSPropertyOp44
 70
     1
102
RTVSPropertyOp45
 70
     1
102
RTVSPropertyOp46
 70
     1
102
RTVSPropertyOp47
 70
     1
102
RTVSPropertyOp48
 70
     1
102
RTVSPropertyOp49
 70
     1
102
RTVSPropertyOp50
 70
     1
102
RTVSPropertyOp51
 70
     0
102
RTVSPropertyOp52
 70
     0
102
RTVSPropertyOp53
 70
     1
102
RTVSPropertyOp54
 70
     1
102
RTVSPropertyOp55
 70
     1
102
RTVSPropertyOp56
 70
     1
102
RTVSPropertyOp57
 70
     1
102
RTVSPropertyOp58
 70
     1
102
RTVSPropertyOp59
 70
     1
102
RTVSPropertyOp60
 70
     1
102
RTVSPropertyOp61
 70
     1
102
RTVSPropertyOp62
 70
     1
  0
XRECORD
  5
1AF
102
{ACAD_REACTORS
330
1AE
102
}
330
1AE
100
AcDbXrecord
280
     1
102
RTVSPost2010Prop28
280
     0
102
RTVSPost2010PropOp28
 70
     1
102
RTVSPost2010Prop29
280
     1
102
RTVSPost2010PropOp29
 70
     1
102
RTVSPost2010Prop30
280
     1
102
RTVSPost2010PropOp30
 70
     1
102
RTVSPost2010Prop31
280
     0
102
RTVSPost2010PropOp31
 70
     1
102
RTVSPost2010Prop32
280
     0
102
RTVSPost2010PropOp32
 70
     1
102
RTVSPost2010Prop33
280
     0
102
RTVSPost2010PropOp33
 70
     1
102
RTVSPost2010Prop34
280
     0
102
RTVSPost2010PropOp34
 70
     1
102
RTVSPost2010Prop35
280
     0
102
RTVSPost2010PropOp35
 70
     1
102
RTVSPost2010Prop36
280
     0
102
RTVSPost2010PropOp36
 70
     1
102
RTVSPost2010Prop37
 90
       50
102
RTVSPost2010PropOp37
 70
     1
102
RTVSPost2010Prop38
140
0.0
102
RTVSPost2010PropOp38
 70
     1
102
RTVSPost2010Prop39
140
1.0
102
RTVSPost2010PropOp39
 70
     1
102
RTVSPost2010Prop40
 90
        0
102
RTVSPost2010PropOp40
 70
     1
102
RTVSPost2010Prop41ColorIndex
 90
       18
102
RTVSPost2010Prop41ColorRGB
 90
        0
102
RTVSPost2010PropOp41
 70
     1
102
RTVSPost2010Prop42
 90
       50
102
RTVSPost2010PropOp42
 70
     1
102
RTVSPost2010Prop43
 90
        3
102
RTVSPost2010PropOp43
 70
     1
102
RTVSPost2010Prop44ColorIndex
 90
        5
102
RTVSPost2010Prop44ColorRGB
 90
      255
102
RTVSPost2010PropOp44
 70
     1
102
RTVSPost2010Prop45
280
     0
102
RTVSPost2010PropOp45
 70
     1
102
RTVSPost2010Prop46
 90
       50
102
RTVSPost2010PropOp46
 70
     1
102
RTVSPost2010Prop47
 90
       50
102
RTVSPost2010PropOp47
 70
     1
102
RTVSPost2010Prop48
 90
       50
102
RTVSPost2010PropOp48
 70
     1
102
RTVSPost2010Prop49
280
     0
102
RTVSPost2010PropOp49
 70
     1
102
RTVSPost2010Prop50
 90
       50
102
RTVSPost2010PropOp50
 70
     1
102
RTVSPost2010Prop51ColorIndex
 90
      256
102
RTVSPost2010Prop51ColorRGB
 90
-16777216
102
RTVSPost2010PropOp51
 70
     0
102
RTVSPost2010Prop52
140
1.0
102
RTVSPost2010PropOp52
 70
     0
102
RTVSPost2010Prop53
 90
        2
102
RTVSPost2010PropOp53
 70
     1
102
RTVSPost2010Prop54
  1
strokes_ogs.tif
102
RTVSPost2010PropOp54
 70
     1
102
RTVSPost2010Prop55
280
     0
102
RTVSPost2010PropOp55
 70
     1
102
RTVSPost2010Prop56
140
1.0
102
RTVSPost2010PropOp56
 70
     1
102
RTVSPost2010Prop57
140
1.0
102
RTVSPost2010PropOp57
 70
     1
102
RTVSPropertyOp0
 70
     1
102
RTVSPropertyOp1
 70
     1
102
RTVSPropertyOp2
 70
     1
102
RTVSPropertyOp3
 70
     1
102
RTVSPropertyOp4
 70
     1
102
RTVSPropertyOp5
 70
     1
102
RTVSPropertyOp6
 70
     1
102
RTVSPropertyOp7
 70
     1
102
RTVSPropertyOp8
 70
     1
102
RTVSPropertyOp9
 70
     1
102
RTVSPropertyOp10
 70
     1
102
RTVSPropertyOp11
 70
     1
102
RTVSPropertyOp12
 70
     1
102
RTVSPropertyOp13
 70
     1
102
RTVSPropertyOp14
 70
     1
102
RTVSPropertyOp15
 70
     1
102
RTVSPropertyOp16
 70
     1
102
RTVSPropertyOp17
 70
     1
102
RTVSPropertyOp18
 70
     1
102
RTVSPropertyOp19
 70
     1
102
RTVSPropertyOp20
 70
     1
102
RTVSPropertyOp21
 70
     1
102
RTVSPropertyOp22
 70
     1
102
RTVSPropertyOp23
 70
     1
102
RTVSPropertyOp24
 70
     1
102
RTVSPropertyOp25
 70
     1
102
RTVSPropertyOp26
 70
     1
102
RTVSPropertyOp27
 70
     1
102
RTVSPropertyOp28
 70
     1
102
RTVSPropertyOp29
 70
     1
102
RTVSPropertyOp30
 70
     1
102
RTVSPropertyOp31
 70
     1
102
RTVSPropertyOp32
 70
     1
102
RTVSPropertyOp33
 70
     1
102
RTVSPropertyOp34
 70
     1
102
RTVSPropertyOp35
 70
     1
102
RTVSPropertyOp36
 70
     1
102
RTVSPropertyOp37
 70
     1
102
RTVSPropertyOp38
 70
     1
102
RTVSPropertyOp39
 70
     1
102
RTVSPropertyOp40
 70
     1
102
RTVSPropertyOp41
 70
     1
102
RTVSPropertyOp42
 70
     1
102
RTVSPropertyOp43
 70
     1
102
RTVSPropertyOp44
 70
     1
102
RTVSPropertyOp45
 70
     1
102
RTVSPropertyOp46
 70
     1
102
RTVSPropertyOp47
 70
     1
102
RTVSPropertyOp48
 70
     1
102
RTVSPropertyOp49
 70
     1
102
RTVSPropertyOp50
 70
     1
102
RTVSPropertyOp51
 70
     0
102
RTVSPropertyOp52
 70
     0
102
RTVSPropertyOp53
 70
     1
102
RTVSPropertyOp54
 70
     1
102
RTVSPropertyOp55
 70
     1
102
RTVSPropertyOp56
 70
     1
102
RTVSPropertyOp57
 70
     1
102
RTVSPropertyOp58
 70
     1
102
RTVSPropertyOp59
 70
     1
102
RTVSPropertyOp60
 70
     1
102
RTVSPropertyOp61
 70
     1
102
RTVSPropertyOp62
 70
     1
  0
XRECORD
  5
1C9
102
{ACAD_REACTORS
330
1C8
102
}
330
1C8
100
AcDbXrecord
280
     1
102
RTVSPost2010Prop28
280
     0
102
RTVSPost2010PropOp28
 70
     0
102
RTVSPost2010Prop29
280
     1
102
RTVSPost2010PropOp29
 70
     0
102
RTVSPost2010Prop30
280
     1
102
RTVSPost2010PropOp30
 70
     0
102
RTVSPost2010Prop31
280
     0
102
RTVSPost2010PropOp31
 70
     0
102
RTVSPost2010Prop32
280
     0
102
RTVSPost2010PropOp32
 70
     0
102
RTVSPost2010Prop33
280
     0
102
RTVSPost2010PropOp33
 70
     0
102
RTVSPost2010Prop34
280
     0
102
RTVSPost2010PropOp34
 70
     0
102
RTVSPost2010Prop35
280
     0
102
RTVSPost2010PropOp35
 70
     0
102
RTVSPost2010Prop36
280
     0
102
RTVSPost2010PropOp36
 70
     0
102
RTVSPost2010Prop37
 90
       50
102
RTVSPost2010PropOp37
 70
     0
102
RTVSPost2010Prop38
140
0.0
102
RTVSPost2010PropOp38
 70
     0
102
RTVSPost2010Prop39
140
1.0
102
RTVSPost2010PropOp39
 70
     0
102
RTVSPost2010Prop40
 90
        0
102
RTVSPost2010PropOp40
 70
     0
102
RTVSPost2010Prop41ColorIndex
 90
       18
102
RTVSPost2010Prop41ColorRGB
 90
        0
102
RTVSPost2010PropOp41
 70
     0
102
RTVSPost2010Prop42
 90
       50
102
RTVSPost2010PropOp42
 70
     0
102
RTVSPost2010Prop43
 90
        3
102
RTVSPost2010PropOp43
 70
     0
102
RTVSPost2010Prop44ColorIndex
 90
        5
102
RTVSPost2010Prop44ColorRGB
 90
      255
102
RTVSPost2010PropOp44
 70
     0
102
RTVSPost2010Prop45
280
     0
102
RTVSPost2010PropOp45
 70
     0
102
RTVSPost2010Prop46
 90
       50
102
RTVSPost2010PropOp46
 70
     0
102
RTVSPost2010Prop47
 90
       50
102
RTVSPost2010PropOp47
 70
     0
102
RTVSPost2010Prop48
 90
       50
102
RTVSPost2010PropOp48
 70
     0
102
RTVSPost2010Prop49
280
     0
102
RTVSPost2010PropOp49
 70
     0
102
RTVSPost2010Prop50
 90
       50
102
RTVSPost2010PropOp50
 70
     0
102
RTVSPost2010Prop51ColorIndex
 90
      256
102
RTVSPost2010Prop51ColorRGB
 90
-16777216
102
RTVSPost2010PropOp51
 70
     0
102
RTVSPost2010Prop52
140
1.0
102
RTVSPost2010PropOp52
 70
     0
102
RTVSPost2010Prop53
 90
        2
102
RTVSPost2010PropOp53
 70
     0
102
RTVSPost2010Prop54
  1
strokes_ogs.tif
102
RTVSPost2010PropOp54
 70
     0
102
RTVSPost2010Prop55
280
     0
102
RTVSPost2010PropOp55
 70
     0
102
RTVSPost2010Prop56
140
1.0
102
RTVSPost2010PropOp56
 70
     0
102
RTVSPost2010Prop57
140
1.0
102
RTVSPost2010PropOp57
 70
     0
102
RTVSPropertyOp0
 70
     0
102
RTVSPropertyOp1
 70
     0
102
RTVSPropertyOp2
 70
     0
102
RTVSPropertyOp3
 70
     0
102
RTVSPropertyOp4
 70
     0
102
RTVSPropertyOp5
 70
     0
102
RTVSPropertyOp6
 70
     0
102
RTVSPropertyOp7
 70
     0
102
RTVSPropertyOp8
 70
     0
102
RTVSPropertyOp9
 70
     0
102
RTVSPropertyOp10
 70
     0
102
RTVSPropertyOp11
 70
     0
102
RTVSPropertyOp12
 70
     0
102
RTVSPropertyOp13
 70
     0
102
RTVSPropertyOp14
 70
     2
102
RTVSPropertyOp15
 70
     0
102
RTVSPropertyOp16
 70
     0
102
RTVSPropertyOp17
 70
     0
102
RTVSPropertyOp18
 70
     0
102
RTVSPropertyOp19
 70
     0
102
RTVSPropertyOp20
 70
     0
102
RTVSPropertyOp21
 70
     0
102
RTVSPropertyOp22
 70
     0
102
RTVSPropertyOp23
 70
     0
102
RTVSPropertyOp24
 70
     0
102
RTVSPropertyOp25
 70
     0
102
RTVSPropertyOp26
 70
     0
102
RTVSPropertyOp27
 70
     0
102
RTVSPropertyOp28
 70
     0
102
RTVSPropertyOp29
 70
     0
102
RTVSPropertyOp30
 70
     0
102
RTVSPropertyOp31
 70
     0
102
RTVSPropertyOp32
 70
     0
102
RTVSPropertyOp33
 70
     0
102
RTVSPropertyOp34
 70
     0
102
RTVSPropertyOp35
 70
     0
102
RTVSPropertyOp36
 70
     0
102
RTVSPropertyOp37
 70
     0
102
RTVSPropertyOp38
 70
     0
102
RTVSPropertyOp39
 70
     0
102
RTVSPropertyOp40
 70
     0
102
RTVSPropertyOp41
 70
     0
102
RTVSPropertyOp42
 70
     0
102
RTVSPropertyOp43
 70
     0
102
RTVSPropertyOp44
 70
     0
102
RTVSPropertyOp45
 70
     0
102
RTVSPropertyOp46
 70
     0
102
RTVSPropertyOp47
 70
     0
102
RTVSPropertyOp48
 70
     0
102
RTVSPropertyOp49
 70
     0
102
RTVSPropertyOp50
 70
     0
102
RTVSPropertyOp51
 70
     0
102
RTVSPropertyOp52
 70
     0
102
RTVSPropertyOp53
 70
     0
102
RTVSPropertyOp54
 70
     0
102
RTVSPropertyOp55
 70
     0
102
RTVSPropertyOp56
 70
     0
102
RTVSPropertyOp57
 70
     0
102
RTVSPropertyOp58
 70
     0
102
RTVSPropertyOp59
 70
     0
102
RTVSPropertyOp60
 70
     0
102
RTVSPropertyOp61
 70
     0
102
RTVSPropertyOp62
 70
     0
  0
XRECORD
  5
1B7
102
{ACAD_REACTORS
330
1B6
102
}
330
1B6
100
AcDbXrecord
280
     1
102
RTVSPost2010Prop28
280
     0
102
RTVSPost2010PropOp28
 70
     1
102
RTVSPost2010Prop29
280
     1
102
RTVSPost2010PropOp29
 70
     1
102
RTVSPost2010Prop30
280
     1
102
RTVSPost2010PropOp30
 70
     1
102
RTVSPost2010Prop31
280
     0
102
RTVSPost2010PropOp31
 70
     1
102
RTVSPost2010Prop32
280
     0
102
RTVSPost2010PropOp32
 70
     1
102
RTVSPost2010Prop33
280
     0
102
RTVSPost2010PropOp33
 70
     1
102
RTVSPost2010Prop34
280
     0
102
RTVSPost2010PropOp34
 70
     1
102
RTVSPost2010Prop35
280
     0
102
RTVSPost2010PropOp35
 70
     1
102
RTVSPost2010Prop36
280
     0
102
RTVSPost2010PropOp36
 70
     1
102
RTVSPost2010Prop37
 90
       50
102
RTVSPost2010PropOp37
 70
     1
102
RTVSPost2010Prop38
140
0.0
102
RTVSPost2010PropOp38
 70
     1
102
RTVSPost2010Prop39
140
1.0
102
RTVSPost2010PropOp39
 70
     1
102
RTVSPost2010Prop40
 90
        0
102
RTVSPost2010PropOp40
 70
     1
102
RTVSPost2010Prop41ColorIndex
 90
       18
102
RTVSPost2010Prop41ColorRGB
 90
        0
102
RTVSPost2010PropOp41
 70
     1
102
RTVSPost2010Prop42
 90
       50
102
RTVSPost2010PropOp42
 70
     1
102
RTVSPost2010Prop43
 90
        3
102
RTVSPost2010PropOp43
 70
     1
102
RTVSPost2010Prop44ColorIndex
 90
        5
102
RTVSPost2010Prop44ColorRGB
 90
      255
102
RTVSPost2010PropOp44
 70
     1
102
RTVSPost2010Prop45
280
     0
102
RTVSPost2010PropOp45
 70
     1
102
RTVSPost2010Prop46
 90
       50
102
RTVSPost2010PropOp46
 70
     1
102
RTVSPost2010Prop47
 90
       50
102
RTVSPost2010PropOp47
 70
     1
102
RTVSPost2010Prop48
 90
       50
102
RTVSPost2010PropOp48
 70
     1
102
RTVSPost2010Prop49
280
     0
102
RTVSPost2010PropOp49
 70
     1
102
RTVSPost2010Prop50
 90
       50
102
RTVSPost2010PropOp50
 70
     1
102
RTVSPost2010Prop51ColorIndex
 90
      256
102
RTVSPost2010Prop51ColorRGB
 90
-16777216
102
RTVSPost2010PropOp51
 70
     0
102
RTVSPost2010Prop52
140
1.0
102
RTVSPost2010PropOp52
 70
     0
102
RTVSPost2010Prop53
 90
        2
102
RTVSPost2010PropOp53
 70
     1
102
RTVSPost2010Prop54
  1
strokes_ogs.tif
102
RTVSPost2010PropOp54
 70
     1
102
RTVSPost2010Prop55
280
     0
102
RTVSPost2010PropOp55
 70
     1
102
RTVSPost2010Prop56
140
1.0
102
RTVSPost2010PropOp56
 70
     1
102
RTVSPost2010Prop57
140
1.0
102
RTVSPost2010PropOp57
 70
     1
102
RTVSPropertyOp0
 70
     1
102
RTVSPropertyOp1
 70
     1
102
RTVSPropertyOp2
 70
     1
102
RTVSPropertyOp3
 70
     1
102
RTVSPropertyOp4
 70
     1
102
RTVSPropertyOp5
 70
     1
102
RTVSPropertyOp6
 70
     1
102
RTVSPropertyOp7
 70
     1
102
RTVSPropertyOp8
 70
     1
102
RTVSPropertyOp9
 70
     1
102
RTVSPropertyOp10
 70
     1
102
RTVSPropertyOp11
 70
     1
102
RTVSPropertyOp12
 70
     1
102
RTVSPropertyOp13
 70
     1
102
RTVSPropertyOp14
 70
     1
102
RTVSPropertyOp15
 70
     1
102
RTVSPropertyOp16
 70
     1
102
RTVSPropertyOp17
 70
     1
102
RTVSPropertyOp18
 70
     1
102
RTVSPropertyOp19
 70
     1
102
RTVSPropertyOp20
 70
     1
102
RTVSPropertyOp21
 70
     1
102
RTVSPropertyOp22
 70
     1
102
RTVSPropertyOp23
 70
     1
102
RTVSPropertyOp24
 70
     1
102
RTVSPropertyOp25
 70
     1
102
RTVSPropertyOp26
 70
     1
102
RTVSPropertyOp27
 70
     1
102
RTVSPropertyOp28
 70
     1
102
RTVSPropertyOp29
 70
     1
102
RTVSPropertyOp30
 70
     1
102
RTVSPropertyOp31
 70
     1
102
RTVSPropertyOp32
 70
     1
102
RTVSPropertyOp33
 70
     1
102
RTVSPropertyOp34
 70
     1
102
RTVSPropertyOp35
 70
     1
102
RTVSPropertyOp36
 70
     1
102
RTVSPropertyOp37
 70
     1
102
RTVSPropertyOp38
 70
     1
102
RTVSPropertyOp39
 70
     1
102
RTVSPropertyOp40
 70
     1
102
RTVSPropertyOp41
 70
     1
102
RTVSPropertyOp42
 70
     1
102
RTVSPropertyOp43
 70
     1
102
RTVSPropertyOp44
 70
     1
102
RTVSPropertyOp45
 70
     1
102
RTVSPropertyOp46
 70
     1
102
RTVSPropertyOp47
 70
     1
102
RTVSPropertyOp48
 70
     1
102
RTVSPropertyOp49
 70
     1
102
RTVSPropertyOp50
 70
     1
102
RTVSPropertyOp51
 70
     0
102
RTVSPropertyOp52
 70
     0
102
RTVSPropertyOp53
 70
     1
102
RTVSPropertyOp54
 70
     1
102
RTVSPropertyOp55
 70
     1
102
RTVSPropertyOp56
 70
     1
102
RTVSPropertyOp57
 70
     1
102
RTVSPropertyOp58
 70
     1
102
RTVSPropertyOp59
 70
     1
102
RTVSPropertyOp60
 70
     1
102
RTVSPropertyOp61
 70
     1
102
RTVSPropertyOp62
 70
     1
  0
XRECORD
  5
19B
102
{ACAD_REACTORS
330
19A
102
}
330
19A
100
AcDbXrecord
280
     1
102
RTVSPost2010Prop28
280
     0
102
RTVSPost2010PropOp28
 70
     1
102
RTVSPost2010Prop29
280
     1
102
RTVSPost2010PropOp29
 70
     1
102
RTVSPost2010Prop30
280
     1
102
RTVSPost2010PropOp30
 70
     1
102
RTVSPost2010Prop31
280
     0
102
RTVSPost2010PropOp31
 70
     1
102
RTVSPost2010Prop32
280
     0
102
RTVSPost2010PropOp32
 70
     1
102
RTVSPost2010Prop33
280
     0
102
RTVSPost2010PropOp33
 70
     1
102
RTVSPost2010Prop34
280
     0
102
RTVSPost2010PropOp34
 70
     1
102
RTVSPost2010Prop35
280
     0
102
RTVSPost2010PropOp35
 70
     1
102
RTVSPost2010Prop36
280
     0
102
RTVSPost2010PropOp36
 70
     1
102
RTVSPost2010Prop37
 90
       50
102
RTVSPost2010PropOp37
 70
     1
102
RTVSPost2010Prop38
140
0.0
102
RTVSPost2010PropOp38
 70
     1
102
RTVSPost2010Prop39
140
1.0
102
RTVSPost2010PropOp39
 70
     1
102
RTVSPost2010Prop40
 90
        0
102
RTVSPost2010PropOp40
 70
     1
102
RTVSPost2010Prop41ColorIndex
 90
       18
102
RTVSPost2010Prop41ColorRGB
 90
        0
102
RTVSPost2010PropOp41
 70
     1
102
RTVSPost2010Prop42
 90
       50
102
RTVSPost2010PropOp42
 70
     1
102
RTVSPost2010Prop43
 90
        3
102
RTVSPost2010PropOp43
 70
     1
102
RTVSPost2010Prop44ColorIndex
 90
        5
102
RTVSPost2010Prop44ColorRGB
 90
      255
102
RTVSPost2010PropOp44
 70
     1
102
RTVSPost2010Prop45
280
     0
102
RTVSPost2010PropOp45
 70
     1
102
RTVSPost2010Prop46
 90
       50
102
RTVSPost2010PropOp46
 70
     1
102
RTVSPost2010Prop47
 90
       50
102
RTVSPost2010PropOp47
 70
     1
102
RTVSPost2010Prop48
 90
       50
102
RTVSPost2010PropOp48
 70
     1
102
RTVSPost2010Prop49
280
     0
102
RTVSPost2010PropOp49
 70
     1
102
RTVSPost2010Prop50
 90
       50
102
RTVSPost2010PropOp50
 70
     1
102
RTVSPost2010Prop51ColorIndex
 90
      256
102
RTVSPost2010Prop51ColorRGB
 90
-16777216
102
RTVSPost2010PropOp51
 70
     0
102
RTVSPost2010Prop52
140
1.0
102
RTVSPost2010PropOp52
 70
     0
102
RTVSPost2010Prop53
 90
        2
102
RTVSPost2010PropOp53
 70
     1
102
RTVSPost2010Prop54
  1
strokes_ogs.tif
102
RTVSPost2010PropOp54
 70
     1
102
RTVSPost2010Prop55
280
     0
102
RTVSPost2010PropOp55
 70
     1
102
RTVSPost2010Prop56
140
1.0
102
RTVSPost2010PropOp56
 70
     1
102
RTVSPost2010Prop57
140
1.0
102
RTVSPost2010PropOp57
 70
     1
102
RTVSPropertyOp0
 70
     1
102
RTVSPropertyOp1
 70
     1
102
RTVSPropertyOp2
 70
     1
102
RTVSPropertyOp3
 70
     1
102
RTVSPropertyOp4
 70
     1
102
RTVSPropertyOp5
 70
     1
102
RTVSPropertyOp6
 70
     1
102
RTVSPropertyOp7
 70
     1
102
RTVSPropertyOp8
 70
     1
102
RTVSPropertyOp9
 70
     1
102
RTVSPropertyOp10
 70
     1
102
RTVSPropertyOp11
 70
     1
102
RTVSPropertyOp12
 70
     1
102
RTVSPropertyOp13
 70
     1
102
RTVSPropertyOp14
 70
     1
102
RTVSPropertyOp15
 70
     1
102
RTVSPropertyOp16
 70
     1
102
RTVSPropertyOp17
 70
     1
102
RTVSPropertyOp18
 70
     1
102
RTVSPropertyOp19
 70
     1
102
RTVSPropertyOp20
 70
     1
102
RTVSPropertyOp21
 70
     1
102
RTVSPropertyOp22
 70
     1
102
RTVSPropertyOp23
 70
     1
102
RTVSPropertyOp24
 70
     1
102
RTVSPropertyOp25
 70
     1
102
RTVSPropertyOp26
 70
     1
102
RTVSPropertyOp27
 70
     1
102
RTVSPropertyOp28
 70
     1
102
RTVSPropertyOp29
 70
     1
102
RTVSPropertyOp30
 70
     1
102
RTVSPropertyOp31
 70
     1
102
RTVSPropertyOp32
 70
     1
102
RTVSPropertyOp33
 70
     1
102
RTVSPropertyOp34
 70
     1
102
RTVSPropertyOp35
 70
     1
102
RTVSPropertyOp36
 70
     1
102
RTVSPropertyOp37
 70
     1
102
RTVSPropertyOp38
 70
     1
102
RTVSPropertyOp39
 70
     1
102
RTVSPropertyOp40
 70
     1
102
RTVSPropertyOp41
 70
     1
102
RTVSPropertyOp42
 70
     1
102
RTVSPropertyOp43
 70
     1
102
RTVSPropertyOp44
 70
     1
102
RTVSPropertyOp45
 70
     1
102
RTVSPropertyOp46
 70
     1
102
RTVSPropertyOp47
 70
     1
102
RTVSPropertyOp48
 70
     1
102
RTVSPropertyOp49
 70
     1
102
RTVSPropertyOp50
 70
     1
102
RTVSPropertyOp51
 70
     0
102
RTVSPropertyOp52
 70
     0
102
RTVSPropertyOp53
 70
     1
102
RTVSPropertyOp54
 70
     1
102
RTVSPropertyOp55
 70
     1
102
RTVSPropertyOp56
 70
     1
102
RTVSPropertyOp57
 70
     1
102
RTVSPropertyOp58
 70
     1
102
RTVSPropertyOp59
 70
     1
102
RTVSPropertyOp60
 70
     1
102
RTVSPropertyOp61
 70
     1
102
RTVSPropertyOp62
 70
     1
  0
XRECORD
  5
19D
102
{ACAD_REACTORS
330
19C
102
}
330
19C
100
AcDbXrecord
280
     1
102
RTVSPost2010Prop28
280
     0
102
RTVSPost2010PropOp28
 70
     1
102
RTVSPost2010Prop29
280
     1
102
RTVSPost2010PropOp29
 70
     1
102
RTVSPost2010Prop30
280
     1
102
RTVSPost2010PropOp30
 70
     1
102
RTVSPost2010Prop31
280
     0
102
RTVSPost2010PropOp31
 70
     1
102
RTVSPost2010Prop32
280
     0
102
RTVSPost2010PropOp32
 70
     1
102
RTVSPost2010Prop33
280
     0
102
RTVSPost2010PropOp33
 70
     1
102
RTVSPost2010Prop34
280
     0
102
RTVSPost2010PropOp34
 70
     1
102
RTVSPost2010Prop35
280
     0
102
RTVSPost2010PropOp35
 70
     1
102
RTVSPost2010Prop36
280
     0
102
RTVSPost2010PropOp36
 70
     1
102
RTVSPost2010Prop37
 90
       50
102
RTVSPost2010PropOp37
 70
     1
102
RTVSPost2010Prop38
140
0.0
102
RTVSPost2010PropOp38
 70
     1
102
RTVSPost2010Prop39
140
1.0
102
RTVSPost2010PropOp39
 70
     1
102
RTVSPost2010Prop40
 90
        0
102
RTVSPost2010PropOp40
 70
     1
102
RTVSPost2010Prop41ColorIndex
 90
       18
102
RTVSPost2010Prop41ColorRGB
 90
        0
102
RTVSPost2010PropOp41
 70
     1
102
RTVSPost2010Prop42
 90
       50
102
RTVSPost2010PropOp42
 70
     1
102
RTVSPost2010Prop43
 90
        3
102
RTVSPost2010PropOp43
 70
     1
102
RTVSPost2010Prop44ColorIndex
 90
        5
102
RTVSPost2010Prop44ColorRGB
 90
      255
102
RTVSPost2010PropOp44
 70
     1
102
RTVSPost2010Prop45
280
     0
102
RTVSPost2010PropOp45
 70
     1
102
RTVSPost2010Prop46
 90
       50
102
RTVSPost2010PropOp46
 70
     1
102
RTVSPost2010Prop47
 90
       50
102
RTVSPost2010PropOp47
 70
     1
102
RTVSPost2010Prop48
 90
       50
102
RTVSPost2010PropOp48
 70
     1
102
RTVSPost2010Prop49
280
     0
102
RTVSPost2010PropOp49
 70
     1
102
RTVSPost2010Prop50
 90
       50
102
RTVSPost2010PropOp50
 70
     1
102
RTVSPost2010Prop51ColorIndex
 90
      256
102
RTVSPost2010Prop51ColorRGB
 90
-16777216
102
RTVSPost2010PropOp51
 70
     0
102
RTVSPost2010Prop52
140
1.0
102
RTVSPost2010PropOp52
 70
     0
102
RTVSPost2010Prop53
 90
        2
102
RTVSPost2010PropOp53
 70
     1
102
RTVSPost2010Prop54
  1
strokes_ogs.tif
102
RTVSPost2010PropOp54
 70
     1
102
RTVSPost2010Prop55
280
     0
102
RTVSPost2010PropOp55
 70
     1
102
RTVSPost2010Prop56
140
1.0
102
RTVSPost2010PropOp56
 70
     1
102
RTVSPost2010Prop57
140
1.0
102
RTVSPost2010PropOp57
 70
     1
102
RTVSPropertyOp0
 70
     1
102
RTVSPropertyOp1
 70
     1
102
RTVSPropertyOp2
 70
     1
102
RTVSPropertyOp3
 70
     1
102
RTVSPropertyOp4
 70
     1
102
RTVSPropertyOp5
 70
     1
102
RTVSPropertyOp6
 70
     1
102
RTVSPropertyOp7
 70
     1
102
RTVSPropertyOp8
 70
     1
102
RTVSPropertyOp9
 70
     1
102
RTVSPropertyOp10
 70
     1
102
RTVSPropertyOp11
 70
     1
102
RTVSPropertyOp12
 70
     1
102
RTVSPropertyOp13
 70
     1
102
RTVSPropertyOp14
 70
     1
102
RTVSPropertyOp15
 70
     1
102
RTVSPropertyOp16
 70
     1
102
RTVSPropertyOp17
 70
     1
102
RTVSPropertyOp18
 70
     1
102
RTVSPropertyOp19
 70
     1
102
RTVSPropertyOp20
 70
     1
102
RTVSPropertyOp21
 70
     1
102
RTVSPropertyOp22
 70
     1
102
RTVSPropertyOp23
 70
     1
102
RTVSPropertyOp24
 70
     1
102
RTVSPropertyOp25
 70
     1
102
RTVSPropertyOp26
 70
     1
102
RTVSPropertyOp27
 70
     1
102
RTVSPropertyOp28
 70
     1
102
RTVSPropertyOp29
 70
     1
102
RTVSPropertyOp30
 70
     1
102
RTVSPropertyOp31
 70
     1
102
RTVSPropertyOp32
 70
     1
102
RTVSPropertyOp33
 70
     1
102
RTVSPropertyOp34
 70
     1
102
RTVSPropertyOp35
 70
     1
102
RTVSPropertyOp36
 70
     1
102
RTVSPropertyOp37
 70
     1
102
RTVSPropertyOp38
 70
     1
102
RTVSPropertyOp39
 70
     1
102
RTVSPropertyOp40
 70
     1
102
RTVSPropertyOp41
 70
     1
102
RTVSPropertyOp42
 70
     1
102
RTVSPropertyOp43
 70
     1
102
RTVSPropertyOp44
 70
     1
102
RTVSPropertyOp45
 70
     1
102
RTVSPropertyOp46
 70
     1
102
RTVSPropertyOp47
 70
     1
102
RTVSPropertyOp48
 70
     1
102
RTVSPropertyOp49
 70
     1
102
RTVSPropertyOp50
 70
     1
102
RTVSPropertyOp51
 70
     0
102
RTVSPropertyOp52
 70
     0
102
RTVSPropertyOp53
 70
     1
102
RTVSPropertyOp54
 70
     1
102
RTVSPropertyOp55
 70
     1
102
RTVSPropertyOp56
 70
     1
102
RTVSPropertyOp57
 70
     1
102
RTVSPropertyOp58
 70
     1
102
RTVSPropertyOp59
 70
     1
102
RTVSPropertyOp60
 70
     1
102
RTVSPropertyOp61
 70
     1
102
RTVSPropertyOp62
 70
     1
  0
XRECORD
  5
19F
102
{ACAD_REACTORS
330
19E
102
}
330
19E
100
AcDbXrecord
280
     1
102
RTVSPost2010Prop28
280
     0
102
RTVSPost2010PropOp28
 70
     1
102
RTVSPost2010Prop29
280
     1
102
RTVSPost2010PropOp29
 70
     1
102
RTVSPost2010Prop30
280
     1
102
RTVSPost2010PropOp30
 70
     1
102
RTVSPost2010Prop31
280
     0
102
RTVSPost2010PropOp31
 70
     1
102
RTVSPost2010Prop32
280
     0
102
RTVSPost2010PropOp32
 70
     1
102
RTVSPost2010Prop33
280
     0
102
RTVSPost2010PropOp33
 70
     1
102
RTVSPost2010Prop34
280
     0
102
RTVSPost2010PropOp34
 70
     1
102
RTVSPost2010Prop35
280
     0
102
RTVSPost2010PropOp35
 70
     1
102
RTVSPost2010Prop36
280
     0
102
RTVSPost2010PropOp36
 70
     1
102
RTVSPost2010Prop37
 90
       50
102
RTVSPost2010PropOp37
 70
     1
102
RTVSPost2010Prop38
140
0.0
102
RTVSPost2010PropOp38
 70
     1
102
RTVSPost2010Prop39
140
1.0
102
RTVSPost2010PropOp39
 70
     1
102
RTVSPost2010Prop40
 90
        0
102
RTVSPost2010PropOp40
 70
     1
102
RTVSPost2010Prop41ColorIndex
 90
       18
102
RTVSPost2010Prop41ColorRGB
 90
        0
102
RTVSPost2010PropOp41
 70
     1
102
RTVSPost2010Prop42
 90
       50
102
RTVSPost2010PropOp42
 70
     1
102
RTVSPost2010Prop43
 90
        3
102
RTVSPost2010PropOp43
 70
     1
102
RTVSPost2010Prop44ColorIndex
 90
        5
102
RTVSPost2010Prop44ColorRGB
 90
      255
102
RTVSPost2010PropOp44
 70
     1
102
RTVSPost2010Prop45
280
     0
102
RTVSPost2010PropOp45
 70
     1
102
RTVSPost2010Prop46
 90
       50
102
RTVSPost2010PropOp46
 70
     1
102
RTVSPost2010Prop47
 90
       50
102
RTVSPost2010PropOp47
 70
     1
102
RTVSPost2010Prop48
 90
       50
102
RTVSPost2010PropOp48
 70
     1
102
RTVSPost2010Prop49
280
     0
102
RTVSPost2010PropOp49
 70
     1
102
RTVSPost2010Prop50
 90
       50
102
RTVSPost2010PropOp50
 70
     1
102
RTVSPost2010Prop51ColorIndex
 90
      256
102
RTVSPost2010Prop51ColorRGB
 90
-16777216
102
RTVSPost2010PropOp51
 70
     0
102
RTVSPost2010Prop52
140
1.0
102
RTVSPost2010PropOp52
 70
     0
102
RTVSPost2010Prop53
 90
        2
102
RTVSPost2010PropOp53
 70
     1
102
RTVSPost2010Prop54
  1
strokes_ogs.tif
102
RTVSPost2010PropOp54
 70
     1
102
RTVSPost2010Prop55
280
     0
102
RTVSPost2010PropOp55
 70
     1
102
RTVSPost2010Prop56
140
1.0
102
RTVSPost2010PropOp56
 70
     1
102
RTVSPost2010Prop57
140
1.0
102
RTVSPost2010PropOp57
 70
     1
102
RTVSPropertyOp0
 70
     1
102
RTVSPropertyOp1
 70
     1
102
RTVSPropertyOp2
 70
     1
102
RTVSPropertyOp3
 70
     1
102
RTVSPropertyOp4
 70
     1
102
RTVSPropertyOp5
 70
     1
102
RTVSPropertyOp6
 70
     1
102
RTVSPropertyOp7
 70
     1
102
RTVSPropertyOp8
 70
     1
102
RTVSPropertyOp9
 70
     1
102
RTVSPropertyOp10
 70
     1
102
RTVSPropertyOp11
 70
     1
102
RTVSPropertyOp12
 70
     1
102
RTVSPropertyOp13
 70
     1
102
RTVSPropertyOp14
 70
     1
102
RTVSPropertyOp15
 70
     1
102
RTVSPropertyOp16
 70
     1
102
RTVSPropertyOp17
 70
     1
102
RTVSPropertyOp18
 70
     1
102
RTVSPropertyOp19
 70
     1
102
RTVSPropertyOp20
 70
     1
102
RTVSPropertyOp21
 70
     1
102
RTVSPropertyOp22
 70
     1
102
RTVSPropertyOp23
 70
     1
102
RTVSPropertyOp24
 70
     1
102
RTVSPropertyOp25
 70
     1
102
RTVSPropertyOp26
 70
     1
102
RTVSPropertyOp27
 70
     1
102
RTVSPropertyOp28
 70
     1
102
RTVSPropertyOp29
 70
     1
102
RTVSPropertyOp30
 70
     1
102
RTVSPropertyOp31
 70
     1
102
RTVSPropertyOp32
 70
     1
102
RTVSPropertyOp33
 70
     1
102
RTVSPropertyOp34
 70
     1
102
RTVSPropertyOp35
 70
     1
102
RTVSPropertyOp36
 70
     1
102
RTVSPropertyOp37
 70
     1
102
RTVSPropertyOp38
 70
     1
102
RTVSPropertyOp39
 70
     1
102
RTVSPropertyOp40
 70
     1
102
RTVSPropertyOp41
 70
     1
102
RTVSPropertyOp42
 70
     1
102
RTVSPropertyOp43
 70
     1
102
RTVSPropertyOp44
 70
     1
102
RTVSPropertyOp45
 70
     1
102
RTVSPropertyOp46
 70
     1
102
RTVSPropertyOp47
 70
     1
102
RTVSPropertyOp48
 70
     1
102
RTVSPropertyOp49
 70
     1
102
RTVSPropertyOp50
 70
     1
102
RTVSPropertyOp51
 70
     0
102
RTVSPropertyOp52
 70
     0
102
RTVSPropertyOp53
 70
     1
102
RTVSPropertyOp54
 70
     1
102
RTVSPropertyOp55
 70
     1
102
RTVSPropertyOp56
 70
     1
102
RTVSPropertyOp57
 70
     1
102
RTVSPropertyOp58
 70
     1
102
RTVSPropertyOp59
 70
     1
102
RTVSPropertyOp60
 70
     1
102
RTVSPropertyOp61
 70
     1
102
RTVSPropertyOp62
 70
     1
  0
XRECORD
  5
1A1
102
{ACAD_REACTORS
330
1A0
102
}
330
1A0
100
AcDbXrecord
280
     1
102
RTVSPost2010Prop28
280
     0
102
RTVSPost2010PropOp28
 70
     1
102
RTVSPost2010Prop29
280
     1
102
RTVSPost2010PropOp29
 70
     1
102
RTVSPost2010Prop30
280
     1
102
RTVSPost2010PropOp30
 70
     1
102
RTVSPost2010Prop31
280
     0
102
RTVSPost2010PropOp31
 70
     1
102
RTVSPost2010Prop32
280
     0
102
RTVSPost2010PropOp32
 70
     1
102
RTVSPost2010Prop33
280
     0
102
RTVSPost2010PropOp33
 70
     1
102
RTVSPost2010Prop34
280
     0
102
RTVSPost2010PropOp34
 70
     1
102
RTVSPost2010Prop35
280
     0
102
RTVSPost2010PropOp35
 70
     1
102
RTVSPost2010Prop36
280
     0
102
RTVSPost2010PropOp36
 70
     1
102
RTVSPost2010Prop37
 90
       50
102
RTVSPost2010PropOp37
 70
     1
102
RTVSPost2010Prop38
140
0.0
102
RTVSPost2010PropOp38
 70
     1
102
RTVSPost2010Prop39
140
1.0
102
RTVSPost2010PropOp39
 70
     1
102
RTVSPost2010Prop40
 90
        0
102
RTVSPost2010PropOp40
 70
     1
102
RTVSPost2010Prop41ColorIndex
 90
       18
102
RTVSPost2010Prop41ColorRGB
 90
        0
102
RTVSPost2010PropOp41
 70
     1
102
RTVSPost2010Prop42
 90
       50
102
RTVSPost2010PropOp42
 70
     1
102
RTVSPost2010Prop43
 90
        3
102
RTVSPost2010PropOp43
 70
     1
102
RTVSPost2010Prop44ColorIndex
 90
        5
102
RTVSPost2010Prop44ColorRGB
 90
      255
102
RTVSPost2010PropOp44
 70
     1
102
RTVSPost2010Prop45
280
     0
102
RTVSPost2010PropOp45
 70
     1
102
RTVSPost2010Prop46
 90
       50
102
RTVSPost2010PropOp46
 70
     1
102
RTVSPost2010Prop47
 90
       50
102
RTVSPost2010PropOp47
 70
     1
102
RTVSPost2010Prop48
 90
       50
102
RTVSPost2010PropOp48
 70
     1
102
RTVSPost2010Prop49
280
     0
102
RTVSPost2010PropOp49
 70
     1
102
RTVSPost2010Prop50
 90
       50
102
RTVSPost2010PropOp50
 70
     1
102
RTVSPost2010Prop51ColorIndex
 90
      256
102
RTVSPost2010Prop51ColorRGB
 90
-16777216
102
RTVSPost2010PropOp51
 70
     0
102
RTVSPost2010Prop52
140
1.0
102
RTVSPost2010PropOp52
 70
     0
102
RTVSPost2010Prop53
 90
        2
102
RTVSPost2010PropOp53
 70
     1
102
RTVSPost2010Prop54
  1
strokes_ogs.tif
102
RTVSPost2010PropOp54
 70
     1
102
RTVSPost2010Prop55
280
     0
102
RTVSPost2010PropOp55
 70
     1
102
RTVSPost2010Prop56
140
1.0
102
RTVSPost2010PropOp56
 70
     1
102
RTVSPost2010Prop57
140
1.0
102
RTVSPost2010PropOp57
 70
     1
102
RTVSPropertyOp0
 70
     1
102
RTVSPropertyOp1
 70
     1
102
RTVSPropertyOp2
 70
     1
102
RTVSPropertyOp3
 70
     1
102
RTVSPropertyOp4
 70
     1
102
RTVSPropertyOp5
 70
     1
102
RTVSPropertyOp6
 70
     1
102
RTVSPropertyOp7
 70
     1
102
RTVSPropertyOp8
 70
     1
102
RTVSPropertyOp9
 70
     1
102
RTVSPropertyOp10
 70
     1
102
RTVSPropertyOp11
 70
     1
102
RTVSPropertyOp12
 70
     1
102
RTVSPropertyOp13
 70
     1
102
RTVSPropertyOp14
 70
     1
102
RTVSPropertyOp15
 70
     1
102
RTVSPropertyOp16
 70
     1
102
RTVSPropertyOp17
 70
     1
102
RTVSPropertyOp18
 70
     1
102
RTVSPropertyOp19
 70
     1
102
RTVSPropertyOp20
 70
     1
102
RTVSPropertyOp21
 70
     1
102
RTVSPropertyOp22
 70
     1
102
RTVSPropertyOp23
 70
     1
102
RTVSPropertyOp24
 70
     1
102
RTVSPropertyOp25
 70
     1
102
RTVSPropertyOp26
 70
     1
102
RTVSPropertyOp27
 70
     1
102
RTVSPropertyOp28
 70
     1
102
RTVSPropertyOp29
 70
     1
102
RTVSPropertyOp30
 70
     1
102
RTVSPropertyOp31
 70
     1
102
RTVSPropertyOp32
 70
     1
102
RTVSPropertyOp33
 70
     1
102
RTVSPropertyOp34
 70
     1
102
RTVSPropertyOp35
 70
     1
102
RTVSPropertyOp36
 70
     1
102
RTVSPropertyOp37
 70
     1
102
RTVSPropertyOp38
 70
     1
102
RTVSPropertyOp39
 70
     1
102
RTVSPropertyOp40
 70
     1
102
RTVSPropertyOp41
 70
     1
102
RTVSPropertyOp42
 70
     1
102
RTVSPropertyOp43
 70
     1
102
RTVSPropertyOp44
 70
     1
102
RTVSPropertyOp45
 70
     1
102
RTVSPropertyOp46
 70
     1
102
RTVSPropertyOp47
 70
     1
102
RTVSPropertyOp48
 70
     1
102
RTVSPropertyOp49
 70
     1
102
RTVSPropertyOp50
 70
     1
102
RTVSPropertyOp51
 70
     0
102
RTVSPropertyOp52
 70
     0
102
RTVSPropertyOp53
 70
     1
102
RTVSPropertyOp54
 70
     1
102
RTVSPropertyOp55
 70
     1
102
RTVSPropertyOp56
 70
     1
102
RTVSPropertyOp57
 70
     1
102
RTVSPropertyOp58
 70
     1
102
RTVSPropertyOp59
 70
     1
102
RTVSPropertyOp60
 70
     1
102
RTVSPropertyOp61
 70
     1
102
RTVSPropertyOp62
 70
     1
  0
XRECORD
  5
1A9
102
{ACAD_REACTORS
330
1A8
102
}
330
1A8
100
AcDbXrecord
280
     1
102
RTVSPost2010Prop28
280
     0
102
RTVSPost2010PropOp28
 70
     1
102
RTVSPost2010Prop29
280
     1
102
RTVSPost2010PropOp29
 70
     1
102
RTVSPost2010Prop30
280
     1
102
RTVSPost2010PropOp30
 70
     1
102
RTVSPost2010Prop31
280
     0
102
RTVSPost2010PropOp31
 70
     1
102
RTVSPost2010Prop32
280
     0
102
RTVSPost2010PropOp32
 70
     1
102
RTVSPost2010Prop33
280
     0
102
RTVSPost2010PropOp33
 70
     1
102
RTVSPost2010Prop34
280
     0
102
RTVSPost2010PropOp34
 70
     1
102
RTVSPost2010Prop35
280
     0
102
RTVSPost2010PropOp35
 70
     1
102
RTVSPost2010Prop36
280
     0
102
RTVSPost2010PropOp36
 70
     1
102
RTVSPost2010Prop37
 90
       50
102
RTVSPost2010PropOp37
 70
     1
102
RTVSPost2010Prop38
140
0.0
102
RTVSPost2010PropOp38
 70
     1
102
RTVSPost2010Prop39
140
1.0
102
RTVSPost2010PropOp39
 70
     1
102
RTVSPost2010Prop40
 90
        0
102
RTVSPost2010PropOp40
 70
     1
102
RTVSPost2010Prop41ColorIndex
 90
       18
102
RTVSPost2010Prop41ColorRGB
 90
        0
102
RTVSPost2010PropOp41
 70
     1
102
RTVSPost2010Prop42
 90
       50
102
RTVSPost2010PropOp42
 70
     1
102
RTVSPost2010Prop43
 90
        3
102
RTVSPost2010PropOp43
 70
     1
102
RTVSPost2010Prop44ColorIndex
 90
        5
102
RTVSPost2010Prop44ColorRGB
 90
      255
102
RTVSPost2010PropOp44
 70
     1
102
RTVSPost2010Prop45
280
     0
102
RTVSPost2010PropOp45
 70
     1
102
RTVSPost2010Prop46
 90
       50
102
RTVSPost2010PropOp46
 70
     1
102
RTVSPost2010Prop47
 90
       50
102
RTVSPost2010PropOp47
 70
     1
102
RTVSPost2010Prop48
 90
       50
102
RTVSPost2010PropOp48
 70
     1
102
RTVSPost2010Prop49
280
     0
102
RTVSPost2010PropOp49
 70
     1
102
RTVSPost2010Prop50
 90
       50
102
RTVSPost2010PropOp50
 70
     1
102
RTVSPost2010Prop51ColorIndex
 90
      256
102
RTVSPost2010Prop51ColorRGB
 90
-16777216
102
RTVSPost2010PropOp51
 70
     0
102
RTVSPost2010Prop52
140
1.0
102
RTVSPost2010PropOp52
 70
     0
102
RTVSPost2010Prop53
 90
        2
102
RTVSPost2010PropOp53
 70
     1
102
RTVSPost2010Prop54
  1
strokes_ogs.tif
102
RTVSPost2010PropOp54
 70
     1
102
RTVSPost2010Prop55
280
     0
102
RTVSPost2010PropOp55
 70
     1
102
RTVSPost2010Prop56
140
1.0
102
RTVSPost2010PropOp56
 70
     1
102
RTVSPost2010Prop57
140
1.0
102
RTVSPost2010PropOp57
 70
     1
102
RTVSPropertyOp0
 70
     1
102
RTVSPropertyOp1
 70
     1
102
RTVSPropertyOp2
 70
     1
102
RTVSPropertyOp3
 70
     1
102
RTVSPropertyOp4
 70
     1
102
RTVSPropertyOp5
 70
     1
102
RTVSPropertyOp6
 70
     1
102
RTVSPropertyOp7
 70
     1
102
RTVSPropertyOp8
 70
     1
102
RTVSPropertyOp9
 70
     1
102
RTVSPropertyOp10
 70
     1
102
RTVSPropertyOp11
 70
     1
102
RTVSPropertyOp12
 70
     1
102
RTVSPropertyOp13
 70
     1
102
RTVSPropertyOp14
 70
     1
102
RTVSPropertyOp15
 70
     1
102
RTVSPropertyOp16
 70
     1
102
RTVSPropertyOp17
 70
     1
102
RTVSPropertyOp18
 70
     1
102
RTVSPropertyOp19
 70
     1
102
RTVSPropertyOp20
 70
     1
102
RTVSPropertyOp21
 70
     1
102
RTVSPropertyOp22
 70
     1
102
RTVSPropertyOp23
 70
     1
102
RTVSPropertyOp24
 70
     1
102
RTVSPropertyOp25
 70
     1
102
RTVSPropertyOp26
 70
     1
102
RTVSPropertyOp27
 70
     1
102
RTVSPropertyOp28
 70
     1
102
RTVSPropertyOp29
 70
     1
102
RTVSPropertyOp30
 70
     1
102
RTVSPropertyOp31
 70
     1
102
RTVSPropertyOp32
 70
     1
102
RTVSPropertyOp33
 70
     1
102
RTVSPropertyOp34
 70
     1
102
RTVSPropertyOp35
 70
     1
102
RTVSPropertyOp36
 70
     1
102
RTVSPropertyOp37
 70
     1
102
RTVSPropertyOp38
 70
     1
102
RTVSPropertyOp39
 70
     1
102
RTVSPropertyOp40
 70
     1
102
RTVSPropertyOp41
 70
     1
102
RTVSPropertyOp42
 70
     1
102
RTVSPropertyOp43
 70
     1
102
RTVSPropertyOp44
 70
     1
102
RTVSPropertyOp45
 70
     1
102
RTVSPropertyOp46
 70
     1
102
RTVSPropertyOp47
 70
     1
102
RTVSPropertyOp48
 70
     1
102
RTVSPropertyOp49
 70
     1
102
RTVSPropertyOp50
 70
     1
102
RTVSPropertyOp51
 70
     0
102
RTVSPropertyOp52
 70
     0
102
RTVSPropertyOp53
 70
     1
102
RTVSPropertyOp54
 70
     1
102
RTVSPropertyOp55
 70
     1
102
RTVSPropertyOp56
 70
     1
102
RTVSPropertyOp57
 70
     1
102
RTVSPropertyOp58
 70
     1
102
RTVSPropertyOp59
 70
     1
102
RTVSPropertyOp60
 70
     1
102
RTVSPropertyOp61
 70
     1
102
RTVSPropertyOp62
 70
     1
  0
XRECORD
  5
1C5
102
{ACAD_REACTORS
330
1C4
102
}
330
1C4
100
AcDbXrecord
280
     1
102
RTVSPost2010Prop28
280
     0
102
RTVSPost2010PropOp28
 70
     0
102
RTVSPost2010Prop29
280
     1
102
RTVSPost2010PropOp29
 70
     0
102
RTVSPost2010Prop30
280
     1
102
RTVSPost2010PropOp30
 70
     0
102
RTVSPost2010Prop31
280
     0
102
RTVSPost2010PropOp31
 70
     0
102
RTVSPost2010Prop32
280
     0
102
RTVSPost2010PropOp32
 70
     0
102
RTVSPost2010Prop33
280
     0
102
RTVSPost2010PropOp33
 70
     0
102
RTVSPost2010Prop34
280
     0
102
RTVSPost2010PropOp34
 70
     0
102
RTVSPost2010Prop35
280
     0
102
RTVSPost2010PropOp35
 70
     0
102
RTVSPost2010Prop36
280
     0
102
RTVSPost2010PropOp36
 70
     0
102
RTVSPost2010Prop37
 90
       50
102
RTVSPost2010PropOp37
 70
     0
102
RTVSPost2010Prop38
140
0.0
102
RTVSPost2010PropOp38
 70
     0
102
RTVSPost2010Prop39
140
1.0
102
RTVSPost2010PropOp39
 70
     0
102
RTVSPost2010Prop40
 90
        0
102
RTVSPost2010PropOp40
 70
     0
102
RTVSPost2010Prop41ColorIndex
 90
       18
102
RTVSPost2010Prop41ColorRGB
 90
        0
102
RTVSPost2010PropOp41
 70
     0
102
RTVSPost2010Prop42
 90
       50
102
RTVSPost2010PropOp42
 70
     0
102
RTVSPost2010Prop43
 90
        3
102
RTVSPost2010PropOp43
 70
     0
102
RTVSPost2010Prop44ColorIndex
 90
        5
102
RTVSPost2010Prop44ColorRGB
 90
      255
102
RTVSPost2010PropOp44
 70
     0
102
RTVSPost2010Prop45
280
     0
102
RTVSPost2010PropOp45
 70
     0
102
RTVSPost2010Prop46
 90
       50
102
RTVSPost2010PropOp46
 70
     0
102
RTVSPost2010Prop47
 90
       50
102
RTVSPost2010PropOp47
 70
     0
102
RTVSPost2010Prop48
 90
       50
102
RTVSPost2010PropOp48
 70
     0
102
RTVSPost2010Prop49
280
     0
102
RTVSPost2010PropOp49
 70
     0
102
RTVSPost2010Prop50
 90
       50
102
RTVSPost2010PropOp50
 70
     0
102
RTVSPost2010Prop51ColorIndex
 90
      256
102
RTVSPost2010Prop51ColorRGB
 90
-16777216
102
RTVSPost2010PropOp51
 70
     0
102
RTVSPost2010Prop52
140
1.0
102
RTVSPost2010PropOp52
 70
     0
102
RTVSPost2010Prop53
 90
        2
102
RTVSPost2010PropOp53
 70
     0
102
RTVSPost2010Prop54
  1
strokes_ogs.tif
102
RTVSPost2010PropOp54
 70
     0
102
RTVSPost2010Prop55
280
     0
102
RTVSPost2010PropOp55
 70
     0
102
RTVSPost2010Prop56
140
1.0
102
RTVSPost2010PropOp56
 70
     0
102
RTVSPost2010Prop57
140
1.0
102
RTVSPost2010PropOp57
 70
     0
102
RTVSPropertyOp0
 70
     0
102
RTVSPropertyOp1
 70
     0
102
RTVSPropertyOp2
 70
     0
102
RTVSPropertyOp3
 70
     0
102
RTVSPropertyOp4
 70
     0
102
RTVSPropertyOp5
 70
     0
102
RTVSPropertyOp6
 70
     0
102
RTVSPropertyOp7
 70
     0
102
RTVSPropertyOp8
 70
     0
102
RTVSPropertyOp9
 70
     0
102
RTVSPropertyOp10
 70
     0
102
RTVSPropertyOp11
 70
     0
102
RTVSPropertyOp12
 70
     0
102
RTVSPropertyOp13
 70
     0
102
RTVSPropertyOp14
 70
     2
102
RTVSPropertyOp15
 70
     0
102
RTVSPropertyOp16
 70
     0
102
RTVSPropertyOp17
 70
     0
102
RTVSPropertyOp18
 70
     0
102
RTVSPropertyOp19
 70
     0
102
RTVSPropertyOp20
 70
     0
102
RTVSPropertyOp21
 70
     0
102
RTVSPropertyOp22
 70
     0
102
RTVSPropertyOp23
 70
     0
102
RTVSPropertyOp24
 70
     0
102
RTVSPropertyOp25
 70
     0
102
RTVSPropertyOp26
 70
     0
102
RTVSPropertyOp27
 70
     0
102
RTVSPropertyOp28
 70
     0
102
RTVSPropertyOp29
 70
     0
102
RTVSPropertyOp30
 70
     0
102
RTVSPropertyOp31
 70
     0
102
RTVSPropertyOp32
 70
     0
102
RTVSPropertyOp33
 70
     0
102
RTVSPropertyOp34
 70
     0
102
RTVSPropertyOp35
 70
     0
102
RTVSPropertyOp36
 70
     0
102
RTVSPropertyOp37
 70
     0
102
RTVSPropertyOp38
 70
     0
102
RTVSPropertyOp39
 70
     0
102
RTVSPropertyOp40
 70
     0
102
RTVSPropertyOp41
 70
     0
102
RTVSPropertyOp42
 70
     0
102
RTVSPropertyOp43
 70
     0
102
RTVSPropertyOp44
 70
     0
102
RTVSPropertyOp45
 70
     0
102
RTVSPropertyOp46
 70
     0
102
RTVSPropertyOp47
 70
     0
102
RTVSPropertyOp48
 70
     0
102
RTVSPropertyOp49
 70
     0
102
RTVSPropertyOp50
 70
     0
102
RTVSPropertyOp51
 70
     0
102
RTVSPropertyOp52
 70
     0
102
RTVSPropertyOp53
 70
     0
102
RTVSPropertyOp54
 70
     0
102
RTVSPropertyOp55
 70
     0
102
RTVSPropertyOp56
 70
     0
102
RTVSPropertyOp57
 70
     0
102
RTVSPropertyOp58
 70
     0
102
RTVSPropertyOp59
 70
     0
102
RTVSPropertyOp60
 70
     0
102
RTVSPropertyOp61
 70
     0
102
RTVSPropertyOp62
 70
     0
  0
XRECORD
  5
1B5
102
{ACAD_REACTORS
330
1B4
102
}
330
1B4
100
AcDbXrecord
280
     1
102
RTVSPost2010Prop28
280
     0
102
RTVSPost2010PropOp28
 70
     1
102
RTVSPost2010Prop29
280
     1
102
RTVSPost2010PropOp29
 70
     1
102
RTVSPost2010Prop30
280
     1
102
RTVSPost2010PropOp30
 70
     1
102
RTVSPost2010Prop31
280
     0
102
RTVSPost2010PropOp31
 70
     1
102
RTVSPost2010Prop32
280
     0
102
RTVSPost2010PropOp32
 70
     1
102
RTVSPost2010Prop33
280
     0
102
RTVSPost2010PropOp33
 70
     1
102
RTVSPost2010Prop34
280
     0
102
RTVSPost2010PropOp34
 70
     1
102
RTVSPost2010Prop35
280
     0
102
RTVSPost2010PropOp35
 70
     1
102
RTVSPost2010Prop36
280
     0
102
RTVSPost2010PropOp36
 70
     1
102
RTVSPost2010Prop37
 90
       50
102
RTVSPost2010PropOp37
 70
     1
102
RTVSPost2010Prop38
140
0.0
102
RTVSPost2010PropOp38
 70
     1
102
RTVSPost2010Prop39
140
1.0
102
RTVSPost2010PropOp39
 70
     1
102
RTVSPost2010Prop40
 90
        0
102
RTVSPost2010PropOp40
 70
     1
102
RTVSPost2010Prop41ColorIndex
 90
       18
102
RTVSPost2010Prop41ColorRGB
 90
        0
102
RTVSPost2010PropOp41
 70
     1
102
RTVSPost2010Prop42
 90
       50
102
RTVSPost2010PropOp42
 70
     1
102
RTVSPost2010Prop43
 90
        3
102
RTVSPost2010PropOp43
 70
     1
102
RTVSPost2010Prop44ColorIndex
 90
        5
102
RTVSPost2010Prop44ColorRGB
 90
      255
102
RTVSPost2010PropOp44
 70
     1
102
RTVSPost2010Prop45
280
     0
102
RTVSPost2010PropOp45
 70
     1
102
RTVSPost2010Prop46
 90
       50
102
RTVSPost2010PropOp46
 70
     1
102
RTVSPost2010Prop47
 90
       50
102
RTVSPost2010PropOp47
 70
     1
102
RTVSPost2010Prop48
 90
       50
102
RTVSPost2010PropOp48
 70
     1
102
RTVSPost2010Prop49
280
     0
102
RTVSPost2010PropOp49
 70
     1
102
RTVSPost2010Prop50
 90
       50
102
RTVSPost2010PropOp50
 70
     1
102
RTVSPost2010Prop51ColorIndex
 90
      256
102
RTVSPost2010Prop51ColorRGB
 90
-16777216
102
RTVSPost2010PropOp51
 70
     0
102
RTVSPost2010Prop52
140
1.0
102
RTVSPost2010PropOp52
 70
     0
102
RTVSPost2010Prop53
 90
        2
102
RTVSPost2010PropOp53
 70
     1
102
RTVSPost2010Prop54
  1
strokes_ogs.tif
102
RTVSPost2010PropOp54
 70
     1
102
RTVSPost2010Prop55
280
     0
102
RTVSPost2010PropOp55
 70
     1
102
RTVSPost2010Prop56
140
1.0
102
RTVSPost2010PropOp56
 70
     1
102
RTVSPost2010Prop57
140
1.0
102
RTVSPost2010PropOp57
 70
     1
102
RTVSPropertyOp0
 70
     1
102
RTVSPropertyOp1
 70
     1
102
RTVSPropertyOp2
 70
     1
102
RTVSPropertyOp3
 70
     1
102
RTVSPropertyOp4
 70
     1
102
RTVSPropertyOp5
 70
     1
102
RTVSPropertyOp6
 70
     1
102
RTVSPropertyOp7
 70
     1
102
RTVSPropertyOp8
 70
     1
102
RTVSPropertyOp9
 70
     1
102
RTVSPropertyOp10
 70
     1
102
RTVSPropertyOp11
 70
     1
102
RTVSPropertyOp12
 70
     1
102
RTVSPropertyOp13
 70
     1
102
RTVSPropertyOp14
 70
     1
102
RTVSPropertyOp15
 70
     1
102
RTVSPropertyOp16
 70
     1
102
RTVSPropertyOp17
 70
     1
102
RTVSPropertyOp18
 70
     1
102
RTVSPropertyOp19
 70
     1
102
RTVSPropertyOp20
 70
     1
102
RTVSPropertyOp21
 70
     1
102
RTVSPropertyOp22
 70
     1
102
RTVSPropertyOp23
 70
     1
102
RTVSPropertyOp24
 70
     1
102
RTVSPropertyOp25
 70
     1
102
RTVSPropertyOp26
 70
     1
102
RTVSPropertyOp27
 70
     1
102
RTVSPropertyOp28
 70
     1
102
RTVSPropertyOp29
 70
     1
102
RTVSPropertyOp30
 70
     1
102
RTVSPropertyOp31
 70
     1
102
RTVSPropertyOp32
 70
     1
102
RTVSPropertyOp33
 70
     1
102
RTVSPropertyOp34
 70
     1
102
RTVSPropertyOp35
 70
     1
102
RTVSPropertyOp36
 70
     1
102
RTVSPropertyOp37
 70
     1
102
RTVSPropertyOp38
 70
     1
102
RTVSPropertyOp39
 70
     1
102
RTVSPropertyOp40
 70
     1
102
RTVSPropertyOp41
 70
     1
102
RTVSPropertyOp42
 70
     1
102
RTVSPropertyOp43
 70
     1
102
RTVSPropertyOp44
 70
     1
102
RTVSPropertyOp45
 70
     1
102
RTVSPropertyOp46
 70
     1
102
RTVSPropertyOp47
 70
     1
102
RTVSPropertyOp48
 70
     1
102
RTVSPropertyOp49
 70
     1
102
RTVSPropertyOp50
 70
     1
102
RTVSPropertyOp51
 70
     0
102
RTVSPropertyOp52
 70
     0
102
RTVSPropertyOp53
 70
     1
102
RTVSPropertyOp54
 70
     1
102
RTVSPropertyOp55
 70
     1
102
RTVSPropertyOp56
 70
     1
102
RTVSPropertyOp57
 70
     1
102
RTVSPropertyOp58
 70
     1
102
RTVSPropertyOp59
 70
     1
102
RTVSPropertyOp60
 70
     1
102
RTVSPropertyOp61
 70
     1
102
RTVSPropertyOp62
 70
     1
  0
XRECORD
  5
1C7
102
{ACAD_REACTORS
330
1C6
102
}
330
1C6
100
AcDbXrecord
280
     1
102
RTVSPost2010Prop28
280
     0
102
RTVSPost2010PropOp28
 70
     0
102
RTVSPost2010Prop29
280
     1
102
RTVSPost2010PropOp29
 70
     0
102
RTVSPost2010Prop30
280
     1
102
RTVSPost2010PropOp30
 70
     0
102
RTVSPost2010Prop31
280
     0
102
RTVSPost2010PropOp31
 70
     0
102
RTVSPost2010Prop32
280
     0
102
RTVSPost2010PropOp32
 70
     0
102
RTVSPost2010Prop33
280
     0
102
RTVSPost2010PropOp33
 70
     0
102
RTVSPost2010Prop34
280
     0
102
RTVSPost2010PropOp34
 70
     0
102
RTVSPost2010Prop35
280
     0
102
RTVSPost2010PropOp35
 70
     0
102
RTVSPost2010Prop36
280
     0
102
RTVSPost2010PropOp36
 70
     0
102
RTVSPost2010Prop37
 90
       50
102
RTVSPost2010PropOp37
 70
     0
102
RTVSPost2010Prop38
140
0.0
102
RTVSPost2010PropOp38
 70
     0
102
RTVSPost2010Prop39
140
1.0
102
RTVSPost2010PropOp39
 70
     0
102
RTVSPost2010Prop40
 90
        0
102
RTVSPost2010PropOp40
 70
     0
102
RTVSPost2010Prop41ColorIndex
 90
       18
102
RTVSPost2010Prop41ColorRGB
 90
        0
102
RTVSPost2010PropOp41
 70
     0
102
RTVSPost2010Prop42
 90
       50
102
RTVSPost2010PropOp42
 70
     0
102
RTVSPost2010Prop43
 90
        3
102
RTVSPost2010PropOp43
 70
     0
102
RTVSPost2010Prop44ColorIndex
 90
        5
102
RTVSPost2010Prop44ColorRGB
 90
      255
102
RTVSPost2010PropOp44
 70
     0
102
RTVSPost2010Prop45
280
     0
102
RTVSPost2010PropOp45
 70
     0
102
RTVSPost2010Prop46
 90
       50
102
RTVSPost2010PropOp46
 70
     0
102
RTVSPost2010Prop47
 90
       50
102
RTVSPost2010PropOp47
 70
     0
102
RTVSPost2010Prop48
 90
       50
102
RTVSPost2010PropOp48
 70
     0
102
RTVSPost2010Prop49
280
     0
102
RTVSPost2010PropOp49
 70
     0
102
RTVSPost2010Prop50
 90
       50
102
RTVSPost2010PropOp50
 70
     0
102
RTVSPost2010Prop51ColorIndex
 90
      256
102
RTVSPost2010Prop51ColorRGB
 90
-16777216
102
RTVSPost2010PropOp51
 70
     0
102
RTVSPost2010Prop52
140
1.0
102
RTVSPost2010PropOp52
 70
     0
102
RTVSPost2010Prop53
 90
        2
102
RTVSPost2010PropOp53
 70
     0
102
RTVSPost2010Prop54
  1
strokes_ogs.tif
102
RTVSPost2010PropOp54
 70
     0
102
RTVSPost2010Prop55
280
     0
102
RTVSPost2010PropOp55
 70
     0
102
RTVSPost2010Prop56
140
1.0
102
RTVSPost2010PropOp56
 70
     0
102
RTVSPost2010Prop57
140
1.0
102
RTVSPost2010PropOp57
 70
     0
102
RTVSPropertyOp0
 70
     0
102
RTVSPropertyOp1
 70
     0
102
RTVSPropertyOp2
 70
     0
102
RTVSPropertyOp3
 70
     0
102
RTVSPropertyOp4
 70
     0
102
RTVSPropertyOp5
 70
     0
102
RTVSPropertyOp6
 70
     0
102
RTVSPropertyOp7
 70
     0
102
RTVSPropertyOp8
 70
     0
102
RTVSPropertyOp9
 70
     0
102
RTVSPropertyOp10
 70
     0
102
RTVSPropertyOp11
 70
     0
102
RTVSPropertyOp12
 70
     0
102
RTVSPropertyOp13
 70
     0
102
RTVSPropertyOp14
 70
     2
102
RTVSPropertyOp15
 70
     0
102
RTVSPropertyOp16
 70
     0
102
RTVSPropertyOp17
 70
     0
102
RTVSPropertyOp18
 70
     0
102
RTVSPropertyOp19
 70
     0
102
RTVSPropertyOp20
 70
     0
102
RTVSPropertyOp21
 70
     0
102
RTVSPropertyOp22
 70
     0
102
RTVSPropertyOp23
 70
     0
102
RTVSPropertyOp24
 70
     0
102
RTVSPropertyOp25
 70
     0
102
RTVSPropertyOp26
 70
     0
102
RTVSPropertyOp27
 70
     0
102
RTVSPropertyOp28
 70
     0
102
RTVSPropertyOp29
 70
     0
102
RTVSPropertyOp30
 70
     0
102
RTVSPropertyOp31
 70
     0
102
RTVSPropertyOp32
 70
     0
102
RTVSPropertyOp33
 70
     0
102
RTVSPropertyOp34
 70
     0
102
RTVSPropertyOp35
 70
     0
102
RTVSPropertyOp36
 70
     0
102
RTVSPropertyOp37
 70
     0
102
RTVSPropertyOp38
 70
     0
102
RTVSPropertyOp39
 70
     0
102
RTVSPropertyOp40
 70
     0
102
RTVSPropertyOp41
 70
     0
102
RTVSPropertyOp42
 70
     0
102
RTVSPropertyOp43
 70
     0
102
RTVSPropertyOp44
 70
     0
102
RTVSPropertyOp45
 70
     0
102
RTVSPropertyOp46
 70
     0
102
RTVSPropertyOp47
 70
     0
102
RTVSPropertyOp48
 70
     0
102
RTVSPropertyOp49
 70
     0
102
RTVSPropertyOp50
 70
     0
102
RTVSPropertyOp51
 70
     0
102
RTVSPropertyOp52
 70
     0
102
RTVSPropertyOp53
 70
     0
102
RTVSPropertyOp54
 70
     0
102
RTVSPropertyOp55
 70
     0
102
RTVSPropertyOp56
 70
     0
102
RTVSPropertyOp57
 70
     0
102
RTVSPropertyOp58
 70
     0
102
RTVSPropertyOp59
 70
     0
102
RTVSPropertyOp60
 70
     0
102
RTVSPropertyOp61
 70
     0
102
RTVSPropertyOp62
 70
     0
  0
XRECORD
  5
1AD
102
{ACAD_REACTORS
330
1AC
102
}
330
1AC
100
AcDbXrecord
280
     1
102
RTVSPost2010Prop28
280
     0
102
RTVSPost2010PropOp28
 70
     1
102
RTVSPost2010Prop29
280
     1
102
RTVSPost2010PropOp29
 70
     1
102
RTVSPost2010Prop30
280
     1
102
RTVSPost2010PropOp30
 70
     1
102
RTVSPost2010Prop31
280
     0
102
RTVSPost2010PropOp31
 70
     1
102
RTVSPost2010Prop32
280
     0
102
RTVSPost2010PropOp32
 70
     1
102
RTVSPost2010Prop33
280
     0
102
RTVSPost2010PropOp33
 70
     1
102
RTVSPost2010Prop34
280
     0
102
RTVSPost2010PropOp34
 70
     1
102
RTVSPost2010Prop35
280
     0
102
RTVSPost2010PropOp35
 70
     1
102
RTVSPost2010Prop36
280
     0
102
RTVSPost2010PropOp36
 70
     1
102
RTVSPost2010Prop37
 90
       50
102
RTVSPost2010PropOp37
 70
     1
102
RTVSPost2010Prop38
140
0.0
102
RTVSPost2010PropOp38
 70
     1
102
RTVSPost2010Prop39
140
1.0
102
RTVSPost2010PropOp39
 70
     1
102
RTVSPost2010Prop40
 90
        0
102
RTVSPost2010PropOp40
 70
     1
102
RTVSPost2010Prop41ColorIndex
 90
       18
102
RTVSPost2010Prop41ColorRGB
 90
        0
102
RTVSPost2010PropOp41
 70
     1
102
RTVSPost2010Prop42
 90
       50
102
RTVSPost2010PropOp42
 70
     1
102
RTVSPost2010Prop43
 90
        3
102
RTVSPost2010PropOp43
 70
     1
102
RTVSPost2010Prop44ColorIndex
 90
        5
102
RTVSPost2010Prop44ColorRGB
 90
      255
102
RTVSPost2010PropOp44
 70
     1
102
RTVSPost2010Prop45
280
     0
102
RTVSPost2010PropOp45
 70
     1
102
RTVSPost2010Prop46
 90
       50
102
RTVSPost2010PropOp46
 70
     1
102
RTVSPost2010Prop47
 90
       50
102
RTVSPost2010PropOp47
 70
     1
102
RTVSPost2010Prop48
 90
       50
102
RTVSPost2010PropOp48
 70
     1
102
RTVSPost2010Prop49
280
     0
102
RTVSPost2010PropOp49
 70
     1
102
RTVSPost2010Prop50
 90
       50
102
RTVSPost2010PropOp50
 70
     1
102
RTVSPost2010Prop51ColorIndex
 90
      256
102
RTVSPost2010Prop51ColorRGB
 90
-16777216
102
RTVSPost2010PropOp51
 70
     0
102
RTVSPost2010Prop52
140
1.0
102
RTVSPost2010PropOp52
 70
     0
102
RTVSPost2010Prop53
 90
        2
102
RTVSPost2010PropOp53
 70
     1
102
RTVSPost2010Prop54
  1
strokes_ogs.tif
102
RTVSPost2010PropOp54
 70
     1
102
RTVSPost2010Prop55
280
     0
102
RTVSPost2010PropOp55
 70
     1
102
RTVSPost2010Prop56
140
1.0
102
RTVSPost2010PropOp56
 70
     1
102
RTVSPost2010Prop57
140
1.0
102
RTVSPost2010PropOp57
 70
     1
102
RTVSPropertyOp0
 70
     1
102
RTVSPropertyOp1
 70
     1
102
RTVSPropertyOp2
 70
     1
102
RTVSPropertyOp3
 70
     1
102
RTVSPropertyOp4
 70
     1
102
RTVSPropertyOp5
 70
     1
102
RTVSPropertyOp6
 70
     1
102
RTVSPropertyOp7
 70
     1
102
RTVSPropertyOp8
 70
     1
102
RTVSPropertyOp9
 70
     1
102
RTVSPropertyOp10
 70
     1
102
RTVSPropertyOp11
 70
     1
102
RTVSPropertyOp12
 70
     1
102
RTVSPropertyOp13
 70
     1
102
RTVSPropertyOp14
 70
     1
102
RTVSPropertyOp15
 70
     1
102
RTVSPropertyOp16
 70
     1
102
RTVSPropertyOp17
 70
     1
102
RTVSPropertyOp18
 70
     1
102
RTVSPropertyOp19
 70
     1
102
RTVSPropertyOp20
 70
     1
102
RTVSPropertyOp21
 70
     1
102
RTVSPropertyOp22
 70
     1
102
RTVSPropertyOp23
 70
     1
102
RTVSPropertyOp24
 70
     1
102
RTVSPropertyOp25
 70
     1
102
RTVSPropertyOp26
 70
     1
102
RTVSPropertyOp27
 70
     1
102
RTVSPropertyOp28
 70
     1
102
RTVSPropertyOp29
 70
     1
102
RTVSPropertyOp30
 70
     1
102
RTVSPropertyOp31
 70
     1
102
RTVSPropertyOp32
 70
     1
102
RTVSPropertyOp33
 70
     1
102
RTVSPropertyOp34
 70
     1
102
RTVSPropertyOp35
 70
     1
102
RTVSPropertyOp36
 70
     1
102
RTVSPropertyOp37
 70
     1
102
RTVSPropertyOp38
 70
     1
102
RTVSPropertyOp39
 70
     1
102
RTVSPropertyOp40
 70
     1
102
RTVSPropertyOp41
 70
     1
102
RTVSPropertyOp42
 70
     1
102
RTVSPropertyOp43
 70
     1
102
RTVSPropertyOp44
 70
     1
102
RTVSPropertyOp45
 70
     1
102
RTVSPropertyOp46
 70
     1
102
RTVSPropertyOp47
 70
     1
102
RTVSPropertyOp48
 70
     1
102
RTVSPropertyOp49
 70
     1
102
RTVSPropertyOp50
 70
     1
102
RTVSPropertyOp51
 70
     0
102
RTVSPropertyOp52
 70
     0
102
RTVSPropertyOp53
 70
     1
102
RTVSPropertyOp54
 70
     1
102
RTVSPropertyOp55
 70
     1
102
RTVSPropertyOp56
 70
     1
102
RTVSPropertyOp57
 70
     1
102
RTVSPropertyOp58
 70
     1
102
RTVSPropertyOp59
 70
     1
102
RTVSPropertyOp60
 70
     1
102
RTVSPropertyOp61
 70
     1
102
RTVSPropertyOp62
 70
     1
  0
XRECORD
  5
1C3
102
{ACAD_REACTORS
330
1C2
102
}
330
1C2
100
AcDbXrecord
280
     1
102
RTVSPost2010Prop28
280
     0
102
RTVSPost2010PropOp28
 70
     1
102
RTVSPost2010Prop29
280
     1
102
RTVSPost2010PropOp29
 70
     1
102
RTVSPost2010Prop30
280
     1
102
RTVSPost2010PropOp30
 70
     1
102
RTVSPost2010Prop31
280
     0
102
RTVSPost2010PropOp31
 70
     1
102
RTVSPost2010Prop32
280
     0
102
RTVSPost2010PropOp32
 70
     1
102
RTVSPost2010Prop33
280
     0
102
RTVSPost2010PropOp33
 70
     1
102
RTVSPost2010Prop34
280
     0
102
RTVSPost2010PropOp34
 70
     1
102
RTVSPost2010Prop35
280
     0
102
RTVSPost2010PropOp35
 70
     1
102
RTVSPost2010Prop36
280
     0
102
RTVSPost2010PropOp36
 70
     1
102
RTVSPost2010Prop37
 90
       50
102
RTVSPost2010PropOp37
 70
     1
102
RTVSPost2010Prop38
140
0.0
102
RTVSPost2010PropOp38
 70
     1
102
RTVSPost2010Prop39
140
1.0
102
RTVSPost2010PropOp39
 70
     1
102
RTVSPost2010Prop40
 90
        0
102
RTVSPost2010PropOp40
 70
     1
102
RTVSPost2010Prop41ColorIndex
 90
       18
102
RTVSPost2010Prop41ColorRGB
 90
        0
102
RTVSPost2010PropOp41
 70
     1
102
RTVSPost2010Prop42
 90
       50
102
RTVSPost2010PropOp42
 70
     1
102
RTVSPost2010Prop43
 90
        3
102
RTVSPost2010PropOp43
 70
     1
102
RTVSPost2010Prop44ColorIndex
 90
        5
102
RTVSPost2010Prop44ColorRGB
 90
      255
102
RTVSPost2010PropOp44
 70
     1
102
RTVSPost2010Prop45
280
     0
102
RTVSPost2010PropOp45
 70
     1
102
RTVSPost2010Prop46
 90
       50
102
RTVSPost2010PropOp46
 70
     1
102
RTVSPost2010Prop47
 90
       50
102
RTVSPost2010PropOp47
 70
     1
102
RTVSPost2010Prop48
 90
       50
102
RTVSPost2010PropOp48
 70
     1
102
RTVSPost2010Prop49
280
     0
102
RTVSPost2010PropOp49
 70
     1
102
RTVSPost2010Prop50
 90
       50
102
RTVSPost2010PropOp50
 70
     1
102
RTVSPost2010Prop51ColorIndex
 90
      256
102
RTVSPost2010Prop51ColorRGB
 90
-16777216
102
RTVSPost2010PropOp51
 70
     0
102
RTVSPost2010Prop52
140
1.0
102
RTVSPost2010PropOp52
 70
     0
102
RTVSPost2010Prop53
 90
        2
102
RTVSPost2010PropOp53
 70
     1
102
RTVSPost2010Prop54
  1
strokes_ogs.tif
102
RTVSPost2010PropOp54
 70
     1
102
RTVSPost2010Prop55
280
     0
102
RTVSPost2010PropOp55
 70
     1
102
RTVSPost2010Prop56
140
1.0
102
RTVSPost2010PropOp56
 70
     1
102
RTVSPost2010Prop57
140
1.0
102
RTVSPost2010PropOp57
 70
     1
102
RTVSPropertyOp0
 70
     1
102
RTVSPropertyOp1
 70
     1
102
RTVSPropertyOp2
 70
     1
102
RTVSPropertyOp3
 70
     1
102
RTVSPropertyOp4
 70
     1
102
RTVSPropertyOp5
 70
     1
102
RTVSPropertyOp6
 70
     1
102
RTVSPropertyOp7
 70
     1
102
RTVSPropertyOp8
 70
     1
102
RTVSPropertyOp9
 70
     1
102
RTVSPropertyOp10
 70
     1
102
RTVSPropertyOp11
 70
     1
102
RTVSPropertyOp12
 70
     1
102
RTVSPropertyOp13
 70
     1
102
RTVSPropertyOp14
 70
     1
102
RTVSPropertyOp15
 70
     1
102
RTVSPropertyOp16
 70
     1
102
RTVSPropertyOp17
 70
     1
102
RTVSPropertyOp18
 70
     1
102
RTVSPropertyOp19
 70
     1
102
RTVSPropertyOp20
 70
     1
102
RTVSPropertyOp21
 70
     1
102
RTVSPropertyOp22
 70
     1
102
RTVSPropertyOp23
 70
     1
102
RTVSPropertyOp24
 70
     1
102
RTVSPropertyOp25
 70
     1
102
RTVSPropertyOp26
 70
     1
102
RTVSPropertyOp27
 70
     1
102
RTVSPropertyOp28
 70
     1
102
RTVSPropertyOp29
 70
     1
102
RTVSPropertyOp30
 70
     1
102
RTVSPropertyOp31
 70
     1
102
RTVSPropertyOp32
 70
     1
102
RTVSPropertyOp33
 70
     1
102
RTVSPropertyOp34
 70
     1
102
RTVSPropertyOp35
 70
     1
102
RTVSPropertyOp36
 70
     1
102
RTVSPropertyOp37
 70
     1
102
RTVSPropertyOp38
 70
     1
102
RTVSPropertyOp39
 70
     1
102
RTVSPropertyOp40
 70
     1
102
RTVSPropertyOp41
 70
     1
102
RTVSPropertyOp42
 70
     1
102
RTVSPropertyOp43
 70
     1
102
RTVSPropertyOp44
 70
     1
102
RTVSPropertyOp45
 70
     1
102
RTVSPropertyOp46
 70
     1
102
RTVSPropertyOp47
 70
     1
102
RTVSPropertyOp48
 70
     1
102
RTVSPropertyOp49
 70
     1
102
RTVSPropertyOp50
 70
     1
102
RTVSPropertyOp51
 70
     0
102
RTVSPropertyOp52
 70
     0
102
RTVSPropertyOp53
 70
     1
102
RTVSPropertyOp54
 70
     1
102
RTVSPropertyOp55
 70
     1
102
RTVSPropertyOp56
 70
     1
102
RTVSPropertyOp57
 70
     1
102
RTVSPropertyOp58
 70
     1
102
RTVSPropertyOp59
 70
     1
102
RTVSPropertyOp60
 70
     1
102
RTVSPropertyOp61
 70
     1
102
RTVSPropertyOp62
 70
     1
  0
XRECORD
  5
1C1
102
{ACAD_REACTORS
330
1C0
102
}
330
1C0
100
AcDbXrecord
280
     1
102
RTVSPost2010Prop28
280
     0
102
RTVSPost2010PropOp28
 70
     1
102
RTVSPost2010Prop29
280
     1
102
RTVSPost2010PropOp29
 70
     1
102
RTVSPost2010Prop30
280
     1
102
RTVSPost2010PropOp30
 70
     1
102
RTVSPost2010Prop31
280
     0
102
RTVSPost2010PropOp31
 70
     1
102
RTVSPost2010Prop32
280
     0
102
RTVSPost2010PropOp32
 70
     1
102
RTVSPost2010Prop33
280
     0
102
RTVSPost2010PropOp33
 70
     1
102
RTVSPost2010Prop34
280
     0
102
RTVSPost2010PropOp34
 70
     1
102
RTVSPost2010Prop35
280
     0
102
RTVSPost2010PropOp35
 70
     1
102
RTVSPost2010Prop36
280
     0
102
RTVSPost2010PropOp36
 70
     1
102
RTVSPost2010Prop37
 90
       50
102
RTVSPost2010PropOp37
 70
     1
102
RTVSPost2010Prop38
140
0.0
102
RTVSPost2010PropOp38
 70
     1
102
RTVSPost2010Prop39
140
1.0
102
RTVSPost2010PropOp39
 70
     1
102
RTVSPost2010Prop40
 90
        0
102
RTVSPost2010PropOp40
 70
     1
102
RTVSPost2010Prop41ColorIndex
 90
       18
102
RTVSPost2010Prop41ColorRGB
 90
        0
102
RTVSPost2010PropOp41
 70
     1
102
RTVSPost2010Prop42
 90
       50
102
RTVSPost2010PropOp42
 70
     1
102
RTVSPost2010Prop43
 90
        3
102
RTVSPost2010PropOp43
 70
     1
102
RTVSPost2010Prop44ColorIndex
 90
        5
102
RTVSPost2010Prop44ColorRGB
 90
      255
102
RTVSPost2010PropOp44
 70
     1
102
RTVSPost2010Prop45
280
     0
102
RTVSPost2010PropOp45
 70
     1
102
RTVSPost2010Prop46
 90
       50
102
RTVSPost2010PropOp46
 70
     1
102
RTVSPost2010Prop47
 90
       50
102
RTVSPost2010PropOp47
 70
     1
102
RTVSPost2010Prop48
 90
       50
102
RTVSPost2010PropOp48
 70
     1
102
RTVSPost2010Prop49
280
     0
102
RTVSPost2010PropOp49
 70
     1
102
RTVSPost2010Prop50
 90
       50
102
RTVSPost2010PropOp50
 70
     1
102
RTVSPost2010Prop51ColorIndex
 90
      256
102
RTVSPost2010Prop51ColorRGB
 90
-16777216
102
RTVSPost2010PropOp51
 70
     0
102
RTVSPost2010Prop52
140
1.0
102
RTVSPost2010PropOp52
 70
     0
102
RTVSPost2010Prop53
 90
        2
102
RTVSPost2010PropOp53
 70
     1
102
RTVSPost2010Prop54
  1
strokes_ogs.tif
102
RTVSPost2010PropOp54
 70
     1
102
RTVSPost2010Prop55
280
     0
102
RTVSPost2010PropOp55
 70
     1
102
RTVSPost2010Prop56
140
1.0
102
RTVSPost2010PropOp56
 70
     1
102
RTVSPost2010Prop57
140
1.0
102
RTVSPost2010PropOp57
 70
     1
102
RTVSPropertyOp0
 70
     1
102
RTVSPropertyOp1
 70
     1
102
RTVSPropertyOp2
 70
     1
102
RTVSPropertyOp3
 70
     1
102
RTVSPropertyOp4
 70
     1
102
RTVSPropertyOp5
 70
     1
102
RTVSPropertyOp6
 70
     1
102
RTVSPropertyOp7
 70
     1
102
RTVSPropertyOp8
 70
     1
102
RTVSPropertyOp9
 70
     1
102
RTVSPropertyOp10
 70
     1
102
RTVSPropertyOp11
 70
     1
102
RTVSPropertyOp12
 70
     1
102
RTVSPropertyOp13
 70
     1
102
RTVSPropertyOp14
 70
     1
102
RTVSPropertyOp15
 70
     1
102
RTVSPropertyOp16
 70
     1
102
RTVSPropertyOp17
 70
     1
102
RTVSPropertyOp18
 70
     1
102
RTVSPropertyOp19
 70
     1
102
RTVSPropertyOp20
 70
     1
102
RTVSPropertyOp21
 70
     1
102
RTVSPropertyOp22
 70
     1
102
RTVSPropertyOp23
 70
     1
102
RTVSPropertyOp24
 70
     1
102
RTVSPropertyOp25
 70
     1
102
RTVSPropertyOp26
 70
     1
102
RTVSPropertyOp27
 70
     1
102
RTVSPropertyOp28
 70
     1
102
RTVSPropertyOp29
 70
     1
102
RTVSPropertyOp30
 70
     1
102
RTVSPropertyOp31
 70
     1
102
RTVSPropertyOp32
 70
     1
102
RTVSPropertyOp33
 70
     1
102
RTVSPropertyOp34
 70
     1
102
RTVSPropertyOp35
 70
     1
102
RTVSPropertyOp36
 70
     1
102
RTVSPropertyOp37
 70
     1
102
RTVSPropertyOp38
 70
     1
102
RTVSPropertyOp39
 70
     1
102
RTVSPropertyOp40
 70
     1
102
RTVSPropertyOp41
 70
     1
102
RTVSPropertyOp42
 70
     1
102
RTVSPropertyOp43
 70
     1
102
RTVSPropertyOp44
 70
     1
102
RTVSPropertyOp45
 70
     1
102
RTVSPropertyOp46
 70
     1
102
RTVSPropertyOp47
 70
     1
102
RTVSPropertyOp48
 70
     1
102
RTVSPropertyOp49
 70
     1
102
RTVSPropertyOp50
 70
     1
102
RTVSPropertyOp51
 70
     0
102
RTVSPropertyOp52
 70
     0
102
RTVSPropertyOp53
 70
     1
102
RTVSPropertyOp54
 70
     1
102
RTVSPropertyOp55
 70
     1
102
RTVSPropertyOp56
 70
     1
102
RTVSPropertyOp57
 70
     1
102
RTVSPropertyOp58
 70
     1
102
RTVSPropertyOp59
 70
     1
102
RTVSPropertyOp60
 70
     1
102
RTVSPropertyOp61
 70
     1
102
RTVSPropertyOp62
 70
     1
  0
XRECORD
  5
1BB
102
{ACAD_REACTORS
330
1BA
102
}
330
1BA
100
AcDbXrecord
280
     1
102
RTVSPost2010Prop28
280
     0
102
RTVSPost2010PropOp28
 70
     1
102
RTVSPost2010Prop29
280
     1
102
RTVSPost2010PropOp29
 70
     1
102
RTVSPost2010Prop30
280
     1
102
RTVSPost2010PropOp30
 70
     1
102
RTVSPost2010Prop31
280
     0
102
RTVSPost2010PropOp31
 70
     1
102
RTVSPost2010Prop32
280
     0
102
RTVSPost2010PropOp32
 70
     1
102
RTVSPost2010Prop33
280
     0
102
RTVSPost2010PropOp33
 70
     1
102
RTVSPost2010Prop34
280
     0
102
RTVSPost2010PropOp34
 70
     1
102
RTVSPost2010Prop35
280
     0
102
RTVSPost2010PropOp35
 70
     1
102
RTVSPost2010Prop36
280
     0
102
RTVSPost2010PropOp36
 70
     1
102
RTVSPost2010Prop37
 90
       50
102
RTVSPost2010PropOp37
 70
     1
102
RTVSPost2010Prop38
140
0.0
102
RTVSPost2010PropOp38
 70
     1
102
RTVSPost2010Prop39
140
1.0
102
RTVSPost2010PropOp39
 70
     1
102
RTVSPost2010Prop40
 90
        0
102
RTVSPost2010PropOp40
 70
     1
102
RTVSPost2010Prop41ColorIndex
 90
       18
102
RTVSPost2010Prop41ColorRGB
 90
        0
102
RTVSPost2010PropOp41
 70
     1
102
RTVSPost2010Prop42
 90
       50
102
RTVSPost2010PropOp42
 70
     1
102
RTVSPost2010Prop43
 90
        3
102
RTVSPost2010PropOp43
 70
     1
102
RTVSPost2010Prop44ColorIndex
 90
        5
102
RTVSPost2010Prop44ColorRGB
 90
      255
102
RTVSPost2010PropOp44
 70
     1
102
RTVSPost2010Prop45
280
     0
102
RTVSPost2010PropOp45
 70
     1
102
RTVSPost2010Prop46
 90
       50
102
RTVSPost2010PropOp46
 70
     1
102
RTVSPost2010Prop47
 90
       50
102
RTVSPost2010PropOp47
 70
     1
102
RTVSPost2010Prop48
 90
       50
102
RTVSPost2010PropOp48
 70
     1
102
RTVSPost2010Prop49
280
     0
102
RTVSPost2010PropOp49
 70
     1
102
RTVSPost2010Prop50
 90
       50
102
RTVSPost2010PropOp50
 70
     1
102
RTVSPost2010Prop51ColorIndex
 90
      256
102
RTVSPost2010Prop51ColorRGB
 90
-16777216
102
RTVSPost2010PropOp51
 70
     0
102
RTVSPost2010Prop52
140
1.0
102
RTVSPost2010PropOp52
 70
     0
102
RTVSPost2010Prop53
 90
        2
102
RTVSPost2010PropOp53
 70
     1
102
RTVSPost2010Prop54
  1
strokes_ogs.tif
102
RTVSPost2010PropOp54
 70
     1
102
RTVSPost2010Prop55
280
     0
102
RTVSPost2010PropOp55
 70
     1
102
RTVSPost2010Prop56
140
1.0
102
RTVSPost2010PropOp56
 70
     1
102
RTVSPost2010Prop57
140
1.0
102
RTVSPost2010PropOp57
 70
     1
102
RTVSPropertyOp0
 70
     1
102
RTVSPropertyOp1
 70
     1
102
RTVSPropertyOp2
 70
     1
102
RTVSPropertyOp3
 70
     1
102
RTVSPropertyOp4
 70
     1
102
RTVSPropertyOp5
 70
     1
102
RTVSPropertyOp6
 70
     1
102
RTVSPropertyOp7
 70
     1
102
RTVSPropertyOp8
 70
     1
102
RTVSPropertyOp9
 70
     1
102
RTVSPropertyOp10
 70
     1
102
RTVSPropertyOp11
 70
     1
102
RTVSPropertyOp12
 70
     1
102
RTVSPropertyOp13
 70
     1
102
RTVSPropertyOp14
 70
     1
102
RTVSPropertyOp15
 70
     1
102
RTVSPropertyOp16
 70
     1
102
RTVSPropertyOp17
 70
     1
102
RTVSPropertyOp18
 70
     1
102
RTVSPropertyOp19
 70
     1
102
RTVSPropertyOp20
 70
     1
102
RTVSPropertyOp21
 70
     1
102
RTVSPropertyOp22
 70
     1
102
RTVSPropertyOp23
 70
     1
102
RTVSPropertyOp24
 70
     1
102
RTVSPropertyOp25
 70
     1
102
RTVSPropertyOp26
 70
     1
102
RTVSPropertyOp27
 70
     1
102
RTVSPropertyOp28
 70
     1
102
RTVSPropertyOp29
 70
     1
102
RTVSPropertyOp30
 70
     1
102
RTVSPropertyOp31
 70
     1
102
RTVSPropertyOp32
 70
     1
102
RTVSPropertyOp33
 70
     1
102
RTVSPropertyOp34
 70
     1
102
RTVSPropertyOp35
 70
     1
102
RTVSPropertyOp36
 70
     1
102
RTVSPropertyOp37
 70
     1
102
RTVSPropertyOp38
 70
     1
102
RTVSPropertyOp39
 70
     1
102
RTVSPropertyOp40
 70
     1
102
RTVSPropertyOp41
 70
     1
102
RTVSPropertyOp42
 70
     1
102
RTVSPropertyOp43
 70
     1
102
RTVSPropertyOp44
 70
     1
102
RTVSPropertyOp45
 70
     1
102
RTVSPropertyOp46
 70
     1
102
RTVSPropertyOp47
 70
     1
102
RTVSPropertyOp48
 70
     1
102
RTVSPropertyOp49
 70
     1
102
RTVSPropertyOp50
 70
     1
102
RTVSPropertyOp51
 70
     0
102
RTVSPropertyOp52
 70
     0
102
RTVSPropertyOp53
 70
     1
102
RTVSPropertyOp54
 70
     1
102
RTVSPropertyOp55
 70
     1
102
RTVSPropertyOp56
 70
     1
102
RTVSPropertyOp57
 70
     1
102
RTVSPropertyOp58
 70
     1
102
RTVSPropertyOp59
 70
     1
102
RTVSPropertyOp60
 70
     1
102
RTVSPropertyOp61
 70
     1
102
RTVSPropertyOp62
 70
     1
  0
XRECORD
  5
1BD
102
{ACAD_REACTORS
330
1BC
102
}
330
1BC
100
AcDbXrecord
280
     1
102
RTVSPost2010Prop28
280
     0
102
RTVSPost2010PropOp28
 70
     1
102
RTVSPost2010Prop29
280
     1
102
RTVSPost2010PropOp29
 70
     1
102
RTVSPost2010Prop30
280
     1
102
RTVSPost2010PropOp30
 70
     1
102
RTVSPost2010Prop31
280
     0
102
RTVSPost2010PropOp31
 70
     1
102
RTVSPost2010Prop32
280
     0
102
RTVSPost2010PropOp32
 70
     1
102
RTVSPost2010Prop33
280
     0
102
RTVSPost2010PropOp33
 70
     1
102
RTVSPost2010Prop34
280
     0
102
RTVSPost2010PropOp34
 70
     1
102
RTVSPost2010Prop35
280
     0
102
RTVSPost2010PropOp35
 70
     1
102
RTVSPost2010Prop36
280
     0
102
RTVSPost2010PropOp36
 70
     1
102
RTVSPost2010Prop37
 90
       50
102
RTVSPost2010PropOp37
 70
     1
102
RTVSPost2010Prop38
140
0.0
102
RTVSPost2010PropOp38
 70
     1
102
RTVSPost2010Prop39
140
1.0
102
RTVSPost2010PropOp39
 70
     1
102
RTVSPost2010Prop40
 90
        0
102
RTVSPost2010PropOp40
 70
     1
102
RTVSPost2010Prop41ColorIndex
 90
       18
102
RTVSPost2010Prop41ColorRGB
 90
        0
102
RTVSPost2010PropOp41
 70
     1
102
RTVSPost2010Prop42
 90
       50
102
RTVSPost2010PropOp42
 70
     1
102
RTVSPost2010Prop43
 90
        3
102
RTVSPost2010PropOp43
 70
     1
102
RTVSPost2010Prop44ColorIndex
 90
        5
102
RTVSPost2010Prop44ColorRGB
 90
      255
102
RTVSPost2010PropOp44
 70
     1
102
RTVSPost2010Prop45
280
     0
102
RTVSPost2010PropOp45
 70
     1
102
RTVSPost2010Prop46
 90
       50
102
RTVSPost2010PropOp46
 70
     1
102
RTVSPost2010Prop47
 90
       50
102
RTVSPost2010PropOp47
 70
     1
102
RTVSPost2010Prop48
 90
       50
102
RTVSPost2010PropOp48
 70
     1
102
RTVSPost2010Prop49
280
     0
102
RTVSPost2010PropOp49
 70
     1
102
RTVSPost2010Prop50
 90
       50
102
RTVSPost2010PropOp50
 70
     1
102
RTVSPost2010Prop51ColorIndex
 90
      256
102
RTVSPost2010Prop51ColorRGB
 90
-16777216
102
RTVSPost2010PropOp51
 70
     0
102
RTVSPost2010Prop52
140
1.0
102
RTVSPost2010PropOp52
 70
     0
102
RTVSPost2010Prop53
 90
        2
102
RTVSPost2010PropOp53
 70
     1
102
RTVSPost2010Prop54
  1
strokes_ogs.tif
102
RTVSPost2010PropOp54
 70
     1
102
RTVSPost2010Prop55
280
     0
102
RTVSPost2010PropOp55
 70
     1
102
RTVSPost2010Prop56
140
1.0
102
RTVSPost2010PropOp56
 70
     1
102
RTVSPost2010Prop57
140
1.0
102
RTVSPost2010PropOp57
 70
     1
102
RTVSPropertyOp0
 70
     1
102
RTVSPropertyOp1
 70
     1
102
RTVSPropertyOp2
 70
     1
102
RTVSPropertyOp3
 70
     1
102
RTVSPropertyOp4
 70
     1
102
RTVSPropertyOp5
 70
     1
102
RTVSPropertyOp6
 70
     1
102
RTVSPropertyOp7
 70
     1
102
RTVSPropertyOp8
 70
     1
102
RTVSPropertyOp9
 70
     1
102
RTVSPropertyOp10
 70
     1
102
RTVSPropertyOp11
 70
     1
102
RTVSPropertyOp12
 70
     1
102
RTVSPropertyOp13
 70
     1
102
RTVSPropertyOp14
 70
     1
102
RTVSPropertyOp15
 70
     1
102
RTVSPropertyOp16
 70
     1
102
RTVSPropertyOp17
 70
     1
102
RTVSPropertyOp18
 70
     1
102
RTVSPropertyOp19
 70
     1
102
RTVSPropertyOp20
 70
     1
102
RTVSPropertyOp21
 70
     1
102
RTVSPropertyOp22
 70
     1
102
RTVSPropertyOp23
 70
     1
102
RTVSPropertyOp24
 70
     1
102
RTVSPropertyOp25
 70
     1
102
RTVSPropertyOp26
 70
     1
102
RTVSPropertyOp27
 70
     1
102
RTVSPropertyOp28
 70
     1
102
RTVSPropertyOp29
 70
     1
102
RTVSPropertyOp30
 70
     1
102
RTVSPropertyOp31
 70
     1
102
RTVSPropertyOp32
 70
     1
102
RTVSPropertyOp33
 70
     1
102
RTVSPropertyOp34
 70
     1
102
RTVSPropertyOp35
 70
     1
102
RTVSPropertyOp36
 70
     1
102
RTVSPropertyOp37
 70
     1
102
RTVSPropertyOp38
 70
     1
102
RTVSPropertyOp39
 70
     1
102
RTVSPropertyOp40
 70
     1
102
RTVSPropertyOp41
 70
     1
102
RTVSPropertyOp42
 70
     1
102
RTVSPropertyOp43
 70
     1
102
RTVSPropertyOp44
 70
     1
102
RTVSPropertyOp45
 70
     1
102
RTVSPropertyOp46
 70
     1
102
RTVSPropertyOp47
 70
     1
102
RTVSPropertyOp48
 70
     1
102
RTVSPropertyOp49
 70
     1
102
RTVSPropertyOp50
 70
     1
102
RTVSPropertyOp51
 70
     0
102
RTVSPropertyOp52
 70
     0
102
RTVSPropertyOp53
 70
     1
102
RTVSPropertyOp54
 70
     1
102
RTVSPropertyOp55
 70
     1
102
RTVSPropertyOp56
 70
     1
102
RTVSPropertyOp57
 70
     1
102
RTVSPropertyOp58
 70
     1
102
RTVSPropertyOp59
 70
     1
102
RTVSPropertyOp60
 70
     1
102
RTVSPropertyOp61
 70
     1
102
RTVSPropertyOp62
 70
     1
  0
XRECORD
  5
1B3
102
{ACAD_REACTORS
330
1B2
102
}
330
1B2
100
AcDbXrecord
280
     1
102
RTVSPost2010Prop28
280
     0
102
RTVSPost2010PropOp28
 70
     1
102
RTVSPost2010Prop29
280
     1
102
RTVSPost2010PropOp29
 70
     1
102
RTVSPost2010Prop30
280
     1
102
RTVSPost2010PropOp30
 70
     1
102
RTVSPost2010Prop31
280
     0
102
RTVSPost2010PropOp31
 70
     1
102
RTVSPost2010Prop32
280
     0
102
RTVSPost2010PropOp32
 70
     1
102
RTVSPost2010Prop33
280
     0
102
RTVSPost2010PropOp33
 70
     1
102
RTVSPost2010Prop34
280
     0
102
RTVSPost2010PropOp34
 70
     1
102
RTVSPost2010Prop35
280
     0
102
RTVSPost2010PropOp35
 70
     1
102
RTVSPost2010Prop36
280
     0
102
RTVSPost2010PropOp36
 70
     1
102
RTVSPost2010Prop37
 90
       50
102
RTVSPost2010PropOp37
 70
     1
102
RTVSPost2010Prop38
140
0.0
102
RTVSPost2010PropOp38
 70
     1
102
RTVSPost2010Prop39
140
1.0
102
RTVSPost2010PropOp39
 70
     1
102
RTVSPost2010Prop40
 90
        0
102
RTVSPost2010PropOp40
 70
     1
102
RTVSPost2010Prop41ColorIndex
 90
       18
102
RTVSPost2010Prop41ColorRGB
 90
        0
102
RTVSPost2010PropOp41
 70
     1
102
RTVSPost2010Prop42
 90
       50
102
RTVSPost2010PropOp42
 70
     1
102
RTVSPost2010Prop43
 90
        3
102
RTVSPost2010PropOp43
 70
     1
102
RTVSPost2010Prop44ColorIndex
 90
        5
102
RTVSPost2010Prop44ColorRGB
 90
      255
102
RTVSPost2010PropOp44
 70
     1
102
RTVSPost2010Prop45
280
     0
102
RTVSPost2010PropOp45
 70
     1
102
RTVSPost2010Prop46
 90
       50
102
RTVSPost2010PropOp46
 70
     1
102
RTVSPost2010Prop47
 90
       50
102
RTVSPost2010PropOp47
 70
     1
102
RTVSPost2010Prop48
 90
       50
102
RTVSPost2010PropOp48
 70
     1
102
RTVSPost2010Prop49
280
     0
102
RTVSPost2010PropOp49
 70
     1
102
RTVSPost2010Prop50
 90
       50
102
RTVSPost2010PropOp50
 70
     1
102
RTVSPost2010Prop51ColorIndex
 90
      256
102
RTVSPost2010Prop51ColorRGB
 90
-16777216
102
RTVSPost2010PropOp51
 70
     0
102
RTVSPost2010Prop52
140
1.0
102
RTVSPost2010PropOp52
 70
     0
102
RTVSPost2010Prop53
 90
        2
102
RTVSPost2010PropOp53
 70
     1
102
RTVSPost2010Prop54
  1
strokes_ogs.tif
102
RTVSPost2010PropOp54
 70
     1
102
RTVSPost2010Prop55
280
     0
102
RTVSPost2010PropOp55
 70
     1
102
RTVSPost2010Prop56
140
1.0
102
RTVSPost2010PropOp56
 70
     1
102
RTVSPost2010Prop57
140
1.0
102
RTVSPost2010PropOp57
 70
     1
102
RTVSPropertyOp0
 70
     1
102
RTVSPropertyOp1
 70
     1
102
RTVSPropertyOp2
 70
     1
102
RTVSPropertyOp3
 70
     1
102
RTVSPropertyOp4
 70
     1
102
RTVSPropertyOp5
 70
     1
102
RTVSPropertyOp6
 70
     1
102
RTVSPropertyOp7
 70
     1
102
RTVSPropertyOp8
 70
     1
102
RTVSPropertyOp9
 70
     1
102
RTVSPropertyOp10
 70
     1
102
RTVSPropertyOp11
 70
     1
102
RTVSPropertyOp12
 70
     1
102
RTVSPropertyOp13
 70
     1
102
RTVSPropertyOp14
 70
     1
102
RTVSPropertyOp15
 70
     1
102
RTVSPropertyOp16
 70
     1
102
RTVSPropertyOp17
 70
     1
102
RTVSPropertyOp18
 70
     1
102
RTVSPropertyOp19
 70
     1
102
RTVSPropertyOp20
 70
     1
102
RTVSPropertyOp21
 70
     1
102
RTVSPropertyOp22
 70
     1
102
RTVSPropertyOp23
 70
     1
102
RTVSPropertyOp24
 70
     1
102
RTVSPropertyOp25
 70
     1
102
RTVSPropertyOp26
 70
     1
102
RTVSPropertyOp27
 70
     1
102
RTVSPropertyOp28
 70
     1
102
RTVSPropertyOp29
 70
     1
102
RTVSPropertyOp30
 70
     1
102
RTVSPropertyOp31
 70
     1
102
RTVSPropertyOp32
 70
     1
102
RTVSPropertyOp33
 70
     1
102
RTVSPropertyOp34
 70
     1
102
RTVSPropertyOp35
 70
     1
102
RTVSPropertyOp36
 70
     1
102
RTVSPropertyOp37
 70
     1
102
RTVSPropertyOp38
 70
     1
102
RTVSPropertyOp39
 70
     1
102
RTVSPropertyOp40
 70
     1
102
RTVSPropertyOp41
 70
     1
102
RTVSPropertyOp42
 70
     1
102
RTVSPropertyOp43
 70
     1
102
RTVSPropertyOp44
 70
     1
102
RTVSPropertyOp45
 70
     1
102
RTVSPropertyOp46
 70
     1
102
RTVSPropertyOp47
 70
     1
102
RTVSPropertyOp48
 70
     1
102
RTVSPropertyOp49
 70
     1
102
RTVSPropertyOp50
 70
     1
102
RTVSPropertyOp51
 70
     0
102
RTVSPropertyOp52
 70
     0
102
RTVSPropertyOp53
 70
     1
102
RTVSPropertyOp54
 70
     1
102
RTVSPropertyOp55
 70
     1
102
RTVSPropertyOp56
 70
     1
102
RTVSPropertyOp57
 70
     1
102
RTVSPropertyOp58
 70
     1
102
RTVSPropertyOp59
 70
     1
102
RTVSPropertyOp60
 70
     1
102
RTVSPropertyOp61
 70
     1
102
RTVSPropertyOp62
 70
     1
  0
XRECORD
  5
1A7
102
{ACAD_REACTORS
330
1A6
102
}
330
1A6
100
AcDbXrecord
280
     1
102
RTVSPost2010Prop28
280
     0
102
RTVSPost2010PropOp28
 70
     1
102
RTVSPost2010Prop29
280
     1
102
RTVSPost2010PropOp29
 70
     1
102
RTVSPost2010Prop30
280
     1
102
RTVSPost2010PropOp30
 70
     1
102
RTVSPost2010Prop31
280
     0
102
RTVSPost2010PropOp31
 70
     1
102
RTVSPost2010Prop32
280
     0
102
RTVSPost2010PropOp32
 70
     1
102
RTVSPost2010Prop33
280
     0
102
RTVSPost2010PropOp33
 70
     1
102
RTVSPost2010Prop34
280
     0
102
RTVSPost2010PropOp34
 70
     1
102
RTVSPost2010Prop35
280
     0
102
RTVSPost2010PropOp35
 70
     1
102
RTVSPost2010Prop36
280
     0
102
RTVSPost2010PropOp36
 70
     1
102
RTVSPost2010Prop37
 90
       50
102
RTVSPost2010PropOp37
 70
     1
102
RTVSPost2010Prop38
140
0.0
102
RTVSPost2010PropOp38
 70
     1
102
RTVSPost2010Prop39
140
1.0
102
RTVSPost2010PropOp39
 70
     1
102
RTVSPost2010Prop40
 90
        0
102
RTVSPost2010PropOp40
 70
     1
102
RTVSPost2010Prop41ColorIndex
 90
       18
102
RTVSPost2010Prop41ColorRGB
 90
        0
102
RTVSPost2010PropOp41
 70
     1
102
RTVSPost2010Prop42
 90
       50
102
RTVSPost2010PropOp42
 70
     1
102
RTVSPost2010Prop43
 90
        3
102
RTVSPost2010PropOp43
 70
     1
102
RTVSPost2010Prop44ColorIndex
 90
        5
102
RTVSPost2010Prop44ColorRGB
 90
      255
102
RTVSPost2010PropOp44
 70
     1
102
RTVSPost2010Prop45
280
     0
102
RTVSPost2010PropOp45
 70
     1
102
RTVSPost2010Prop46
 90
       50
102
RTVSPost2010PropOp46
 70
     1
102
RTVSPost2010Prop47
 90
       50
102
RTVSPost2010PropOp47
 70
     1
102
RTVSPost2010Prop48
 90
       50
102
RTVSPost2010PropOp48
 70
     1
102
RTVSPost2010Prop49
280
     0
102
RTVSPost2010PropOp49
 70
     1
102
RTVSPost2010Prop50
 90
       50
102
RTVSPost2010PropOp50
 70
     1
102
RTVSPost2010Prop51ColorIndex
 90
      256
102
RTVSPost2010Prop51ColorRGB
 90
-16777216
102
RTVSPost2010PropOp51
 70
     0
102
RTVSPost2010Prop52
140
1.0
102
RTVSPost2010PropOp52
 70
     0
102
RTVSPost2010Prop53
 90
        2
102
RTVSPost2010PropOp53
 70
     1
102
RTVSPost2010Prop54
  1
strokes_ogs.tif
102
RTVSPost2010PropOp54
 70
     1
102
RTVSPost2010Prop55
280
     0
102
RTVSPost2010PropOp55
 70
     1
102
RTVSPost2010Prop56
140
1.0
102
RTVSPost2010PropOp56
 70
     1
102
RTVSPost2010Prop57
140
1.0
102
RTVSPost2010PropOp57
 70
     1
102
RTVSPropertyOp0
 70
     1
102
RTVSPropertyOp1
 70
     1
102
RTVSPropertyOp2
 70
     1
102
RTVSPropertyOp3
 70
     1
102
RTVSPropertyOp4
 70
     1
102
RTVSPropertyOp5
 70
     1
102
RTVSPropertyOp6
 70
     1
102
RTVSPropertyOp7
 70
     1
102
RTVSPropertyOp8
 70
     1
102
RTVSPropertyOp9
 70
     1
102
RTVSPropertyOp10
 70
     1
102
RTVSPropertyOp11
 70
     1
102
RTVSPropertyOp12
 70
     1
102
RTVSPropertyOp13
 70
     1
102
RTVSPropertyOp14
 70
     1
102
RTVSPropertyOp15
 70
     1
102
RTVSPropertyOp16
 70
     1
102
RTVSPropertyOp17
 70
     1
102
RTVSPropertyOp18
 70
     1
102
RTVSPropertyOp19
 70
     1
102
RTVSPropertyOp20
 70
     1
102
RTVSPropertyOp21
 70
     1
102
RTVSPropertyOp22
 70
     1
102
RTVSPropertyOp23
 70
     1
102
RTVSPropertyOp24
 70
     1
102
RTVSPropertyOp25
 70
     1
102
RTVSPropertyOp26
 70
     1
102
RTVSPropertyOp27
 70
     1
102
RTVSPropertyOp28
 70
     1
102
RTVSPropertyOp29
 70
     1
102
RTVSPropertyOp30
 70
     1
102
RTVSPropertyOp31
 70
     1
102
RTVSPropertyOp32
 70
     1
102
RTVSPropertyOp33
 70
     1
102
RTVSPropertyOp34
 70
     1
102
RTVSPropertyOp35
 70
     1
102
RTVSPropertyOp36
 70
     1
102
RTVSPropertyOp37
 70
     1
102
RTVSPropertyOp38
 70
     1
102
RTVSPropertyOp39
 70
     1
102
RTVSPropertyOp40
 70
     1
102
RTVSPropertyOp41
 70
     1
102
RTVSPropertyOp42
 70
     1
102
RTVSPropertyOp43
 70
     1
102
RTVSPropertyOp44
 70
     1
102
RTVSPropertyOp45
 70
     1
102
RTVSPropertyOp46
 70
     1
102
RTVSPropertyOp47
 70
     1
102
RTVSPropertyOp48
 70
     1
102
RTVSPropertyOp49
 70
     1
102
RTVSPropertyOp50
 70
     1
102
RTVSPropertyOp51
 70
     0
102
RTVSPropertyOp52
 70
     0
102
RTVSPropertyOp53
 70
     1
102
RTVSPropertyOp54
 70
     1
102
RTVSPropertyOp55
 70
     1
102
RTVSPropertyOp56
 70
     1
102
RTVSPropertyOp57
 70
     1
102
RTVSPropertyOp58
 70
     1
102
RTVSPropertyOp59
 70
     1
102
RTVSPropertyOp60
 70
     1
102
RTVSPropertyOp61
 70
     1
102
RTVSPropertyOp62
 70
     1
  0
XRECORD
  5
1BF
102
{ACAD_REACTORS
330
1BE
102
}
330
1BE
100
AcDbXrecord
280
     1
102
RTVSPost2010Prop28
280
     0
102
RTVSPost2010PropOp28
 70
     1
102
RTVSPost2010Prop29
280
     1
102
RTVSPost2010PropOp29
 70
     1
102
RTVSPost2010Prop30
280
     1
102
RTVSPost2010PropOp30
 70
     1
102
RTVSPost2010Prop31
280
     0
102
RTVSPost2010PropOp31
 70
     1
102
RTVSPost2010Prop32
280
     0
102
RTVSPost2010PropOp32
 70
     1
102
RTVSPost2010Prop33
280
     0
102
RTVSPost2010PropOp33
 70
     1
102
RTVSPost2010Prop34
280
     0
102
RTVSPost2010PropOp34
 70
     1
102
RTVSPost2010Prop35
280
     0
102
RTVSPost2010PropOp35
 70
     1
102
RTVSPost2010Prop36
280
     0
102
RTVSPost2010PropOp36
 70
     1
102
RTVSPost2010Prop37
 90
       50
102
RTVSPost2010PropOp37
 70
     1
102
RTVSPost2010Prop38
140
0.0
102
RTVSPost2010PropOp38
 70
     1
102
RTVSPost2010Prop39
140
1.0
102
RTVSPost2010PropOp39
 70
     1
102
RTVSPost2010Prop40
 90
        0
102
RTVSPost2010PropOp40
 70
     1
102
RTVSPost2010Prop41ColorIndex
 90
       18
102
RTVSPost2010Prop41ColorRGB
 90
        0
102
RTVSPost2010PropOp41
 70
     1
102
RTVSPost2010Prop42
 90
       50
102
RTVSPost2010PropOp42
 70
     1
102
RTVSPost2010Prop43
 90
        3
102
RTVSPost2010PropOp43
 70
     1
102
RTVSPost2010Prop44ColorIndex
 90
        5
102
RTVSPost2010Prop44ColorRGB
 90
      255
102
RTVSPost2010PropOp44
 70
     1
102
RTVSPost2010Prop45
280
     0
102
RTVSPost2010PropOp45
 70
     1
102
RTVSPost2010Prop46
 90
       50
102
RTVSPost2010PropOp46
 70
     1
102
RTVSPost2010Prop47
 90
       50
102
RTVSPost2010PropOp47
 70
     1
102
RTVSPost2010Prop48
 90
       50
102
RTVSPost2010PropOp48
 70
     1
102
RTVSPost2010Prop49
280
     0
102
RTVSPost2010PropOp49
 70
     1
102
RTVSPost2010Prop50
 90
       50
102
RTVSPost2010PropOp50
 70
     1
102
RTVSPost2010Prop51ColorIndex
 90
      256
102
RTVSPost2010Prop51ColorRGB
 90
-16777216
102
RTVSPost2010PropOp51
 70
     0
102
RTVSPost2010Prop52
140
1.0
102
RTVSPost2010PropOp52
 70
     0
102
RTVSPost2010Prop53
 90
        2
102
RTVSPost2010PropOp53
 70
     1
102
RTVSPost2010Prop54
  1
strokes_ogs.tif
102
RTVSPost2010PropOp54
 70
     1
102
RTVSPost2010Prop55
280
     0
102
RTVSPost2010PropOp55
 70
     1
102
RTVSPost2010Prop56
140
1.0
102
RTVSPost2010PropOp56
 70
     1
102
RTVSPost2010Prop57
140
1.0
102
RTVSPost2010PropOp57
 70
     1
102
RTVSPropertyOp0
 70
     1
102
RTVSPropertyOp1
 70
     1
102
RTVSPropertyOp2
 70
     1
102
RTVSPropertyOp3
 70
     1
102
RTVSPropertyOp4
 70
     1
102
RTVSPropertyOp5
 70
     1
102
RTVSPropertyOp6
 70
     1
102
RTVSPropertyOp7
 70
     1
102
RTVSPropertyOp8
 70
     1
102
RTVSPropertyOp9
 70
     1
102
RTVSPropertyOp10
 70
     1
102
RTVSPropertyOp11
 70
     1
102
RTVSPropertyOp12
 70
     1
102
RTVSPropertyOp13
 70
     1
102
RTVSPropertyOp14
 70
     1
102
RTVSPropertyOp15
 70
     1
102
RTVSPropertyOp16
 70
     1
102
RTVSPropertyOp17
 70
     1
102
RTVSPropertyOp18
 70
     1
102
RTVSPropertyOp19
 70
     1
102
RTVSPropertyOp20
 70
     1
102
RTVSPropertyOp21
 70
     1
102
RTVSPropertyOp22
 70
     1
102
RTVSPropertyOp23
 70
     1
102
RTVSPropertyOp24
 70
     1
102
RTVSPropertyOp25
 70
     1
102
RTVSPropertyOp26
 70
     1
102
RTVSPropertyOp27
 70
     1
102
RTVSPropertyOp28
 70
     1
102
RTVSPropertyOp29
 70
     1
102
RTVSPropertyOp30
 70
     1
102
RTVSPropertyOp31
 70
     1
102
RTVSPropertyOp32
 70
     1
102
RTVSPropertyOp33
 70
     1
102
RTVSPropertyOp34
 70
     1
102
RTVSPropertyOp35
 70
     1
102
RTVSPropertyOp36
 70
     1
102
RTVSPropertyOp37
 70
     1
102
RTVSPropertyOp38
 70
     1
102
RTVSPropertyOp39
 70
     1
102
RTVSPropertyOp40
 70
     1
102
RTVSPropertyOp41
 70
     1
102
RTVSPropertyOp42
 70
     1
102
RTVSPropertyOp43
 70
     1
102
RTVSPropertyOp44
 70
     1
102
RTVSPropertyOp45
 70
     1
102
RTVSPropertyOp46
 70
     1
102
RTVSPropertyOp47
 70
     1
102
RTVSPropertyOp48
 70
     1
102
RTVSPropertyOp49
 70
     1
102
RTVSPropertyOp50
 70
     1
102
RTVSPropertyOp51
 70
     0
102
RTVSPropertyOp52
 70
     0
102
RTVSPropertyOp53
 70
     1
102
RTVSPropertyOp54
 70
     1
102
RTVSPropertyOp55
 70
     1
102
RTVSPropertyOp56
 70
     1
102
RTVSPropertyOp57
 70
     1
102
RTVSPropertyOp58
 70
     1
102
RTVSPropertyOp59
 70
     1
102
RTVSPropertyOp60
 70
     1
102
RTVSPropertyOp61
 70
     1
102
RTVSPropertyOp62
 70
     1
  0
ENDSEC
  0
EOF
