  0
SECTION
  2
HEADER
  9
$ACADVER
  1
AC1018
  9
$ACADMAINTVER
 70
   104
  9
$DWGCODEPAGE
  3
ANSI_936
  9
$INSBASE
 10
0.0
 20
0.0
 30
0.0
  9
$EXTMIN
 10
1.000000000000000E+20
 20
1.000000000000000E+20
 30
1.000000000000000E+20
  9
$EXTMAX
 10
-1.000000000000000E+20
 20
-1.000000000000000E+20
 30
-1.000000000000000E+20
  9
$LIMMIN
 10
0.0
 20
0.0
  9
$LIMMAX
 10
12.0
 20
9.0
  9
$ORTHOMODE
 70
     0
  9
$REGENMODE
 70
     1
  9
$FILLMODE
 70
     1
  9
$QTEXTMODE
 70
     0
  9
$MIRRTEXT
 70
     0
  9
$LTSCALE
 40
1.0
  9
$ATTMODE
 70
     1
  9
$TEXTSIZE
 40
0.2
  9
$TRACEWID
 40
0.05
  9
$TEXTSTYLE
  7
Standard
  9
$CLAYER
  8
0
  9
$CELTYPE
  6
ByLayer
  9
$CECOLOR
 62
   256
  9
$CELTSCALE
 40
1.0
  9
$DISPSILH
 70
     0
  9
$DIMSCALE
 40
1.0
  9
$DIMASZ
 40
0.18
  9
$DIMEXO
 40
0.0625
  9
$DIMDLI
 40
0.38
  9
$DIMRND
 40
0.0
  9
$DIMDLE
 40
0.0
  9
$DIMEXE
 40
0.18
  9
$DIMTP
 40
0.0
  9
$DIMTM
 40
0.0
  9
$DIMTXT
 40
0.18
  9
$DIMCEN
 40
0.09
  9
$DIMTSZ
 40
0.0
  9
$DIMTOL
 70
     0
  9
$DIMLIM
 70
     0
  9
$DIMTIH
 70
     1
  9
$DIMTOH
 70
     1
  9
$DIMSE1
 70
     0
  9
$DIMSE2
 70
     0
  9
$DIMTAD
 70
     0
  9
$DIMZIN
 70
     0
  9
$DIMBLK
  1

  9
$DIMASO
 70
     1
  9
$DIMSHO
 70
     1
  9
$DIMPOST
  1

  9
$DIMAPOST
  1

  9
$DIMALT
 70
     0
  9
$DIMALTD
 70
     2
  9
$DIMALTF
 40
25.4
  9
$DIMLFAC
 40
1.0
  9
$DIMTOFL
 70
     0
  9
$DIMTVP
 40
0.0
  9
$DIMTIX
 70
     0
  9
$DIMSOXD
 70
     0
  9
$DIMSAH
 70
     0
  9
$DIMBLK1
  1

  9
$DIMBLK2
  1

  9
$DIMSTYLE
  2
Standard
  9
$DIMCLRD
 70
     0
  9
$DIMCLRE
 70
     0
  9
$DIMCLRT
 70
     0
  9
$DIMTFAC
 40
1.0
  9
$DIMGAP
 40
0.09
  9
$DIMJUST
 70
     0
  9
$DIMSD1
 70
     0
  9
$DIMSD2
 70
     0
  9
$DIMTOLJ
 70
     1
  9
$DIMTZIN
 70
     0
  9
$DIMALTZ
 70
     0
  9
$DIMALTTZ
 70
     0
  9
$DIMUPT
 70
     0
  9
$DIMDEC
 70
     4
  9
$DIMTDEC
 70
     4
  9
$DIMALTU
 70
     2
  9
$DIMALTTD
 70
     2
  9
$DIMTXSTY
  7
Standard
  9
$DIMAUNIT
 70
     0
  9
$DIMADEC
 70
     0
  9
$DIMALTRND
 40
0.0
  9
$DIMAZIN
 70
     0
  9
$DIMDSEP
 70
    46
  9
$DIMATFIT
 70
     3
  9
$DIMFRAC
 70
     0
  9
$DIMLDRBLK
  1

  9
$DIMLUNIT
 70
     2
  9
$DIMLWD
 70
    -2
  9
$DIMLWE
 70
    -2
  9
$DIMTMOVE
 70
     0
  9
$LUNITS
 70
     2
  9
$LUPREC
 70
     4
  9
$SKETCHINC
 40
0.1
  9
$FILLETRAD
 40
0.0
  9
$AUNITS
 70
     0
  9
$AUPREC
 70
     0
  9
$MENU
  1
.
  9
$ELEVATION
 40
0.0
  9
$PELEVATION
 40
0.0
  9
$THICKNESS
 40
0.0
  9
$LIMCHECK
 70
     0
  9
$CHAMFERA
 40
0.0
  9
$CHAMFERB
 40
0.0
  9
$CHAMFERC
 40
0.0
  9
$CHAMFERD
 40
0.0
  9
$SKPOLY
 70
     0
  9
$TDCREATE
 40
2460900.717824074
  9
$TDUCREATE
 40
2460900.384490741
  9
$TDUPDATE
 40
2460900.717824074
  9
$TDUUPDATE
 40
2460900.384490741
  9
$TDINDWG
 40
0.0000000000
  9
$TDUSRTIMER
 40
0.0000000000
  9
$USRTIMER
 70
     1
  9
$ANGBASE
 50
0.0
  9
$ANGDIR
 70
     0
  9
$PDMODE
 70
     0
  9
$PDSIZE
 40
0.0
  9
$PLINEWID
 40
0.0
  9
$SPLFRAME
 70
     0
  9
$SPLINETYPE
 70
     6
  9
$SPLINESEGS
 70
     8
  9
$HANDSEED
  5
1C1
  9
$SURFTAB1
 70
     6
  9
$SURFTAB2
 70
     6
  9
$SURFTYPE
 70
     6
  9
$SURFU
 70
     6
  9
$SURFV
 70
     6
  9
$UCSBASE
  2

  9
$UCSNAME
  2

  9
$UCSORG
 10
0.0
 20
0.0
 30
0.0
  9
$UCSXDIR
 10
1.0
 20
0.0
 30
0.0
  9
$UCSYDIR
 10
0.0
 20
1.0
 30
0.0
  9
$UCSORTHOREF
  2

  9
$UCSORTHOVIEW
 70
     0
  9
$UCSORGTOP
 10
0.0
 20
0.0
 30
0.0
  9
$UCSORGBOTTOM
 10
0.0
 20
0.0
 30
0.0
  9
$UCSORGLEFT
 10
0.0
 20
0.0
 30
0.0
  9
$UCSORGRIGHT
 10
0.0
 20
0.0
 30
0.0
  9
$UCSORGFRONT
 10
0.0
 20
0.0
 30
0.0
  9
$UCSORGBACK
 10
0.0
 20
0.0
 30
0.0
  9
$PUCSBASE
  2

  9
$PUCSNAME
  2

  9
$PUCSORG
 10
0.0
 20
0.0
 30
0.0
  9
$PUCSXDIR
 10
1.0
 20
0.0
 30
0.0
  9
$PUCSYDIR
 10
0.0
 20
1.0
 30
0.0
  9
$PUCSORTHOREF
  2

  9
$PUCSORTHOVIEW
 70
     0
  9
$PUCSORGTOP
 10
0.0
 20
0.0
 30
0.0
  9
$PUCSORGBOTTOM
 10
0.0
 20
0.0
 30
0.0
  9
$PUCSORGLEFT
 10
0.0
 20
0.0
 30
0.0
  9
$PUCSORGRIGHT
 10
0.0
 20
0.0
 30
0.0
  9
$PUCSORGFRONT
 10
0.0
 20
0.0
 30
0.0
  9
$PUCSORGBACK
 10
0.0
 20
0.0
 30
0.0
  9
$USERI1
 70
     0
  9
$USERI2
 70
     0
  9
$USERI3
 70
     0
  9
$USERI4
 70
     0
  9
$USERI5
 70
     0
  9
$USERR1
 40
0.0
  9
$USERR2
 40
0.0
  9
$USERR3
 40
0.0
  9
$USERR4
 40
0.0
  9
$USERR5
 40
0.0
  9
$WORLDVIEW
 70
     1
  9
$SHADEDGE
 70
     3
  9
$SHADEDIF
 70
    70
  9
$TILEMODE
 70
     1
  9
$MAXACTVP
 70
    64
  9
$PINSBASE
 10
0.0
 20
0.0
 30
0.0
  9
$PLIMCHECK
 70
     0
  9
$PEXTMIN
 10
1.000000000000000E+20
 20
1.000000000000000E+20
 30
1.000000000000000E+20
  9
$PEXTMAX
 10
-1.000000000000000E+20
 20
-1.000000000000000E+20
 30
-1.000000000000000E+20
  9
$PLIMMIN
 10
0.0
 20
0.0
  9
$PLIMMAX
 10
12.0
 20
9.0
  9
$UNITMODE
 70
     0
  9
$VISRETAIN
 70
     1
  9
$PLINEGEN
 70
     0
  9
$PSLTSCALE
 70
     1
  9
$TREEDEPTH
 70
  3020
  9
$CMLSTYLE
  2
Standard
  9
$CMLJUST
 70
     0
  9
$CMLSCALE
 40
1.0
  9
$PROXYGRAPHICS
 70
     1
  9
$MEASUREMENT
 70
     0
  9
$CELWEIGHT
370
    -1
  9
$ENDCAPS
280
     0
  9
$JOINSTYLE
280
     0
  9
$LWDISPLAY
290
     1
  9
$INSUNITS
 70
     1
  9
$HYPERLINKBASE
  1

  9
$STYLESHEET
  1

  9
$XEDIT
290
     1
  9
$CEPSNTYPE
380
     0
  9
$PSTYLEMODE
290
     1
  9
$FINGERPRINTGUID
  2
{B641AAB3-ED41-104A-BB68-9C5AA48CB43D}
  9
$VERSIONGUID
  2
{927AD4CA-9C8C-794F-9440-5E1A30DD5B66}
  9
$EXTNAMES
290
     1
  9
$PSVPSCALE
 40
0.0
  9
$OLESTARTUP
290
     0
  9
$SORTENTS
280
   127
  9
$INDEXCTL
280
     0
  9
$HIDETEXT
280
     1
  9
$XCLIPFRAME
290
     0
  9
$HALOGAP
280
     0
  9
$OBSCOLOR
 70
   257
  9
$OBSLTYPE
280
     0
  9
$INTERSECTIONDISPLAY
280
     0
  9
$INTERSECTIONCOLOR
 70
   257
  9
$DIMASSOC
280
     2
  9
$PROJECTNAME
  1

  0
ENDSEC
  0
SECTION
  2
CLASSES
  0
CLASS
  1
ACDBDICTIONARYWDFLT
  2
AcDbDictionaryWithDefault
  3
ObjectDBX Classes
 90
        0
 91
        1
280
     0
281
     0
  0
CLASS
  1
MATERIAL
  2
AcDbMaterial
  3
ObjectDBX Classes
 90
     1153
 91
        3
280
     0
281
     0
  0
CLASS
  1
VISUALSTYLE
  2
AcDbVisualStyle
  3
ObjectDBX Classes
 90
     4095
 91
       24
280
     0
281
     0
  0
CLASS
  1
SCALE
  2
AcDbScale
  3
ObjectDBX Classes
 90
     1153
 91
       17
280
     0
281
     0
  0
CLASS
  1
TABLESTYLE
  2
AcDbTableStyle
  3
ObjectDBX Classes
 90
     4095
 91
        1
280
     0
281
     0
  0
CLASS
  1
MLEADERSTYLE
  2
AcDbMLeaderStyle
  3
ACDB_MLEADERSTYLE_CLASS
 90
     4095
 91
        1
280
     0
281
     0
  0
CLASS
  1
ACDBSECTIONVIEWSTYLE
  2
AcDbSectionViewStyle
  3
ObjectDBX Classes
 90
     1025
 91
        1
280
     0
281
     0
  0
CLASS
  1
ACDBDETAILVIEWSTYLE
  2
AcDbDetailViewStyle
  3
ObjectDBX Classes
 90
     1025
 91
        1
280
     0
281
     0
  0
CLASS
  1
DICTIONARYVAR
  2
AcDbDictionaryVar
  3
ObjectDBX Classes
 90
        0
 91
       10
280
     0
281
     0
  0
CLASS
  1
CELLSTYLEMAP
  2
AcDbCellStyleMap
  3
ObjectDBX Classes
 90
     1152
 91
        1
280
     0
281
     0
  0
ENDSEC
  0
SECTION
  2
TABLES
  0
TABLE
  2
VPORT
  5
8
330
0
100
AcDbSymbolTable
 70
     1
  0
VPORT
  5
57
330
8
100
AcDbSymbolTableRecord
100
AcDbViewportTableRecord
  2
*Active
 70
     0
 10
0.0
 20
0.0
 11
1.0
 21
1.0
 12
0.0
 22
0.0
 13
0.0
 23
0.0
 14
1.0
 24
1.0
 15
0.0
 25
0.0
 16
0.0
 26
0.0
 36
1.0
 17
10.0
 27
-12.5
 37
0.0
 40
25.5
 41
0.8
 42
50.0
 43
0.0
 44
0.0
 50
0.0
 51
0.0
 71
     0
 72
   100
 73
     1
 74
     1
 75
     0
 76
     0
 77
     0
 78
     0
281
     0
 65
     1
110
0.0
120
0.0
130
0.0
111
1.0
121
0.0
131
0.0
112
0.0
122
1.0
132
0.0
 79
     0
146
0.0
  0
ENDTAB
  0
TABLE
  2
LTYPE
  5
5
330
0
100
AcDbSymbolTable
 70
     1
  0
LTYPE
  5
5B
330
5
100
AcDbSymbolTableRecord
100
AcDbLinetypeTableRecord
  2
ByBlock
 70
     0
  3

 72
    65
 73
     0
 40
0.0
  0
LTYPE
  5
5C
330
5
100
AcDbSymbolTableRecord
100
AcDbLinetypeTableRecord
  2
ByLayer
 70
     0
  3

 72
    65
 73
     0
 40
0.0
  0
LTYPE
  5
5D
330
5
100
AcDbSymbolTableRecord
100
AcDbLinetypeTableRecord
  2
Continuous
 70
     0
  3
Solid line
 72
    65
 73
     0
 40
0.0
  0
ENDTAB
  0
TABLE
  2
LAYER
  5
2
330
0
100
AcDbSymbolTable
 70
     2
  0
LAYER
  5
54
330
2
100
AcDbSymbolTableRecord
100
AcDbLayerTableRecord
  2
0
 70
     0
 62
     7
  6
Continuous
370
    -3
390
F
  0
LAYER
  5
78
330
2
100
AcDbSymbolTableRecord
100
AcDbLayerTableRecord
  2
Layer 1
 70
     0
 62
     7
  6
Continuous
370
     0
390
F
  0
ENDTAB
  0
TABLE
  2
STYLE
  5
3
330
0
100
AcDbSymbolTable
 70
     2
  0
STYLE
  5
55
330
3
100
AcDbSymbolTableRecord
100
AcDbTextStyleTableRecord
  2
Standard
 70
     0
 40
0.0
 41
1.0
 50
0.0
 71
     0
 42
0.2
  3
txt
  4

  0
STYLE
  5
5A
330
3
100
AcDbSymbolTableRecord
100
AcDbTextStyleTableRecord
  2
Annotative
 70
     0
 40
0.0
 41
1.0
 50
0.0
 71
     0
 42
0.2
  3
txt
  4

1001
AcadAnnotative
1000
AnnotativeData
1002
{
1070
     1
1070
     1
1002
}
  0
ENDTAB
  0
TABLE
  2
VIEW
  5
6
330
0
100
AcDbSymbolTable
 70
     0
  0
ENDTAB
  0
TABLE
  2
UCS
  5
7
330
0
100
AcDbSymbolTable
 70
     0
  0
ENDTAB
  0
TABLE
  2
APPID
  5
9
330
0
100
AcDbSymbolTable
 70
     3
  0
APPID
  5
56
330
9
100
AcDbSymbolTableRecord
100
AcDbRegAppTableRecord
  2
ACAD
 70
     0
  0
APPID
  5
5E
330
9
100
AcDbSymbolTableRecord
100
AcDbRegAppTableRecord
  2
AcadAnnotative
 70
     0
  0
APPID
  5
1BA
330
9
100
AcDbSymbolTableRecord
100
AcDbRegAppTableRecord
  2
ACAD_MLEADERVER
 70
     0
  0
ENDTAB
  0
TABLE
  2
DIMSTYLE
  5
A
330
0
100
AcDbSymbolTable
 70
     2
100
AcDbDimStyleTable
 71
     0
  0
DIMSTYLE
105
58
330
A
100
AcDbSymbolTableRecord
100
AcDbDimStyleTableRecord
  2
Standard
 70
     0
340
55
  0
DIMSTYLE
105
59
330
A
100
AcDbSymbolTableRecord
100
AcDbDimStyleTableRecord
  2
Annotative
 70
     0
340
55
1001
AcadAnnotative
1000
AnnotativeData
1002
{
1070
     1
1070
     1
1002
}
  0
ENDTAB
  0
TABLE
  2
BLOCK_RECORD
  5
1
330
0
100
AcDbSymbolTable
 70
     1
  0
BLOCK_RECORD
  5
70
330
1
100
AcDbSymbolTableRecord
100
AcDbBlockTableRecord
  2
*Model_Space
340
73
  0
BLOCK_RECORD
  5
6C
330
1
100
AcDbSymbolTableRecord
100
AcDbBlockTableRecord
  2
*Paper_Space
340
6F
  0
BLOCK_RECORD
  5
74
330
1
100
AcDbSymbolTableRecord
100
AcDbBlockTableRecord
  2
*Paper_Space0
340
77
  0
ENDTAB
  0
ENDSEC
  0
SECTION
  2
BLOCKS
  0
BLOCK
  5
71
330
70
100
AcDbEntity
  8
0
100
AcDbBlockBegin
  2
*Model_Space
 70
     0
 10
0.0
 20
0.0
 30
0.0
  3
*Model_Space
  1

  0
ENDBLK
  5
72
330
70
100
AcDbEntity
  8
0
100
AcDbBlockEnd
  0
BLOCK
  5
6D
330
6C
100
AcDbEntity
 67
     1
  8
0
100
AcDbBlockBegin
  2
*Paper_Space
 70
     0
 10
0.0
 20
0.0
 30
0.0
  3
*Paper_Space
  1

  0
ENDBLK
  5
6E
330
6C
100
AcDbEntity
 67
     1
  8
0
100
AcDbBlockEnd
  0
BLOCK
  5
75
330
74
100
AcDbEntity
 67
     1
  8
0
100
AcDbBlockBegin
  2
*Paper_Space0
 70
     0
 10
0.0
 20
0.0
 30
0.0
  3
*Paper_Space0
  1

  0
ENDBLK
  5
76
330
74
100
AcDbEntity
 67
     1
  8
0
100
AcDbBlockEnd
  0
ENDSEC
  0
SECTION
  2
ENTITIES
  0
LINE
  5
79
330
70
100
AcDbEntity
  8
Layer 1
 62
     7
370
     5
100
AcDbLine
 10
7.406383221149414
 20
-18.20686622465667
 30
0.0
 11
6.609151239101858
 21
-18.20686622465667
 31
0.0
  0
LINE
  5
7A
330
70
100
AcDbEntity
  8
Layer 1
 62
     7
370
     5
100
AcDbLine
 10
7.383308967262096
 20
-18.18407827681994
 30
0.0
 11
6.632225492989201
 21
-18.18407827681994
 31
0.0
  0
LINE
  5
7B
330
70
100
AcDbEntity
  8
Layer 1
 62
     7
370
     5
100
AcDbLine
 10
7.248898802314442
 20
-15.93090013481211
 30
0.0
 11
6.766635657936856
 21
-15.93090013481211
 31
0.0
  0
LINE
  5
7C
330
70
100
AcDbEntity
  8
Layer 1
 62
     7
370
     5
100
AcDbLine
 10
7.270990931816931
 20
-15.90043922351507
 30
0.0
 11
6.744543528434367
 21
-15.90043922351507
 31
0.0
  0
LINE
  5
7D
330
70
100
AcDbEntity
  8
Layer 1
 62
     7
370
     5
100
AcDbLine
 10
7.266142254809336
 20
-15.79617604834341
 30
0.0
 11
6.749392205441974
 21
-15.79617604834341
 31
0.0
  0
LINE
  5
7E
330
70
100
AcDbEntity
  8
Layer 1
 62
     7
370
     5
100
AcDbLine
 10
7.242246418472795
 20
-15.77211343146463
 30
0.0
 11
6.773288041778502
 21
-15.77211343146463
 31
0.0
  0
LWPOLYLINE
  5
7F
330
70
100
AcDbEntity
  8
Layer 1
 62
     7
370
     5
100
AcDbPolyline
 90
        6
 70
     0
 43
0.0
 10
6.793194449518964
 20
-15.57842085634466
 10
6.795401982570322
 20
-15.57977716616458
 10
6.80477960967908
 20
-15.5887609576375
 10
6.810444571834611
 20
-15.60044736702967
 10
6.811687957426265
 20
-15.61337519590961
 10
6.811065288251951
 20
-15.61773511456459
  0
LWPOLYLINE
  5
80
330
70
100
AcDbEntity
  8
Layer 1
 62
     7
370
     5
100
AcDbPolyline
 90
        6
 70
     0
 43
0.0
 10
7.204469261513672
 20
-15.61773500216989
 10
7.203846941063879
 20
-15.61337933805455
 10
7.205087682972348
 20
-15.60045539501958
 10
7.210747523242641
 20
-15.58877098946376
 10
7.220118747367614
 20
-15.57978617479797
 10
7.222340104361111
 20
-15.57842067872098
  0
LINE
  5
81
330
70
100
AcDbEntity
  8
Layer 1
 62
     7
370
     5
100
AcDbLine
 10
10.9156302609518
 20
-16.70514805367288
 30
0.0
 11
10.9156302609518
 21
-13.69457656957992
 31
0.0
  0
LINE
  5
82
330
70
100
AcDbEntity
  8
Layer 1
 62
     7
370
     5
100
AcDbLine
 10
15.53259437831618
 20
-18.20686622465667
 30
0.0
 11
14.73536239616823
 21
-18.20686622465667
 31
0.0
  0
LINE
  5
83
330
70
100
AcDbEntity
  8
Layer 1
 62
     7
370
     5
100
AcDbLine
 10
11.17586924203316
 20
-13.77057263990552
 30
0.0
 11
11.17586924203316
 21
-16.62915198324688
 31
0.0
  0
LINE
  5
84
330
70
100
AcDbEntity
  8
Layer 1
 62
     7
370
     5
100
AcDbLine
 10
11.26686360076266
 20
-14.15117991133401
 30
0.0
 11
11.26686360076266
 21
-16.24854471191871
 31
0.0
  0
LINE
  5
85
330
70
100
AcDbEntity
  8
Layer 1
 62
     7
370
     5
100
AcDbLine
 10
11.39989971268591
 20
-14.16475275154168
 30
0.0
 11
11.39989971268591
 21
-16.23497187161069
 31
0.0
  0
LINE
  5
86
330
70
100
AcDbEntity
  8
Layer 1
 62
     7
370
     5
100
AcDbLine
 10
11.5067057956621
 20
-14.27734692563508
 30
0.0
 11
11.5067057956621
 21
-16.12237769761762
 31
0.0
  0
LINE
  5
87
330
70
100
AcDbEntity
  8
Layer 1
 62
     7
370
     5
100
AcDbLine
 10
11.62368510565968
 20
-14.32579305741135
 30
0.0
 11
11.62368510565968
 21
-16.07393156584135
 31
0.0
  0
LINE
  5
88
330
70
100
AcDbEntity
  8
Layer 1
 62
     7
370
     5
100
AcDbLine
 10
11.72499156425629
 20
-16.07588370769824
 30
0.0
 11
11.72499156425629
 21
-14.32384091545418
 31
0.0
  0
LINE
  5
89
330
70
100
AcDbEntity
  8
Layer 1
 62
     7
370
     5
100
AcDbLine
 10
11.27689883904296
 20
-16.25857995019909
 30
0.0
 11
11.37050354308063
 21
-16.25857995019909
 31
0.0
  0
LINE
  5
8A
330
70
100
AcDbEntity
  8
Layer 1
 62
     7
370
     5
100
AcDbLine
 10
11.65206904576732
 20
-16.09400204240197
 30
0.0
 11
11.69737532298793
 21
-16.09400204240197
 31
0.0
  0
LINE
  5
8B
330
70
100
AcDbEntity
  8
Layer 1
 62
     7
370
     5
100
AcDbLine
 10
15.3972020888833
 20
-15.90043922351507
 30
0.0
 11
14.87075468560114
 21
-15.90043922351507
 31
0.0
  0
LINE
  5
8C
330
70
100
AcDbEntity
  8
Layer 1
 62
     7
370
     5
100
AcDbLine
 10
14.02577202984652
 20
-15.80197660844492
 30
0.0
 11
14.08217006657337
 21
-15.80197660844492
 31
0.0
  0
LINE
  5
8D
330
70
100
AcDbEntity
  8
Layer 1
 62
     7
370
     5
100
AcDbLine
 10
15.39235341187572
 20
-15.79617604834341
 30
0.0
 11
14.87560336260872
 21
-15.79617604834341
 31
0.0
  0
LINE
  5
8E
330
70
100
AcDbEntity
  8
Layer 1
 62
     7
370
     5
100
AcDbLine
 10
14.21822717900179
 20
-15.67051498697287
 30
0.0
 11
14.24031512491377
 21
-15.67051498697287
 31
0.0
  0
LINE
  5
8F
330
70
100
AcDbEntity
  8
Layer 1
 62
     7
370
     5
100
AcDbLine
 10
15.4104849170269
 20
-15.52098993659628
 30
0.0
 11
15.44273804952675
 21
-15.52098993659628
 31
0.0
  0
LINE
  5
90
330
70
100
AcDbEntity
  8
Layer 1
 62
     7
370
     5
100
AcDbLine
 10
14.51426670827092
 20
-15.39554945809239
 30
0.0
 11
14.50924908913079
 21
-15.39554945809239
 31
0.0
  0
LINE
  5
91
330
70
100
AcDbEntity
  8
Layer 1
 62
     7
370
     5
100
AcDbLine
 10
14.01387658112227
 20
-14.60019776519422
 30
0.0
 11
14.01387658112227
 21
-15.79952685795817
 31
0.0
  0
LINE
  5
92
330
70
100
AcDbEntity
  8
Layer 1
 62
     7
370
     5
100
AcDbLine
 10
14.11005201335443
 20
-14.61649806525247
 30
0.0
 11
14.11005201335443
 21
-15.78322655800025
 31
0.0
  0
LINE
  5
93
330
70
100
AcDbEntity
  8
Layer 1
 62
     7
370
     5
100
AcDbLine
 10
14.18812146416083
 20
-14.69507157875197
 30
0.0
 11
14.18812146416083
 21
-15.70465304450075
 31
0.0
  0
LINE
  5
94
330
70
100
AcDbEntity
  8
Layer 1
 62
     7
370
     5
100
AcDbLine
 10
14.26655001252187
 20
-14.74454765864397
 30
0.0
 11
14.26655001252187
 21
-15.65517696460872
 31
0.0
  0
LINE
  5
95
330
70
100
AcDbEntity
  8
Layer 1
 62
     7
370
     5
100
AcDbLine
 10
14.51426670827092
 20
-15.00417516516035
 30
0.0
 11
14.50924908913079
 21
-15.00417516516035
 31
0.0
  0
LINE
  5
96
330
70
100
AcDbEntity
  8
Layer 1
 62
     7
370
     5
100
AcDbLine
 10
14.50924908913079
 20
-14.93669555178379
 30
0.0
 11
14.50924908913079
 21
-15.46302907136861
 31
0.0
  0
LINE
  5
97
330
70
100
AcDbEntity
  8
Layer 1
 62
     7
370
     5
100
AcDbLine
 10
15.4104849170269
 20
-14.87873468665644
 30
0.0
 11
15.44273804952675
 21
-14.87873468665644
 31
0.0
  0
LINE
  5
98
330
70
100
AcDbEntity
  8
Layer 1
 62
     7
370
     5
100
AcDbLine
 10
14.21822717900179
 20
-14.72920963627984
 30
0.0
 11
14.24031512491377
 21
-14.72920963627984
 31
0.0
  0
LINE
  5
99
330
70
100
AcDbEntity
  8
Layer 1
 62
     7
370
     5
100
AcDbLine
 10
14.61786546356256
 20
-15.47293567625863
 30
0.0
 11
14.61786546356256
 21
-14.92678894689379
 31
0.0
  0
LINE
  5
9A
330
70
100
AcDbEntity
  8
Layer 1
 62
     7
370
     5
100
AcDbLine
 10
14.02577202984652
 20
-14.5977480148078
 30
0.0
 11
14.08217006657337
 21
-14.5977480148078
 31
0.0
  0
LINE
  5
9B
330
70
100
AcDbEntity
  8
Layer 1
 62
     7
370
     5
100
AcDbLine
 10
14.87252471487798
 20
-14.83515048331956
 30
0.0
 11
14.87252471487798
 21
-15.5645741399332
 31
0.0
  0
LINE
  5
9C
330
70
100
AcDbEntity
  8
Layer 1
 62
     7
370
     5
100
AcDbLine
 10
11.65206904576732
 20
-14.30572258085077
 30
0.0
 11
11.69737532298793
 21
-14.30572258085077
 31
0.0
  0
LINE
  5
9D
330
70
100
AcDbEntity
  8
Layer 1
 62
     7
370
     5
100
AcDbLine
 10
11.27689883904296
 20
-14.14114467305371
 30
0.0
 11
11.37050354308063
 21
-14.14114467305371
 31
0.0
  0
LINE
  5
9E
330
70
100
AcDbEntity
  8
Layer 1
 62
     7
370
     5
100
AcDbLine
 10
15.39543205960646
 20
-14.83515048331956
 30
0.0
 11
15.39543205960646
 21
-15.5645741399332
 31
0.0
  0
LINE
  5
9F
330
70
100
AcDbEntity
  8
Layer 1
 62
     7
370
     5
100
AcDbLine
 10
15.47600930863162
 20
-14.89990859647249
 30
0.0
 11
15.47600930863162
 21
-15.49981602678025
 31
0.0
  0
LINE
  5
A0
330
70
100
AcDbEntity
  8
Layer 1
 62
     7
370
     5
100
AcDbLine
 10
7.30772094527952
 20
-9.959768751349857
 30
0.0
 11
6.707813514971777
 21
-9.959768751349857
 31
0.0
  0
LINE
  5
A1
330
70
100
AcDbEntity
  8
Layer 1
 62
     7
370
     5
100
AcDbLine
 10
6.643055401818791
 20
-9.879191502324728
 30
0.0
 11
7.372479058432467
 21
-9.879191502324728
 31
0.0
  0
LINE
  5
A2
330
70
100
AcDbEntity
  8
Layer 1
 62
     7
370
     5
100
AcDbLine
 10
6.643055401818791
 20
-9.356284157495919
 30
0.0
 11
7.372479058432467
 21
-9.356284157495919
 31
0.0
  0
LINE
  5
A3
330
70
100
AcDbEntity
  8
Layer 1
 62
     7
370
     5
100
AcDbLine
 10
5.50248148807917
 20
-5.399389703569744
 30
0.0
 11
5.518845018768893
 21
-5.607746508662671
 31
0.0
  0
LINE
  5
A4
330
70
100
AcDbEntity
  8
Layer 1
 62
     7
370
     5
100
AcDbLine
 10
6.734693865493378
 20
-9.101624906180454
 30
0.0
 11
7.280840594858267
 21
-9.101624906180454
 31
0.0
  0
LINE
  5
A5
330
70
100
AcDbEntity
  8
Layer 1
 62
     7
370
     5
100
AcDbLine
 10
7.270922109249605
 20
-8.993008531748676
 30
0.0
 11
6.744612351001655
 21
-8.993008531748676
 31
0.0
  0
LINE
  5
A6
330
70
100
AcDbEntity
  8
Layer 1
 62
     7
370
     5
100
AcDbLine
 10
7.463081883108062
 20
-8.750309455139813
 30
0.0
 11
6.552452577143235
 21
-8.750309455139813
 31
0.0
  0
LINE
  5
A7
330
70
100
AcDbEntity
  8
Layer 1
 62
     7
370
     5
100
AcDbLine
 10
5.949049591552958
 20
-5.760658281660893
 30
0.0
 11
5.949049591552958
 21
-5.854262985698596
 31
0.0
  0
LINE
  5
A8
330
70
100
AcDbEntity
  8
Layer 1
 62
     7
370
     5
100
AcDbLine
 10
7.512557963000037
 20
-8.671880906778772
 30
0.0
 11
6.502976497251236
 21
-8.671880906778772
 31
0.0
  0
LINE
  5
A9
330
70
100
AcDbEntity
  8
Layer 1
 62
     7
370
     5
100
AcDbLine
 10
7.591131476499539
 20
-8.593811455972375
 30
0.0
 11
6.424402983751759
 21
-8.593811455972375
 31
0.0
  0
LINE
  5
AA
330
70
100
AcDbEntity
  8
Layer 1
 62
     7
370
     5
100
AcDbLine
 10
6.113627499350033
 20
-6.135828488485622
 30
0.0
 11
6.113627499350033
 21
-6.181134765605873
 31
0.0
  0
LINE
  5
AB
330
70
100
AcDbEntity
  8
Layer 1
 62
     7
370
     5
100
AcDbLine
 10
7.607431776557783
 20
-8.49763602384054
 30
0.0
 11
6.408102683793849
 21
-8.49763602384054
 31
0.0
  0
LINE
  5
AC
330
70
100
AcDbEntity
  8
Layer 1
 62
     7
370
     5
100
AcDbLine
 10
6.405652933307047
 20
-8.509531472464407
 30
0.0
 11
6.405652933307047
 21
-8.565929509291663
 31
0.0
  0
LINE
  5
AD
330
70
100
AcDbEntity
  8
Layer 1
 62
     7
370
     5
100
AcDbLine
 10
6.537114554779122
 20
-8.701986621619703
 30
0.0
 11
6.537114554779122
 21
-8.724074567632037
 31
0.0
  0
LINE
  5
AE
330
70
100
AcDbEntity
  8
Layer 1
 62
     7
370
     5
100
AcDbLine
 10
6.812080083659616
 20
-8.998026150888815
 30
0.0
 11
6.812080083659616
 21
-8.993008531748676
 31
0.0
  0
LINE
  5
AF
330
70
100
AcDbEntity
  8
Layer 1
 62
     7
370
     5
100
AcDbLine
 10
7.203454376591707
 20
-8.998026150888815
 30
0.0
 11
7.203454376591707
 21
-8.993008531748676
 31
0.0
  0
LINE
  5
B0
330
70
100
AcDbEntity
  8
Layer 1
 62
     7
370
     5
100
AcDbLine
 10
7.478419905472176
 20
-8.701986621619703
 30
0.0
 11
7.478419905472176
 21
-8.724074567632037
 31
0.0
  0
LINE
  5
B1
330
70
100
AcDbEntity
  8
Layer 1
 62
     7
370
     5
100
AcDbLine
 10
7.60988152694425
 20
-8.509531472464407
 30
0.0
 11
7.60988152694425
 21
-8.565929509291663
 31
0.0
  0
LINE
  5
B2
330
70
100
AcDbEntity
  8
Layer 1
 62
     7
370
     5
100
AcDbLine
 10
7.901906960901264
 20
-6.135828488485622
 30
0.0
 11
7.901906960901264
 21
-6.181134765605873
 31
0.0
  0
LINE
  5
B3
330
70
100
AcDbEntity
  8
Layer 1
 62
     7
370
     5
100
AcDbLine
 10
8.066484868698328
 20
-5.760658281660893
 30
0.0
 11
8.066484868698328
 21
-5.854262985698596
 31
0.0
  0
LINE
  5
B4
330
70
100
AcDbEntity
  8
Layer 1
 62
     7
370
     5
100
AcDbLine
 10
8.513052972172115
 20
-5.399389703569744
 30
0.0
 11
8.496689441582764
 21
-5.607746508662671
 31
0.0
  0
LINE
  5
B5
330
70
100
AcDbEntity
  8
Layer 1
 62
     7
370
     5
100
AcDbLine
 10
6.131745834053819
 20
-6.208751006874194
 30
0.0
 11
7.883788626297826
 21
-6.208751006874194
 31
0.0
  0
LINE
  5
B6
330
70
100
AcDbEntity
  8
Layer 1
 62
     7
370
     5
100
AcDbLine
 10
7.881836484340611
 20
-6.107444548277586
 30
0.0
 11
6.133697975910649
 21
-6.107444548277586
 31
0.0
  0
LINE
  5
B7
330
70
100
AcDbEntity
  8
Layer 1
 62
     7
370
     5
100
AcDbLine
 10
7.930282616116906
 20
-5.990465238279966
 30
0.0
 11
6.085251844134353
 21
-5.990465238279966
 31
0.0
  0
LINE
  5
B8
330
70
100
AcDbEntity
  8
Layer 1
 62
     7
370
     5
100
AcDbLine
 10
8.042876790210332
 20
-5.883659155303866
 30
0.0
 11
5.972657670141314
 21
-5.883659155303866
 31
0.0
  0
LINE
  5
B9
330
70
100
AcDbEntity
  8
Layer 1
 62
     7
370
     5
100
AcDbLine
 10
8.05643733514373
 20
-5.750623043380579
 30
0.0
 11
5.959097125107569
 21
-5.750623043380579
 31
0.0
  0
LINE
  5
BA
330
70
100
AcDbEntity
  8
Layer 1
 62
     7
370
     5
100
AcDbLine
 10
8.43372489766615
 20
-5.659628684651061
 30
0.0
 11
5.578477558505154
 21
-5.659628684651061
 31
0.0
  0
LINE
  5
BB
330
70
100
AcDbEntity
  8
Layer 1
 62
     7
370
     5
100
AcDbLine
 10
5.502483776715621
 20
-5.399389703569744
 30
0.0
 11
8.513050683636038
 21
-5.399389703569744
 31
0.0
  0
SPLINE
  5
BC
330
70
100
AcDbEntity
  8
Layer 1
 62
     7
370
     5
100
AcDbSpline
210
0.0
220
0.0
230
1.0
 70
     8
 71
     3
 72
     8
 73
     4
 74
     0
 42
0.0000000001
 43
0.0000000001
 40
0.0
 40
0.0
 40
0.0
 40
0.0
 40
1.0
 40
1.0
 40
1.0
 40
1.0
 10
6.609151239144099
 20
-18.20686622474267
 30
0.0
 10
6.620098963621153
 20
-18.20348821884598
 30
0.0
 10
6.628711068058426
 20
-18.1949829736474
 30
0.0
 10
6.632225493035737
 20
-18.18407827685463
 30
0.0
  0
SPLINE
  5
BD
330
70
100
AcDbEntity
  8
Layer 1
 62
     7
370
     5
100
AcDbSpline
210
0.0
220
0.0
230
1.0
 70
     8
 71
     3
 72
     8
 73
     4
 74
     0
 42
0.0000000001
 43
0.0000000001
 40
0.0
 40
0.0
 40
0.0
 40
0.0
 40
1.0
 40
1.0
 40
1.0
 40
1.0
 10
6.76663565796817
 20
-15.93090013478132
 30
0.0
 10
6.765790472242819
 20
-15.91732552428617
 30
0.0
 10
6.757184169194702
 20
-15.90545904334956
 30
0.0
 10
6.744543528474245
 20
-15.90043922351401
 30
0.0
  0
SPLINE
  5
BE
330
70
100
AcDbEntity
  8
Layer 1
 62
     7
370
     5
100
AcDbSpline
210
0.0
220
0.0
230
1.0
 70
     8
 71
     3
 72
     8
 73
     4
 74
     0
 42
0.0000000001
 43
0.0000000001
 40
0.0
 40
0.0
 40
0.0
 40
0.0
 40
1.0
 40
1.0
 40
1.0
 40
1.0
 10
6.749392205423115
 20
-15.79617604842623
 30
0.0
 10
6.760958483615025
 20
-15.79278643721368
 30
0.0
 10
6.769978957457232
 20
-15.78370300510278
 30
0.0
 10
6.773288041719259
 20
-15.7721134314811
 30
0.0
  0
SPLINE
  5
BF
330
70
100
AcDbEntity
  8
Layer 1
 62
     7
370
     5
100
AcDbSpline
210
0.0
220
0.0
230
1.0
 70
     8
 71
     3
 72
     8
 73
     4
 74
     0
 42
0.0000000001
 43
0.0000000001
 40
0.0
 40
0.0
 40
0.0
 40
0.0
 40
1.0
 40
1.0
 40
1.0
 40
1.0
 10
7.383308967315921
 20
-18.18407827685463
 30
0.0
 10
7.386823392293219
 20
-18.1949829736474
 30
0.0
 10
7.395435496730492
 20
-18.20348821884598
 30
0.0
 10
7.406383221207558
 20
-18.20686622474267
 30
0.0
  0
SPLINE
  5
C0
330
70
100
AcDbEntity
  8
Layer 1
 62
     7
370
     5
100
AcDbSpline
210
0.0
220
0.0
230
1.0
 70
     8
 71
     3
 72
    17
 73
    13
 74
     0
 42
0.0000000001
 43
0.0000000001
 40
0.0
 40
0.0
 40
0.0
 40
0.0
 40
1.0
 40
1.0
 40
1.0
 40
2.0
 40
2.0
 40
2.0
 40
3.0
 40
3.0
 40
3.0
 40
4.0
 40
4.0
 40
4.0
 40
4.0
 10
7.235069091274908
 20
-16.68788752281282
 30
0.0
 10
8.056882722776965
 20
-16.5623521712919
 30
0.0
 10
8.621327792832984
 20
-15.79437408197913
 30
0.0
 10
8.495792441312106
 20
-14.97256045047707
 30
0.0
 10
8.370257089791202
 20
-14.15074681897512
 30
0.0
 10
7.602279000478422
 20
-13.58630174891904
 30
0.0
 10
6.780465368976377
 20
-13.7118371004399
 30
0.0
 10
5.958651737474345
 20
-13.83737245196082
 30
0.0
 10
5.394206667418276
 20
-14.60535054127364
 30
0.0
 10
5.519742018939192
 20
-15.42716417277564
 30
0.0
 10
5.619136963679579
 20
-16.07785036993368
 30
0.0
 10
6.129779171818325
 20
-16.58849257807249
 30
0.0
 10
6.780465368976377
 20
-16.68788752281282
 30
0.0
  0
SPLINE
  5
C1
330
70
100
AcDbEntity
  8
Layer 1
 62
     7
370
     5
100
AcDbSpline
210
0.0
220
0.0
230
1.0
 70
     8
 71
     3
 72
    17
 73
    13
 74
     0
 42
0.0000000001
 43
0.0000000001
 40
0.0
 40
0.0
 40
0.0
 40
0.0
 40
1.0
 40
1.0
 40
1.0
 40
2.0
 40
2.0
 40
2.0
 40
3.0
 40
3.0
 40
3.0
 40
4.0
 40
4.0
 40
4.0
 40
4.0
 10
7.234366179434282
 20
-16.56625170953897
 30
0.0
 10
7.989002206231866
 20
-16.44110456550809
 30
0.0
 10
8.499303772069044
 20
-15.72789938911531
 30
0.0
 10
8.374156628038223
 20
-14.97326336231776
 30
0.0
 10
8.249009484007363
 20
-14.21862733552012
 30
0.0
 10
7.535804307614612
 20
-13.70832576968299
 30
0.0
 10
6.781168280817028
 20
-13.83347291371385
 30
0.0
 10
6.026532254019431
 20
-13.95862005774463
 30
0.0
 10
5.516230688182253
 20
-14.67182523413743
 30
0.0
 10
5.641377832213088
 20
-15.42646126093498
 30
0.0
 10
5.738334945024058
 20
-16.01111168143034
 30
0.0
 10
6.19651790809616
 20
-16.46929462725901
 30
0.0
 10
6.781168332240453
 20
-16.5662517180669
 30
0.0
  0
SPLINE
  5
C2
330
70
100
AcDbEntity
  8
Layer 1
 62
     7
370
     5
100
AcDbSpline
210
0.0
220
0.0
230
1.0
 70
     8
 71
     3
 72
    17
 73
    13
 74
     0
 42
0.0000000001
 43
0.0000000001
 40
0.0
 40
0.0
 40
0.0
 40
0.0
 40
1.0
 40
1.0
 40
1.0
 40
2.0
 40
2.0
 40
2.0
 40
3.0
 40
3.0
 40
3.0
 40
4.0
 40
4.0
 40
4.0
 40
4.0
 10
7.233915234317767
 20
-16.49697263919456
 30
0.0
 10
7.950289487081691
 20
-16.37207454527452
 30
0.0
 10
8.429775651613756
 20
-15.69008856019814
 30
0.0
 10
8.304877557693821
 20
-14.97371430743424
 30
0.0
 10
8.179979463773809
 20
-14.25734005467032
 30
0.0
 10
7.497993478697442
 20
-13.77785389013823
 30
0.0
 10
6.781619225933518
 20
-13.90275198405824
 30
0.0
 10
6.065244973169606
 20
-14.0276500779782
 30
0.0
 10
5.585758808637516
 20
-14.7096360630546
 30
0.0
 10
5.710656902557489
 20
-15.42601031581848
 30
0.0
 10
5.806047589081243
 20
-15.97313981663281
 30
0.0
 10
6.234490049758441
 20
-16.40158216156818
 30
0.0
 10
6.781619576342121
 20
-16.49697270028734
 30
0.0
  0
SPLINE
  5
C3
330
70
100
AcDbEntity
  8
Layer 1
 62
     7
370
     5
100
AcDbSpline
210
0.0
220
0.0
230
1.0
 70
     8
 71
     3
 72
    17
 73
    13
 74
     0
 42
0.0000000001
 43
0.0000000001
 40
0.0
 40
0.0
 40
0.0
 40
0.0
 40
1.0
 40
1.0
 40
1.0
 40
2.0
 40
2.0
 40
2.0
 40
3.0
 40
3.0
 40
3.0
 40
4.0
 40
4.0
 40
4.0
 40
4.0
 10
7.237412948378429
 20
-16.24225468628752
 30
0.0
 10
7.813110360243676
 20
-16.11542485823254
 30
0.0
 10
8.176989432841713
 20
-15.54591400523882
 30
0.0
 10
8.050159604786774
 20
-14.97021659337363
 30
0.0
 10
7.923329776731797
 20
-14.39451918150836
 30
0.0
 10
7.353818923738104
 20
-14.03064010891027
 30
0.0
 10
6.778121511872882
 20
-14.15746993696525
 30
0.0
 10
6.202424100007609
 20
-14.28429976502022
 30
0.0
 10
5.838545027409572
 20
-14.85381061801389
 30
0.0
 10
5.965374855464523
 20
-15.42950802987919
 30
0.0
 10
6.054842250462229
 20
-15.83561240245767
 30
0.0
 10
6.372017127726949
 20
-16.15278728357258
 30
0.0
 10
6.778121499219511
 20
-16.24225468349987
 30
0.0
  0
SPLINE
  5
C4
330
70
100
AcDbEntity
  8
Layer 1
 62
     7
370
     5
100
AcDbSpline
210
0.0
220
0.0
230
1.0
 70
     8
 71
     3
 72
    17
 73
    13
 74
     0
 42
0.0000000001
 43
0.0000000001
 40
0.0
 40
0.0
 40
0.0
 40
0.0
 40
1.0
 40
1.0
 40
1.0
 40
2.0
 40
2.0
 40
2.0
 40
3.0
 40
3.0
 40
3.0
 40
4.0
 40
4.0
 40
4.0
 40
4.0
 10
7.24076057743462
 20
-16.12281935818267
 30
0.0
 10
7.750495678996521
 20
-15.99414068565195
 30
0.0
 10
8.059402949212755
 20
-15.47660406587935
 30
0.0
 10
7.93072427668201
 20
-14.96686896431743
 30
0.0
 10
7.802045604151253
 20
-14.4571338627555
 30
0.0
 10
7.284508984378653
 20
-14.14822659253925
 30
0.0
 10
6.774773882816703
 20
-14.27690526507
 30
0.0
 10
6.265038781254739
 20
-14.40558393760077
 30
0.0
 10
5.956131511038543
 20
-14.92312055737337
 30
0.0
 10
6.084810183569288
 20
-15.43285565893529
 30
0.0
 10
6.170473327446617
 20
-15.7721932545573
 30
0.0
 10
6.435436289763742
 20
-16.03715621606152
 30
0.0
 10
6.774773885648591
 20
-16.12281935889764
 30
0.0
  0
SPLINE
  5
C5
330
70
100
AcDbEntity
  8
Layer 1
 62
     7
370
     5
100
AcDbSpline
210
0.0
220
0.0
230
1.0
 70
     8
 71
     3
 72
    17
 73
    13
 74
     0
 42
0.0000000001
 43
0.0000000001
 40
0.0
 40
0.0
 40
0.0
 40
0.0
 40
1.0
 40
1.0
 40
1.0
 40
2.0
 40
2.0
 40
2.0
 40
3.0
 40
3.0
 40
3.0
 40
4.0
 40
4.0
 40
4.0
 40
4.0
 10
7.243100635857116
 20
-16.06247696852615
 30
0.0
 10
7.719509555843387
 20
-15.93250591741487
 30
0.0
 10
8.00035293813663
 20
-15.44093782588116
 30
0.0
 10
7.870381887025422
 20
-14.96452890589492
 30
0.0
 10
7.740410835914202
 20
-14.48811998590865
 30
0.0
 10
7.248842744380428
 20
-14.20727660361538
 30
0.0
 10
6.772433824394156
 20
-14.33724765472657
 30
0.0
 10
6.296024904407936
 20
-14.46721870583784
 30
0.0
 10
6.015181522114643
 20
-14.95878679737158
 30
0.0
 10
6.145152573225876
 20
-15.43519571735785
 30
0.0
 10
6.228467250405464
 20
-15.74058568716085
 30
0.0
 10
6.467043846139302
 20
-15.97916228548216
 30
0.0
 10
6.772433815038728
 20
-16.06247696597385
 30
0.0
  0
SPLINE
  5
C6
330
70
100
AcDbEntity
  8
Layer 1
 62
     7
370
     5
100
AcDbSpline
210
0.0
220
0.0
230
1.0
 70
     8
 71
     3
 72
    17
 73
    13
 74
     0
 42
0.0000000001
 43
0.0000000001
 40
0.0
 40
0.0
 40
0.0
 40
0.0
 40
1.0
 40
1.0
 40
1.0
 40
2.0
 40
2.0
 40
2.0
 40
3.0
 40
3.0
 40
3.0
 40
4.0
 40
4.0
 40
4.0
 40
4.0
 10
7.238618688284632
 20
-15.75596412847219
 30
0.0
 10
7.545745241081779
 20
-15.62846838865476
 30
0.0
 10
7.691364786788867
 20
-15.27613740626452
 30
0.0
 10
7.563869046971452
 20
-14.96901085346743
 30
0.0
 10
7.436373307154048
 20
-14.66188430067025
 30
0.0
 10
7.084042324763824
 20
-14.51626475496313
 30
0.0
 10
6.776915771966665
 20
-14.64376049478056
 30
0.0
 10
6.469789219169519
 20
-14.77125623459796
 30
0.0
 10
6.324169673462417
 20
-15.1235872169882
 30
0.0
 10
6.451665413279821
 20
-15.43071376978532
 30
0.0
 10
6.512766683921616
 20
-15.57790161034073
 30
0.0
 10
6.629727918411567
 20
-15.69486284790233
 30
0.0
 10
6.77691575736234
 20
-15.75596412240955
 30
0.0
  0
SPLINE
  5
C7
330
70
100
AcDbEntity
  8
Layer 1
 62
     7
370
     5
100
AcDbSpline
210
0.0
220
0.0
230
1.0
 70
     8
 71
     3
 72
    17
 73
    13
 74
     0
 42
0.0000000001
 43
0.0000000001
 40
0.0
 40
0.0
 40
0.0
 40
0.0
 40
1.0
 40
1.0
 40
1.0
 40
2.0
 40
2.0
 40
2.0
 40
3.0
 40
3.0
 40
3.0
 40
4.0
 40
4.0
 40
4.0
 40
4.0
 10
7.222208215900523
 20
-15.68873366120907
 30
0.0
 10
7.492204406904205
 20
-15.57030117502692
 30
0.0
 10
7.615071065890459
 20
-15.25541751685523
 30
0.0
 10
7.496638579708334
 20
-14.98542132585152
 30
0.0
 10
7.378206093526197
 20
-14.71542513484777
 30
0.0
 10
7.063322435354494
 20
-14.59255847586157
 30
0.0
 10
6.7933262443508
 20
-14.7109909620437
 30
0.0
 10
6.523330053347067
 20
-14.82942344822577
 30
0.0
 10
6.400463394360826
 20
-15.14430710639754
 30
0.0
 10
6.518895880542963
 20
-15.41430329740122
 30
0.0
 10
6.572703144712463
 20
-15.53697028550914
 30
0.0
 10
6.670659256009003
 20
-15.63492639685834
 30
0.0
 10
6.793326244087981
 20
-15.68873366109376
 30
0.0
  0
SPLINE
  5
C8
330
70
100
AcDbEntity
  8
Layer 1
 62
     7
370
     5
100
AcDbSpline
210
0.0
220
0.0
230
1.0
 70
     8
 71
     3
 72
    17
 73
    13
 74
     0
 42
0.0000000001
 43
0.0000000001
 40
0.0
 40
0.0
 40
0.0
 40
0.0
 40
1.0
 40
1.0
 40
1.0
 40
2.0
 40
2.0
 40
2.0
 40
3.0
 40
3.0
 40
3.0
 40
4.0
 40
4.0
 40
4.0
 40
4.0
 10
7.20696717641513
 20
-15.6262814976501
 30
0.0
 10
7.442471989891272
 20
-15.51626640514726
 30
0.0
 10
7.544201508652134
 20
-15.23616717881307
 30
0.0
 10
7.434186416149334
 20
-15.00066236533689
 30
0.0
 10
7.324171323646547
 20
-14.76515755186074
 30
0.0
 10
7.044072097312297
 20
-14.66342803309986
 30
0.0
 10
6.808567283836143
 20
-14.7734431256027
 30
0.0
 10
6.573062470360026
 20
-14.88345821810546
 30
0.0
 10
6.471332951599151
 20
-15.1635574444397
 30
0.0
 10
6.58134804410195
 20
-15.39906225791585
 30
0.0
 10
6.628086229706619
 20
-15.49911278219062
 30
0.0
 10
6.708516692612684
 20
-15.57954325927888
 30
0.0
 10
6.808567208646157
 20
-15.62628146252536
 30
0.0
  0
CIRCLE
  5
C9
330
70
100
AcDbEntity
  8
Layer 1
 62
     7
370
     5
100
AcDbCircle
 10
7.007767230125649
 20
-15.19986231162638
 30
0.0
 40
0.3998231860338674
  0
CIRCLE
  5
CA
330
70
100
AcDbEntity
  8
Layer 1
 62
     7
370
     5
100
AcDbCircle
 10
7.007767230125649
 20
-15.19986231162638
 30
0.0
 40
0.3211276249699292
  0
SPLINE
  5
CB
330
70
100
AcDbEntity
  8
Layer 1
 62
     7
370
     5
100
AcDbSpline
210
0.0
220
0.0
230
1.0
 70
     8
 71
     3
 72
     8
 73
     4
 74
     0
 42
0.0000000001
 43
0.0000000001
 40
0.0
 40
0.0
 40
0.0
 40
0.0
 40
1.0
 40
1.0
 40
1.0
 40
1.0
 10
7.270990931777052
 20
-15.90043922351401
 30
0.0
 10
7.258350291056595
 20
-15.90545904334956
 30
0.0
 10
7.249743988008478
 20
-15.91732552428617
 30
0.0
 10
7.248898802283115
 20
-15.93090013478132
 30
0.0
  0
SPLINE
  5
CC
330
70
100
AcDbEntity
  8
Layer 1
 62
     7
370
     5
100
AcDbSpline
210
0.0
220
0.0
230
1.0
 70
     8
 71
     3
 72
     8
 73
     4
 74
     0
 42
0.0000000001
 43
0.0000000001
 40
0.0
 40
0.0
 40
0.0
 40
0.0
 40
1.0
 40
1.0
 40
1.0
 40
1.0
 10
7.242246418531989
 20
-15.7721134314811
 30
0.0
 10
7.245555502794053
 20
-15.78370300510278
 30
0.0
 10
7.254575976636273
 20
-15.79278643721368
 30
0.0
 10
7.266142254828182
 20
-15.79617604842623
 30
0.0
  0
SPLINE
  5
CD
330
70
100
AcDbEntity
  8
Layer 1
 62
     7
370
     5
100
AcDbSpline
210
0.0
220
0.0
230
1.0
 70
     8
 71
     3
 72
     8
 73
     4
 74
     0
 42
0.0000000001
 43
0.0000000001
 40
0.0
 40
0.0
 40
0.0
 40
0.0
 40
1.0
 40
1.0
 40
1.0
 40
1.0
 10
11.25593047274128
 20
-16.26725119039179
 30
0.0
 10
11.22352030723335
 20
-16.29402202304573
 30
0.0
 10
11.19617906954237
 20
-16.32639353029799
 30
0.0
 10
11.17520758199255
 20
-16.36282556316999
 30
0.0
  0
SPLINE
  5
CE
330
70
100
AcDbEntity
  8
Layer 1
 62
     7
370
     5
100
AcDbSpline
210
0.0
220
0.0
230
1.0
 70
     8
 71
     3
 72
     8
 73
     4
 74
     0
 42
0.0000000001
 43
0.0000000001
 40
0.0
 40
0.0
 40
0.0
 40
0.0
 40
1.0
 40
1.0
 40
1.0
 40
1.0
 10
11.48309771711779
 20
-16.15177386722709
 30
0.0
 10
11.44154108830202
 20
-16.16095941293585
 30
0.0
 10
11.40908525839886
 20
-16.19341524283901
 30
0.0
 10
11.39989971269008
 20
-16.23497187165478
 30
0.0
  0
SPLINE
  5
CF
330
70
100
AcDbEntity
  8
Layer 1
 62
     7
370
     5
100
AcDbSpline
210
0.0
220
0.0
230
1.0
 70
     8
 71
     3
 72
     8
 73
     4
 74
     0
 42
0.0000000001
 43
0.0000000001
 40
0.0
 40
0.0
 40
0.0
 40
0.0
 40
1.0
 40
1.0
 40
1.0
 40
1.0
 10
11.76550077732473
 20
-16.02973867148319
 30
0.0
 10
11.74750795065587
 20
-16.04050994789463
 30
0.0
 10
11.73334152220294
 20
-16.0566472733519
 30
0.0
 10
11.72499156426531
 20
-16.07588370778004
 30
0.0
  0
SPLINE
  5
D0
330
70
100
AcDbEntity
  8
Layer 1
 62
     7
370
     5
100
AcDbSpline
210
0.0
220
0.0
230
1.0
 70
     8
 71
     3
 72
     8
 73
     4
 74
     0
 42
0.0000000001
 43
0.0000000001
 40
0.0
 40
0.0
 40
0.0
 40
0.0
 40
1.0
 40
1.0
 40
1.0
 40
1.0
 10
11.12398706604669
 20
-16.68878452299832
 30
0.0
 10
11.15373386776946
 20
-16.68462959920655
 30
0.0
 10
11.17586924203316
 20
-16.6591875555645
 30
0.0
 10
11.17586924203316
 20
-16.62915198324688
 30
0.0
  0
SPLINE
  5
D1
330
70
100
AcDbEntity
  8
Layer 1
 62
     7
370
     5
100
AcDbSpline
210
0.0
220
0.0
230
1.0
 70
     8
 71
     3
 72
    11
 73
     7
 74
     0
 42
0.0000000001
 43
0.0000000001
 40
0.0
 40
0.0
 40
0.0
 40
0.0
 40
1.0
 40
1.0
 40
1.0
 40
2.0
 40
2.0
 40
2.0
 40
2.0
 10
11.62368510565453
 20
-16.07393156584135
 30
0.0
 10
11.61260048752832
 20
-16.0425795312656
 30
0.0
 10
11.57819878335906
 20
-16.02614954396505
 30
0.0
 10
11.54684674878333
 20
-16.03723416209133
 30
0.0
 10
11.52278948652522
 20
-16.04573968873109
 30
0.0
 10
11.5067057956621
 20
-16.06848546248279
 30
0.0
 10
11.5067057956621
 20
-16.09400204240197
 30
0.0
  0
SPLINE
  5
D2
330
70
100
AcDbEntity
  8
Layer 1
 62
     7
370
     5
100
AcDbSpline
210
0.0
220
0.0
230
1.0
 70
     8
 71
     3
 72
     8
 73
     4
 74
     0
 42
0.0000000001
 43
0.0000000001
 40
0.0
 40
0.0
 40
0.0
 40
0.0
 40
1.0
 40
1.0
 40
1.0
 40
1.0
 10
11.25593047274184
 20
-16.26725119045128
 30
0.0
 10
11.26285440286594
 20
-16.26153201648965
 30
0.0
 10
11.26686360076266
 20
-16.25302037852488
 30
0.0
 10
11.26686360076266
 20
-16.2440398574282
 30
0.0
  0
SPLINE
  5
D3
330
70
100
AcDbEntity
  8
Layer 1
 62
     7
370
     5
100
AcDbSpline
210
0.0
220
0.0
230
1.0
 70
     8
 71
     3
 72
     8
 73
     4
 74
     0
 42
0.0000000001
 43
0.0000000001
 40
0.0
 40
0.0
 40
0.0
 40
0.0
 40
1.0
 40
1.0
 40
1.0
 40
1.0
 10
11.37050354308063
 20
-16.25857995019909
 30
0.0
 10
11.38462679200117
 20
-16.25857995019909
 30
0.0
 10
11.3968515294857
 20
-16.24876225740452
 30
0.0
 10
11.39989971270597
 20
-16.23497187165475
 30
0.0
  0
SPLINE
  5
D4
330
70
100
AcDbEntity
  8
Layer 1
 62
     7
370
     5
100
AcDbSpline
210
0.0
220
0.0
230
1.0
 70
     8
 71
     3
 72
     8
 73
     4
 74
     0
 42
0.0000000001
 43
0.0000000001
 40
0.0
 40
0.0
 40
0.0
 40
0.0
 40
1.0
 40
1.0
 40
1.0
 40
1.0
 10
11.48309771711779
 20
-16.15177386724296
 30
0.0
 10
11.49688810286751
 20
-16.14872568402266
 30
0.0
 10
11.5067057956621
 20
-16.13650094653816
 30
0.0
 10
11.5067057956621
 20
-16.12237769761762
 30
0.0
  0
SPLINE
  5
D5
330
70
100
AcDbEntity
  8
Layer 1
 62
     7
370
     5
100
AcDbSpline
210
0.0
220
0.0
230
1.0
 70
     8
 71
     3
 72
     8
 73
     4
 74
     0
 42
0.0000000001
 43
0.0000000001
 40
0.0
 40
0.0
 40
0.0
 40
0.0
 40
1.0
 40
1.0
 40
1.0
 40
1.0
 10
11.62368510561178
 20
-16.07393156584074
 30
0.0
 10
11.62793786893146
 20
-16.08596019697006
 30
0.0
 10
11.63931075580747
 20
-16.09400204240197
 30
0.0
 10
11.65206904576732
 20
-16.09400204240197
 30
0.0
  0
SPLINE
  5
D6
330
70
100
AcDbEntity
  8
Layer 1
 62
     7
370
     5
100
AcDbSpline
210
0.0
220
0.0
230
1.0
 70
     8
 71
     3
 72
     8
 73
     4
 74
     0
 42
0.0000000001
 43
0.0000000001
 40
0.0
 40
0.0
 40
0.0
 40
0.0
 40
1.0
 40
1.0
 40
1.0
 40
1.0
 10
11.69737532298793
 20
-16.09400204240197
 30
0.0
 10
11.70936776136015
 20
-16.09400204240197
 30
0.0
 10
11.72021646030172
 20
-16.08688447864824
 30
0.0
 10
11.72499156426354
 20
-16.07588370775407
 30
0.0
  0
SPLINE
  5
D7
330
70
100
AcDbEntity
  8
Layer 1
 62
     7
370
     5
100
AcDbSpline
210
0.0
220
0.0
230
1.0
 70
     8
 71
     3
 72
     8
 73
     4
 74
     0
 42
0.0000000001
 43
0.0000000001
 40
0.0
 40
0.0
 40
0.0
 40
0.0
 40
1.0
 40
1.0
 40
1.0
 40
1.0
 10
11.26686360076266
 20
-16.24854471191871
 30
0.0
 10
11.26686360076266
 20
-16.25408702098192
 30
0.0
 10
11.27135652997983
 20
-16.25857995019909
 30
0.0
 10
11.27689883904296
 20
-16.25857995019909
 30
0.0
  0
SPLINE
  5
D8
330
70
100
AcDbEntity
  8
Layer 1
 62
     7
370
     5
100
AcDbSpline
210
0.0
220
0.0
230
1.0
 70
     8
 71
     3
 72
     8
 73
     4
 74
     0
 42
0.0000000001
 43
0.0000000001
 40
0.0
 40
0.0
 40
0.0
 40
0.0
 40
1.0
 40
1.0
 40
1.0
 40
1.0
 10
14.89949919885751
 20
-15.77211343145394
 30
0.0
 10
14.91149574538326
 20
-15.73009731818648
 30
0.0
 10
14.92216810079387
 20
-15.68771435476636
 30
0.0
 10
14.93150044319185
 20
-15.64502737445607
 30
0.0
  0
SPLINE
  5
D9
330
70
100
AcDbEntity
  8
Layer 1
 62
     7
370
     5
100
AcDbSpline
210
0.0
220
0.0
230
1.0
 70
     8
 71
     3
 72
     8
 73
     4
 74
     0
 42
0.0000000001
 43
0.0000000001
 40
0.0
 40
0.0
 40
0.0
 40
0.0
 40
1.0
 40
1.0
 40
1.0
 40
1.0
 10
10.91563026095031
 20
-16.70514805365456
 30
0.0
 10
10.98534871103632
 20
-16.70389494001018
 30
0.0
 10
11.05492775658146
 20
-16.69843047321243
 30
0.0
 10
11.12398706602668
 20
-16.68878452301821
 30
0.0
  0
SPLINE
  5
DA
330
70
100
AcDbEntity
  8
Layer 1
 62
     7
370
     5
100
AcDbSpline
210
0.0
220
0.0
230
1.0
 70
     8
 71
     3
 72
     8
 73
     4
 74
     0
 42
0.0000000001
 43
0.0000000001
 40
0.0
 40
0.0
 40
0.0
 40
0.0
 40
1.0
 40
1.0
 40
1.0
 40
1.0
 10
11.12398706602668
 20
-13.71094010023459
 30
0.0
 10
11.05492775658146
 20
-13.70129415004029
 30
0.0
 10
10.98534871103632
 20
-13.69582968324256
 30
0.0
 10
10.91563026095031
 20
-13.69457656959824
 30
0.0
  0
SPLINE
  5
DB
330
70
100
AcDbEntity
  8
Layer 1
 62
     7
370
     5
100
AcDbSpline
210
0.0
220
0.0
230
1.0
 70
     8
 71
     3
 72
     8
 73
     4
 74
     0
 42
0.0000000001
 43
0.0000000001
 40
0.0
 40
0.0
 40
0.0
 40
0.0
 40
1.0
 40
1.0
 40
1.0
 40
1.0
 10
11.17520758199255
 20
-14.03689905998241
 30
0.0
 10
11.19617906954237
 20
-14.07333109285441
 30
0.0
 10
11.22352030723335
 20
-14.10570260010667
 30
0.0
 10
11.25593047274128
 20
-14.13247343276058
 30
0.0
  0
SPLINE
  5
DC
330
70
100
AcDbEntity
  8
Layer 1
 62
     7
370
     5
100
AcDbSpline
210
0.0
220
0.0
230
1.0
 70
     8
 71
     3
 72
     8
 73
     4
 74
     0
 42
0.0000000001
 43
0.0000000001
 40
0.0
 40
0.0
 40
0.0
 40
0.0
 40
1.0
 40
1.0
 40
1.0
 40
1.0
 10
11.39989971269008
 20
-14.16475275159799
 30
0.0
 10
11.40908525839886
 20
-14.20630938041371
 30
0.0
 10
11.44154108830202
 20
-14.23876521031687
 30
0.0
 10
11.48309771711779
 20
-14.24795075602568
 30
0.0
  0
SPLINE
  5
DD
330
70
100
AcDbEntity
  8
Layer 1
 62
     7
370
     5
100
AcDbSpline
210
0.0
220
0.0
230
1.0
 70
     8
 71
     3
 72
     8
 73
     4
 74
     0
 42
0.0000000001
 43
0.0000000001
 40
0.0
 40
0.0
 40
0.0
 40
0.0
 40
1.0
 40
1.0
 40
1.0
 40
1.0
 10
11.72499156426531
 20
-14.3238409154727
 30
0.0
 10
11.73334152220294
 20
-14.34307734990082
 30
0.0
 10
11.74750795065587
 20
-14.35921467535809
 30
0.0
 10
11.76550077732473
 20
-14.36998595176955
 30
0.0
  0
SPLINE
  5
DE
330
70
100
AcDbEntity
  8
Layer 1
 62
     7
370
     5
100
AcDbSpline
210
0.0
220
0.0
230
1.0
 70
     8
 71
     3
 72
     8
 73
     4
 74
     0
 42
0.0000000001
 43
0.0000000001
 40
0.0
 40
0.0
 40
0.0
 40
0.0
 40
1.0
 40
1.0
 40
1.0
 40
1.0
 10
11.17586924203316
 20
-13.77057263990552
 30
0.0
 10
11.17586924203316
 20
-13.74053706758794
 30
0.0
 10
11.15373386776946
 20
-13.71509502394588
 30
0.0
 10
11.12398706604669
 20
-13.71094010015407
 30
0.0
  0
SPLINE
  5
DF
330
70
100
AcDbEntity
  8
Layer 1
 62
     7
370
     5
100
AcDbSpline
210
0.0
220
0.0
230
1.0
 70
     8
 71
     3
 72
    11
 73
     7
 74
     0
 42
0.0000000001
 43
0.0000000001
 40
0.0
 40
0.0
 40
0.0
 40
0.0
 40
1.0
 40
1.0
 40
1.0
 40
2.0
 40
2.0
 40
2.0
 40
2.0
 10
11.5067057956621
 20
-14.30572258085077
 30
0.0
 10
11.5067057956621
 20
-14.33897643522954
 30
0.0
 10
11.53366337096513
 20
-14.36593401053258
 30
0.0
 10
11.56691722534391
 20
-14.36593401053258
 30
0.0
 10
11.5924338052631
 20
-14.36593401053258
 30
0.0
 10
11.61517957901484
 20
-14.34985031966946
 30
0.0
 10
11.62368510565453
 20
-14.32579305741135
 30
0.0
  0
SPLINE
  5
E0
330
70
100
AcDbEntity
  8
Layer 1
 62
     7
370
     5
100
AcDbSpline
210
0.0
220
0.0
230
1.0
 70
     8
 71
     3
 72
     8
 73
     4
 74
     0
 42
0.0000000001
 43
0.0000000001
 40
0.0
 40
0.0
 40
0.0
 40
0.0
 40
1.0
 40
1.0
 40
1.0
 40
1.0
 10
11.26686360076266
 20
-14.15568476582451
 30
0.0
 10
11.26686360076266
 20
-14.14670424472784
 30
0.0
 10
11.26285440286594
 20
-14.13819260676309
 30
0.0
 10
11.25593047274184
 20
-14.13247343280144
 30
0.0
  0
SPLINE
  5
E1
330
70
100
AcDbEntity
  8
Layer 1
 62
     7
370
     5
100
AcDbSpline
210
0.0
220
0.0
230
1.0
 70
     8
 71
     3
 72
     8
 73
     4
 74
     0
 42
0.0000000001
 43
0.0000000001
 40
0.0
 40
0.0
 40
0.0
 40
0.0
 40
1.0
 40
1.0
 40
1.0
 40
1.0
 10
14.02577202984652
 20
-14.5977480148078
 30
0.0
 10
14.02168163243646
 20
-14.5977480148078
 30
0.0
 10
14.01763413636407
 20
-14.59858155674126
 30
0.0
 10
14.01387658117055
 20
-14.60019776524892
 30
0.0
  0
SPLINE
  5
E2
330
70
100
AcDbEntity
  8
Layer 1
 62
     7
370
     5
100
AcDbSpline
210
0.0
220
0.0
230
1.0
 70
     8
 71
     3
 72
     8
 73
     4
 74
     0
 42
0.0000000001
 43
0.0000000001
 40
0.0
 40
0.0
 40
0.0
 40
0.0
 40
1.0
 40
1.0
 40
1.0
 40
1.0
 10
14.01387658117051
 20
-15.79952685800377
 30
0.0
 10
14.01763413636402
 20
-15.80114306651148
 30
0.0
 10
14.02168163243638
 20
-15.80197660844492
 30
0.0
 10
14.02577202984647
 20
-15.80197660844492
 30
0.0
  0
SPLINE
  5
E3
330
70
100
AcDbEntity
  8
Layer 1
 62
     7
370
     5
100
AcDbSpline
210
0.0
220
0.0
230
1.0
 70
     8
 71
     3
 72
     8
 73
     4
 74
     0
 42
0.0000000001
 43
0.0000000001
 40
0.0
 40
0.0
 40
0.0
 40
0.0
 40
1.0
 40
1.0
 40
1.0
 40
1.0
 10
14.11005201329175
 20
-14.61649806527902
 30
0.0
 10
14.1054345298865
 20
-14.60516060213396
 30
0.0
 10
14.09441176676427
 20
-14.5977480148078
 30
0.0
 10
14.08217006657337
 20
-14.5977480148078
 30
0.0
  0
SPLINE
  5
E4
330
70
100
AcDbEntity
  8
Layer 1
 62
     7
370
     5
100
AcDbSpline
210
0.0
220
0.0
230
1.0
 70
     8
 71
     3
 72
     8
 73
     4
 74
     0
 42
0.0000000001
 43
0.0000000001
 40
0.0
 40
0.0
 40
0.0
 40
0.0
 40
1.0
 40
1.0
 40
1.0
 40
1.0
 10
14.08217006657337
 20
-15.80197660844492
 30
0.0
 10
14.09441176676427
 20
-15.80197660844492
 30
0.0
 10
14.1054345298865
 20
-15.7945640211187
 30
0.0
 10
14.11005201329175
 20
-15.78322655797372
 30
0.0
  0
SPLINE
  5
E5
330
70
100
AcDbEntity
  8
Layer 1
 62
     7
370
     5
100
AcDbSpline
210
0.0
220
0.0
230
1.0
 70
     8
 71
     3
 72
     8
 73
     4
 74
     0
 42
0.0000000001
 43
0.0000000001
 40
0.0
 40
0.0
 40
0.0
 40
0.0
 40
1.0
 40
1.0
 40
1.0
 40
1.0
 10
11.39989971270597
 20
-14.16475275159801
 30
0.0
 10
11.3968515294857
 20
-14.1509623658483
 30
0.0
 10
11.38462679200117
 20
-14.14114467305371
 30
0.0
 10
11.37050354308063
 20
-14.14114467305371
 30
0.0
  0
SPLINE
  5
E6
330
70
100
AcDbEntity
  8
Layer 1
 62
     7
370
     5
100
AcDbSpline
210
0.0
220
0.0
230
1.0
 70
     8
 71
     3
 72
     8
 73
     4
 74
     0
 42
0.0000000001
 43
0.0000000001
 40
0.0
 40
0.0
 40
0.0
 40
0.0
 40
1.0
 40
1.0
 40
1.0
 40
1.0
 10
11.5067057956621
 20
-14.27734692563508
 30
0.0
 10
11.5067057956621
 20
-14.26322367671453
 30
0.0
 10
11.49688810286751
 20
-14.25099893923006
 30
0.0
 10
11.48309771711779
 20
-14.24795075600976
 30
0.0
  0
SPLINE
  5
E7
330
70
100
AcDbEntity
  8
Layer 1
 62
     7
370
     5
100
AcDbSpline
210
0.0
220
0.0
230
1.0
 70
     8
 71
     3
 72
     8
 73
     4
 74
     0
 42
0.0000000001
 43
0.0000000001
 40
0.0
 40
0.0
 40
0.0
 40
0.0
 40
1.0
 40
1.0
 40
1.0
 40
1.0
 10
11.65206904576732
 20
-14.30572258085077
 30
0.0
 10
11.63931075580747
 20
-14.30572258085077
 30
0.0
 10
11.62793786893146
 20
-14.31376442628266
 30
0.0
 10
11.62368510561178
 20
-14.32579305741205
 30
0.0
  0
SPLINE
  5
E8
330
70
100
AcDbEntity
  8
Layer 1
 62
     7
370
     5
100
AcDbSpline
210
0.0
220
0.0
230
1.0
 70
     8
 71
     3
 72
     8
 73
     4
 74
     0
 42
0.0000000001
 43
0.0000000001
 40
0.0
 40
0.0
 40
0.0
 40
0.0
 40
1.0
 40
1.0
 40
1.0
 40
1.0
 10
11.72499156426354
 20
-14.32384091549865
 30
0.0
 10
11.72021646030172
 20
-14.31284014460453
 30
0.0
 10
11.70936776136015
 20
-14.30572258085077
 30
0.0
 10
11.69737532298793
 20
-14.30572258085077
 30
0.0
  0
SPLINE
  5
E9
330
70
100
AcDbEntity
  8
Layer 1
 62
     7
370
     5
100
AcDbSpline
210
0.0
220
0.0
230
1.0
 70
     8
 71
     3
 72
     8
 73
     4
 74
     0
 42
0.0000000001
 43
0.0000000001
 40
0.0
 40
0.0
 40
0.0
 40
0.0
 40
1.0
 40
1.0
 40
1.0
 40
1.0
 10
11.27689883904296
 20
-14.14114467305371
 30
0.0
 10
11.27135652997983
 20
-14.14114467305371
 30
0.0
 10
11.26686360076266
 20
-14.14563760227088
 30
0.0
 10
11.26686360076266
 20
-14.15117991133401
 30
0.0
  0
SPLINE
  5
EA
330
70
100
AcDbEntity
  8
Layer 1
 62
     7
370
     5
100
AcDbSpline
210
0.0
220
0.0
230
1.0
 70
     8
 71
     3
 72
    11
 73
     7
 74
     0
 42
0.0000000001
 43
0.0000000001
 40
0.0
 40
0.0
 40
0.0
 40
0.0
 40
1.0
 40
1.0
 40
1.0
 40
2.0
 40
2.0
 40
2.0
 40
2.0
 10
14.73536239625961
 20
-18.20686622470791
 30
0.0
 10
14.70623476678676
 20
-18.21585378228865
 30
0.0
 10
14.68990801264693
 20
-18.24675224637291
 30
0.0
 10
14.69889557022768
 20
-18.2758798758458
 30
0.0
 10
14.70456199692171
 20
-18.29424410613829
 30
0.0
 10
14.71937303184937
 20
-18.30833862198144
 30
0.0
 10
14.73799545737302
 20
-18.31308821284084
 30
0.0
  0
SPLINE
  5
EB
330
70
100
AcDbEntity
  8
Layer 1
 62
     7
370
     5
100
AcDbSpline
210
0.0
220
0.0
230
1.0
 70
     8
 71
     3
 72
    11
 73
     7
 74
     0
 42
0.0000000001
 43
0.0000000001
 40
0.0
 40
0.0
 40
0.0
 40
0.0
 40
1.0
 40
1.0
 40
1.0
 40
2.0
 40
2.0
 40
2.0
 40
2.0
 10
15.52996131721177
 20
-18.31308821284084
 30
0.0
 10
15.55949847188142
 20
-18.30555485475848
 30
0.0
 10
15.57733607340265
 20
-18.27550326652289
 30
0.0
 10
15.56980271532022
 20
-18.24596611185325
 30
0.0
 10
15.56505312446079
 20
-18.22734368632963
 30
0.0
 10
15.55095860861764
 20
-18.21253265140197
 30
0.0
 10
15.53259437832518
 20
-18.20686622470791
 30
0.0
  0
SPLINE
  5
EC
330
70
100
AcDbEntity
  8
Layer 1
 62
     7
370
     5
100
AcDbSpline
210
0.0
220
0.0
230
1.0
 70
     8
 71
     3
 72
     8
 73
     4
 74
     0
 42
0.0000000001
 43
0.0000000001
 40
0.0
 40
0.0
 40
0.0
 40
0.0
 40
1.0
 40
1.0
 40
1.0
 40
1.0
 10
15.50952012438243
 20
-18.18407827685496
 30
0.0
 10
15.51303454935982
 20
-18.19498297364771
 30
0.0
 10
15.52164665379716
 20
-18.20348821884621
 30
0.0
 10
15.53259437827422
 20
-18.20686622474277
 30
0.0
  0
SPLINE
  5
ED
330
70
100
AcDbEntity
  8
Layer 1
 62
     7
370
     5
100
AcDbSpline
210
0.0
220
0.0
230
1.0
 70
     8
 71
     3
 72
     8
 73
     4
 74
     0
 42
0.0000000001
 43
0.0000000001
 40
0.0
 40
0.0
 40
0.0
 40
0.0
 40
1.0
 40
1.0
 40
1.0
 40
1.0
 10
14.73536239621019
 20
-18.20686622474277
 30
0.0
 10
14.74631012068726
 20
-18.20348821884621
 30
0.0
 10
14.7549222251246
 20
-18.19498297364771
 30
0.0
 10
14.75843665010201
 20
-18.18407827685496
 30
0.0
  0
SPLINE
  5
EE
330
70
100
AcDbEntity
  8
Layer 1
 62
     7
370
     5
100
AcDbSpline
210
0.0
220
0.0
230
1.0
 70
     8
 71
     3
 72
     8
 73
     4
 74
     0
 42
0.0000000001
 43
0.0000000001
 40
0.0
 40
0.0
 40
0.0
 40
0.0
 40
1.0
 40
1.0
 40
1.0
 40
1.0
 10
15.36947856824483
 20
-14.80003912562925
 30
0.0
 10
15.21600951495144
 20
-14.75294865956228
 30
0.0
 10
15.0519472596333
 20
-14.75294865956228
 30
0.0
 10
14.89847820633991
 20
-14.80003912562925
 30
0.0
  0
SPLINE
  5
EF
330
70
100
AcDbEntity
  8
Layer 1
 62
     7
370
     5
100
AcDbSpline
210
0.0
220
0.0
230
1.0
 70
     8
 71
     3
 72
     8
 73
     4
 74
     0
 42
0.0000000001
 43
0.0000000001
 40
0.0
 40
0.0
 40
0.0
 40
0.0
 40
1.0
 40
1.0
 40
1.0
 40
1.0
 10
14.84830976566662
 20
-15.50512558822417
 30
0.0
 10
14.79248372639495
 20
-15.4713718879981
 30
0.0
 10
14.72925301716016
 20
-15.45177619104361
 30
0.0
 10
14.66412288364677
 20
-15.4480446165456
 30
0.0
  0
SPLINE
  5
F0
330
70
100
AcDbEntity
  8
Layer 1
 62
     7
370
     5
100
AcDbSpline
210
0.0
220
0.0
230
1.0
 70
     8
 71
     3
 72
     8
 73
     4
 74
     0
 42
0.0000000001
 43
0.0000000001
 40
0.0
 40
0.0
 40
0.0
 40
0.0
 40
1.0
 40
1.0
 40
1.0
 40
1.0
 10
14.50180544867493
 20
-15.4727238962219
 30
0.0
 10
14.40202532322703
 20
-15.49939688607052
 30
0.0
 10
14.31721354479924
 20
-15.56517291853338
 30
0.0
 10
14.26655001244848
 20
-15.65517696461804
 30
0.0
  0
SPLINE
  5
F1
330
70
100
AcDbEntity
  8
Layer 1
 62
     7
370
     5
100
AcDbSpline
210
0.0
220
0.0
230
1.0
 70
     8
 71
     3
 72
     8
 73
     4
 74
     0
 42
0.0000000001
 43
0.0000000001
 40
0.0
 40
0.0
 40
0.0
 40
0.0
 40
1.0
 40
1.0
 40
1.0
 40
1.0
 10
14.16593830585697
 20
-15.73369761654493
 30
0.0
 10
14.14061407207282
 20
-15.74060536763025
 30
0.0
 10
14.11995312323845
 20
-15.75891602805826
 30
0.0
 10
14.11005201334958
 20
-15.78322655797385
 30
0.0
  0
SPLINE
  5
F2
330
70
100
AcDbEntity
  8
Layer 1
 62
     7
370
     5
100
AcDbSpline
210
0.0
220
0.0
230
1.0
 70
     8
 71
     3
 72
    11
 73
     7
 74
     0
 42
0.0000000001
 43
0.0000000001
 40
0.0
 40
0.0
 40
0.0
 40
0.0
 40
1.0
 40
1.0
 40
1.0
 40
2.0
 40
2.0
 40
2.0
 40
2.0
 10
14.87560336262398
 20
-15.79617604839963
 30
0.0
 10
14.84635094917373
 20
-15.80474875493329
 30
0.0
 10
14.82958673441243
 20
-15.83541207319705
 30
0.0
 10
14.83815944094613
 20
-15.86466448664732
 30
0.0
 10
14.84293826919629
 20
-15.88097115236984
 30
0.0
 10
14.8549619107996
 20
-15.89416763607492
 30
0.0
 10
14.87075468562453
 20
-15.90043922357414
 30
0.0
  0
SPLINE
  5
F3
330
70
100
AcDbEntity
  8
Layer 1
 62
     7
370
     5
100
AcDbSpline
210
0.0
220
0.0
230
1.0
 70
     8
 71
     3
 72
    11
 73
     7
 74
     0
 42
0.0000000001
 43
0.0000000001
 40
0.0
 40
0.0
 40
0.0
 40
0.0
 40
1.0
 40
1.0
 40
1.0
 40
2.0
 40
2.0
 40
2.0
 40
2.0
 10
15.39720208896028
 20
-15.90043922357414
 30
0.0
 10
15.42553263712787
 20
-15.88918866667675
 30
0.0
 10
15.439378705785
 20
-15.85710184124562
 30
0.0
 10
15.4281281488876
 20
-15.82877129307798
 30
0.0
 10
15.42185656138836
 20
-15.81297851825318
 30
0.0
 10
15.40866007768325
 20
-15.80095487664981
 30
0.0
 10
15.39235341196078
 20
-15.79617604839963
 30
0.0
  0
SPLINE
  5
F4
330
70
100
AcDbEntity
  8
Layer 1
 62
     7
370
     5
100
AcDbSpline
210
0.0
220
0.0
230
1.0
 70
     8
 71
     3
 72
    11
 73
     7
 74
     0
 42
0.0000000001
 43
0.0000000001
 40
0.0
 40
0.0
 40
0.0
 40
0.0
 40
1.0
 40
1.0
 40
1.0
 40
2.0
 40
2.0
 40
2.0
 40
2.0
 10
14.52430194655122
 20
-15.44773269715003
 30
0.0
 10
14.52430194655122
 20
-15.4754442424657
 30
0.0
 10
14.54676659263711
 20
-15.49790888855156
 30
0.0
 10
14.57447813795273
 20
-15.49790888855156
 30
0.0
 10
14.59235694326387
 20
-15.49790888855156
 30
0.0
 10
14.60888512558262
 20
-15.48839546962262
 30
0.0
 10
14.61786546357302
 20
-15.47293567632098
 30
0.0
  0
SPLINE
  5
F5
330
70
100
AcDbEntity
  8
Layer 1
 62
     7
370
     5
100
AcDbSpline
210
0.0
220
0.0
230
1.0
 70
     8
 71
     3
 72
     8
 73
     4
 74
     0
 42
0.0000000001
 43
0.0000000001
 40
0.0
 40
0.0
 40
0.0
 40
0.0
 40
1.0
 40
1.0
 40
1.0
 40
1.0
 10
14.87252471487798
 20
-15.54806349776256
 30
0.0
 10
14.872524714876
 20
-15.53049912644804
 30
0.0
 10
14.86334034832548
 20
-15.51421342215854
 30
0.0
 10
14.84830976575045
 20
-15.50512558814105
 30
0.0
  0
SPLINE
  5
F6
330
70
100
AcDbEntity
  8
Layer 1
 62
     7
370
     5
100
AcDbSpline
210
0.0
220
0.0
230
1.0
 70
     8
 71
     3
 72
     8
 73
     4
 74
     0
 42
0.0000000001
 43
0.0000000001
 40
0.0
 40
0.0
 40
0.0
 40
0.0
 40
1.0
 40
1.0
 40
1.0
 40
1.0
 10
14.66412288367971
 20
-15.44804461649005
 30
0.0
 10
14.6452454467747
 20
-15.44696305011846
 30
0.0
 10
14.62736295384151
 20
-15.45658559715975
 30
0.0
 10
14.61786546354763
 20
-15.47293567630436
 30
0.0
  0
SPLINE
  5
F7
330
70
100
AcDbEntity
  8
Layer 1
 62
     7
370
     5
100
AcDbSpline
210
0.0
220
0.0
230
1.0
 70
     8
 71
     3
 72
     8
 73
     4
 74
     0
 42
0.0000000001
 43
0.0000000001
 40
0.0
 40
0.0
 40
0.0
 40
0.0
 40
1.0
 40
1.0
 40
1.0
 40
1.0
 10
15.44273804952675
 20
-15.52098993659628
 30
0.0
 10
15.45699871163068
 20
-15.52098993659628
 30
0.0
 10
15.46997021204083
 20
-15.51273484235248
 30
0.0
 10
15.47600930866332
 20
-15.4998160267865
 30
0.0
  0
SPLINE
  5
F8
330
70
100
AcDbEntity
  8
Layer 1
 62
     7
370
     5
100
AcDbSpline
210
0.0
220
0.0
230
1.0
 70
     8
 71
     3
 72
     8
 73
     4
 74
     0
 42
0.0000000001
 43
0.0000000001
 40
0.0
 40
0.0
 40
0.0
 40
0.0
 40
1.0
 40
1.0
 40
1.0
 40
1.0
 10
15.36947856817134
 20
-15.59968549760376
 30
0.0
 10
15.38490272641231
 20
-15.59495274669797
 30
0.0
 10
15.39543205960646
 20
-15.58070806656554
 30
0.0
 10
15.39543205960646
 20
-15.5645741399332
 30
0.0
  0
SPLINE
  5
F9
330
70
100
AcDbEntity
  8
Layer 1
 62
     7
370
     5
100
AcDbSpline
210
0.0
220
0.0
230
1.0
 70
     8
 71
     3
 72
     8
 73
     4
 74
     0
 42
0.0000000001
 43
0.0000000001
 40
0.0
 40
0.0
 40
0.0
 40
0.0
 40
1.0
 40
1.0
 40
1.0
 40
1.0
 10
14.87252471487798
 20
-15.5645741399332
 30
0.0
 10
14.87252471487798
 20
-15.5807080665681
 30
0.0
 10
14.88305404807536
 20
-15.59495274670207
 30
0.0
 10
14.89847820631962
 20
-15.59968549760578
 30
0.0
  0
SPLINE
  5
FA
330
70
100
AcDbEntity
  8
Layer 1
 62
     7
370
     5
100
AcDbSpline
210
0.0
220
0.0
230
1.0
 70
     8
 71
     3
 72
     8
 73
     4
 74
     0
 42
0.0000000001
 43
0.0000000001
 40
0.0
 40
0.0
 40
0.0
 40
0.0
 40
1.0
 40
1.0
 40
1.0
 40
1.0
 10
15.36190868529292
 20
-15.60196751799473
 30
0.0
 10
15.34345114231721
 20
-15.6074327361091
 30
0.0
 10
15.33234502244737
 20
-15.62622187944715
 30
0.0
 10
15.33645633132465
 20
-15.64502737441674
 30
0.0
  0
SPLINE
  5
FB
330
70
100
AcDbEntity
  8
Layer 1
 62
     7
370
     5
100
AcDbSpline
210
0.0
220
0.0
230
1.0
 70
     8
 71
     3
 72
     8
 73
     4
 74
     0
 42
0.0000000001
 43
0.0000000001
 40
0.0
 40
0.0
 40
0.0
 40
0.0
 40
1.0
 40
1.0
 40
1.0
 40
1.0
 10
14.93150044316293
 20
-15.64502737440251
 30
0.0
 10
14.93561175203149
 20
-15.62622187943672
 30
0.0
 10
14.92450563216178
 20
-15.60743273610748
 30
0.0
 10
14.90604808919152
 20
-15.60196751799473
 30
0.0
  0
SPLINE
  5
FC
330
70
100
AcDbEntity
  8
Layer 1
 62
     7
370
     5
100
AcDbSpline
210
0.0
220
0.0
230
1.0
 70
     8
 71
     3
 72
     8
 73
     4
 74
     0
 42
0.0000000001
 43
0.0000000001
 40
0.0
 40
0.0
 40
0.0
 40
0.0
 40
1.0
 40
1.0
 40
1.0
 40
1.0
 10
15.36845757554619
 20
-15.77211343129837
 30
0.0
 10
15.37176665976456
 20
-15.78370300500455
 30
0.0
 10
15.38078713364042
 20
-15.79278643719713
 30
0.0
 10
15.39235341189927
 20
-15.79617604842759
 30
0.0
  0
SPLINE
  5
FD
330
70
100
AcDbEntity
  8
Layer 1
 62
     7
370
     5
100
AcDbSpline
210
0.0
220
0.0
230
1.0
 70
     8
 71
     3
 72
     8
 73
     4
 74
     0
 42
0.0000000001
 43
0.0000000001
 40
0.0
 40
0.0
 40
0.0
 40
0.0
 40
1.0
 40
1.0
 40
1.0
 40
1.0
 10
14.87560336258512
 20
-15.79617604842759
 30
0.0
 10
14.88716964077601
 20
-15.79278643721709
 30
0.0
 10
14.89619011461872
 20
-15.7837030051094
 30
0.0
 10
14.89949919888343
 20
-15.77211343149017
 30
0.0
  0
SPLINE
  5
FE
330
70
100
AcDbEntity
  8
Layer 1
 62
     7
370
     5
100
AcDbSpline
210
0.0
220
0.0
230
1.0
 70
     8
 71
     3
 72
     8
 73
     4
 74
     0
 42
0.0000000001
 43
0.0000000001
 40
0.0
 40
0.0
 40
0.0
 40
0.0
 40
1.0
 40
1.0
 40
1.0
 40
1.0
 10
15.39720208895258
 20
-15.90043922351047
 30
0.0
 10
15.38456144822852
 20
-15.90545904334357
 30
0.0
 10
15.37595514517657
 20
-15.91732552428112
 30
0.0
 10
15.37510995945005
 20
-15.93090013477864
 30
0.0
  0
SPLINE
  5
FF
330
70
100
AcDbEntity
  8
Layer 1
 62
     7
370
     5
100
AcDbSpline
210
0.0
220
0.0
230
1.0
 70
     8
 71
     3
 72
     8
 73
     4
 74
     0
 42
0.0000000001
 43
0.0000000001
 40
0.0
 40
0.0
 40
0.0
 40
0.0
 40
1.0
 40
1.0
 40
1.0
 40
1.0
 10
14.89284681503439
 20
-15.93090013477859
 30
0.0
 10
14.89200162930779
 20
-15.91732552428109
 30
0.0
 10
14.88339532625589
 20
-15.90545904334357
 30
0.0
 10
14.87075468553186
 20
-15.90043922351047
 30
0.0
  0
SPLINE
  5
100
330
70
100
AcDbEntity
  8
Layer 1
 62
     7
370
     5
100
AcDbSpline
210
0.0
220
0.0
230
1.0
 70
     8
 71
     3
 72
     8
 73
     4
 74
     0
 42
0.0000000001
 43
0.0000000001
 40
0.0
 40
0.0
 40
0.0
 40
0.0
 40
1.0
 40
1.0
 40
1.0
 40
1.0
 10
14.24031512491377
 20
-15.67051498697287
 30
0.0
 10
14.25118822055404
 20
-15.67051498697287
 30
0.0
 10
14.26121645591517
 20
-15.66465205739392
 30
0.0
 10
14.26655001246846
 20
-15.65517696460834
 30
0.0
  0
SPLINE
  5
101
330
70
100
AcDbEntity
  8
Layer 1
 62
     7
370
     5
100
AcDbSpline
210
0.0
220
0.0
230
1.0
 70
     8
 71
     3
 72
     8
 73
     4
 74
     0
 42
0.0000000001
 43
0.0000000001
 40
0.0
 40
0.0
 40
0.0
 40
0.0
 40
1.0
 40
1.0
 40
1.0
 40
1.0
 10
14.16593830585712
 20
-15.73369761652376
 30
0.0
 10
14.17903553352271
 20
-15.73012505478729
 30
0.0
 10
14.18812146416083
 20
-15.71822877909913
 30
0.0
 10
14.18812146416083
 20
-15.70465304450075
 30
0.0
  0
SPLINE
  5
102
330
70
100
AcDbEntity
  8
Layer 1
 62
     7
370
     5
100
AcDbSpline
210
0.0
220
0.0
230
1.0
 70
     8
 71
     3
 72
     8
 73
     4
 74
     0
 42
0.0000000001
 43
0.0000000001
 40
0.0
 40
0.0
 40
0.0
 40
0.0
 40
1.0
 40
1.0
 40
1.0
 40
1.0
 10
14.21822717900179
 20
-15.67051498697287
 30
0.0
 10
14.20160025181237
 20
-15.67051498697287
 30
0.0
 10
14.18812146416083
 20
-15.68399377462444
 30
0.0
 10
14.18812146416083
 20
-15.7006207018138
 30
0.0
  0
SPLINE
  5
103
330
70
100
AcDbEntity
  8
Layer 1
 62
     7
370
     5
100
AcDbSpline
210
0.0
220
0.0
230
1.0
 70
     8
 71
     3
 72
     8
 73
     4
 74
     0
 42
0.0000000001
 43
0.0000000001
 40
0.0
 40
0.0
 40
0.0
 40
0.0
 40
1.0
 40
1.0
 40
1.0
 40
1.0
 10
15.39543205960646
 20
-15.50593707917584
 30
0.0
 10
15.39543205960646
 20
-15.51425054277049
 30
0.0
 10
15.4021714534322
 20
-15.52098993659628
 30
0.0
 10
15.4104849170269
 20
-15.52098993659628
 30
0.0
  0
SPLINE
  5
104
330
70
100
AcDbEntity
  8
Layer 1
 62
     7
370
     5
100
AcDbSpline
210
0.0
220
0.0
230
1.0
 70
     8
 71
     3
 72
     8
 73
     4
 74
     0
 42
0.0000000001
 43
0.0000000001
 40
0.0
 40
0.0
 40
0.0
 40
0.0
 40
1.0
 40
1.0
 40
1.0
 40
1.0
 10
14.52430194655122
 20
-15.40558469635306
 30
0.0
 10
14.52430194654039
 20
-15.40004238729759
 30
0.0
 10
14.51980901732635
 20
-15.39554945809239
 30
0.0
 10
14.51426670827092
 20
-15.39554945809239
 30
0.0
  0
SPLINE
  5
105
330
70
100
AcDbEntity
  8
Layer 1
 62
     7
370
     5
100
AcDbSpline
210
0.0
220
0.0
230
1.0
 70
     8
 71
     3
 72
     8
 73
     4
 74
     0
 42
0.0000000001
 43
0.0000000001
 40
0.0
 40
0.0
 40
0.0
 40
0.0
 40
1.0
 40
1.0
 40
1.0
 40
1.0
 10
14.50180544875444
 20
-15.47272389615538
 30
0.0
 10
14.50619550550393
 20
-15.4715503564452
 30
0.0
 10
14.50924908913079
 20
-15.46757327577805
 30
0.0
 10
14.50924908913079
 20
-15.46302907136861
 30
0.0
  0
SPLINE
  5
106
330
70
100
AcDbEntity
  8
Layer 1
 62
     7
370
     5
100
AcDbSpline
210
0.0
220
0.0
230
1.0
 70
     8
 71
     3
 72
     8
 73
     4
 74
     0
 42
0.0000000001
 43
0.0000000001
 40
0.0
 40
0.0
 40
0.0
 40
0.0
 40
1.0
 40
1.0
 40
1.0
 40
1.0
 10
15.36190868530032
 20
-15.60196751803124
 30
0.0
 10
15.36443570999843
 20
-15.60121927428208
 30
0.0
 10
15.36695903490494
 20
-15.60045859159069
 30
0.0
 10
15.36947856824483
 20
-15.59968549762347
 30
0.0
  0
SPLINE
  5
107
330
70
100
AcDbEntity
  8
Layer 1
 62
     7
370
     5
100
AcDbSpline
210
0.0
220
0.0
230
1.0
 70
     8
 71
     3
 72
     8
 73
     4
 74
     0
 42
0.0000000001
 43
0.0000000001
 40
0.0
 40
0.0
 40
0.0
 40
0.0
 40
1.0
 40
1.0
 40
1.0
 40
1.0
 10
14.89847820633991
 20
-15.59968549762347
 30
0.0
 10
14.90099773967982
 20
-15.60045859159069
 30
0.0
 10
14.90352106458633
 20
-15.60121927428208
 30
0.0
 10
14.90604808928447
 20
-15.60196751803124
 30
0.0
  0
SPLINE
  5
108
330
70
100
AcDbEntity
  8
Layer 1
 62
     7
370
     5
100
AcDbSpline
210
0.0
220
0.0
230
1.0
 70
     8
 71
     3
 72
     8
 73
     4
 74
     0
 42
0.0000000001
 43
0.0000000001
 40
0.0
 40
0.0
 40
0.0
 40
0.0
 40
1.0
 40
1.0
 40
1.0
 40
1.0
 10
15.47600930862687
 20
-15.49981602678677
 30
0.0
 10
15.56487289853205
 20
-15.30971932850856
 30
0.0
 10
15.56487289853205
 20
-15.09000529474423
 30
0.0
 10
15.47600930862687
 20
-14.89990859646594
 30
0.0
  0
SPLINE
  5
109
330
70
100
AcDbEntity
  8
Layer 1
 62
     7
370
     5
100
AcDbSpline
210
0.0
220
0.0
230
1.0
 70
     8
 71
     3
 72
     8
 73
     4
 74
     0
 42
0.0000000001
 43
0.0000000001
 40
0.0
 40
0.0
 40
0.0
 40
0.0
 40
1.0
 40
1.0
 40
1.0
 40
1.0
 10
14.66412288364677
 20
-14.95168000670714
 30
0.0
 10
14.72925301716016
 20
-14.94794843220911
 30
0.0
 10
14.79248372639495
 20
-14.92835273525462
 30
0.0
 10
14.84830976566662
 20
-14.89459903502855
 30
0.0
  0
SPLINE
  5
10A
330
70
100
AcDbEntity
  8
Layer 1
 62
     7
370
     5
100
AcDbSpline
210
0.0
220
0.0
230
1.0
 70
     8
 71
     3
 72
     8
 73
     4
 74
     0
 42
0.0000000001
 43
0.0000000001
 40
0.0
 40
0.0
 40
0.0
 40
0.0
 40
1.0
 40
1.0
 40
1.0
 40
1.0
 10
14.26655001244848
 20
-14.74454765863475
 30
0.0
 10
14.31721354479924
 20
-14.83455170471931
 30
0.0
 10
14.40202532322703
 20
-14.9003277371822
 30
0.0
 10
14.50180544867493
 20
-14.92700072703087
 30
0.0
  0
SPLINE
  5
10B
330
70
100
AcDbEntity
  8
Layer 1
 62
     7
370
     5
100
AcDbSpline
210
0.0
220
0.0
230
1.0
 70
     8
 71
     3
 72
     8
 73
     4
 74
     0
 42
0.0000000001
 43
0.0000000001
 40
0.0
 40
0.0
 40
0.0
 40
0.0
 40
1.0
 40
1.0
 40
1.0
 40
1.0
 10
14.11005201334958
 20
-14.61649806527887
 30
0.0
 10
14.11995312323845
 20
-14.64080859519451
 30
0.0
 10
14.14061407207282
 20
-14.65911925562252
 30
0.0
 10
14.16593830585697
 20
-14.66602700670778
 30
0.0
  0
SPLINE
  5
10C
330
70
100
AcDbEntity
  8
Layer 1
 62
     7
370
     5
100
AcDbSpline
210
0.0
220
0.0
230
1.0
 70
     8
 71
     3
 72
    11
 73
     7
 74
     0
 42
0.0000000001
 43
0.0000000001
 40
0.0
 40
0.0
 40
0.0
 40
0.0
 40
1.0
 40
1.0
 40
1.0
 40
2.0
 40
2.0
 40
2.0
 40
2.0
 10
14.61786546357302
 20
-14.92678894693181
 30
0.0
 10
14.60394624252661
 20
-14.90282678865578
 30
0.0
 10
14.57323731705782
 20
-14.89468537943614
 30
0.0
 10
14.54927515878188
 20
-14.90860460048248
 30
0.0
 10
14.53381536548022
 20
-14.9175849384729
 30
0.0
 10
14.52430194655122
 20
-14.93411312079166
 30
0.0
 10
14.52430194655122
 20
-14.95199192610271
 30
0.0
  0
SPLINE
  5
10D
330
70
100
AcDbEntity
  8
Layer 1
 62
     7
370
     5
100
AcDbSpline
210
0.0
220
0.0
230
1.0
 70
     8
 71
     3
 72
     8
 73
     4
 74
     0
 42
0.0000000001
 43
0.0000000001
 40
0.0
 40
0.0
 40
0.0
 40
0.0
 40
1.0
 40
1.0
 40
1.0
 40
1.0
 10
14.84830976575045
 20
-14.89459903501132
 30
0.0
 10
14.86334034832548
 20
-14.88551120099381
 30
0.0
 10
14.872524714876
 20
-14.86922549670435
 30
0.0
 10
14.87252471487798
 20
-14.85166112538986
 30
0.0
  0
SPLINE
  5
10E
330
70
100
AcDbEntity
  8
Layer 1
 62
     7
370
     5
100
AcDbSpline
210
0.0
220
0.0
230
1.0
 70
     8
 71
     3
 72
     8
 73
     4
 74
     0
 42
0.0000000001
 43
0.0000000001
 40
0.0
 40
0.0
 40
0.0
 40
0.0
 40
1.0
 40
1.0
 40
1.0
 40
1.0
 10
14.61786546354763
 20
-14.92678894694836
 30
0.0
 10
14.62736295384151
 20
-14.943139026093
 30
0.0
 10
14.6452454467747
 20
-14.95276157313426
 30
0.0
 10
14.66412288367971
 20
-14.95168000676267
 30
0.0
  0
SPLINE
  5
10F
330
70
100
AcDbEntity
  8
Layer 1
 62
     7
370
     5
100
AcDbSpline
210
0.0
220
0.0
230
1.0
 70
     8
 71
     3
 72
     8
 73
     4
 74
     0
 42
0.0000000001
 43
0.0000000001
 40
0.0
 40
0.0
 40
0.0
 40
0.0
 40
1.0
 40
1.0
 40
1.0
 40
1.0
 10
15.47600930866332
 20
-14.89990859646622
 30
0.0
 10
15.46997021204083
 20
-14.88698978090024
 30
0.0
 10
15.45699871163068
 20
-14.87873468665644
 30
0.0
 10
15.44273804952675
 20
-14.87873468665644
 30
0.0
  0
SPLINE
  5
110
330
70
100
AcDbEntity
  8
Layer 1
 62
     7
370
     5
100
AcDbSpline
210
0.0
220
0.0
230
1.0
 70
     8
 71
     3
 72
     8
 73
     4
 74
     0
 42
0.0000000001
 43
0.0000000001
 40
0.0
 40
0.0
 40
0.0
 40
0.0
 40
1.0
 40
1.0
 40
1.0
 40
1.0
 10
15.39543205960646
 20
-14.83515048331956
 30
0.0
 10
15.39543205960646
 20
-14.81901655668715
 30
0.0
 10
15.38490272641231
 20
-14.80477187655479
 30
0.0
 10
15.36947856817134
 20
-14.80003912564896
 30
0.0
  0
SPLINE
  5
111
330
70
100
AcDbEntity
  8
Layer 1
 62
     7
370
     5
100
AcDbSpline
210
0.0
220
0.0
230
1.0
 70
     8
 71
     3
 72
     8
 73
     4
 74
     0
 42
0.0000000001
 43
0.0000000001
 40
0.0
 40
0.0
 40
0.0
 40
0.0
 40
1.0
 40
1.0
 40
1.0
 40
1.0
 10
14.89847820631962
 20
-14.80003912564694
 30
0.0
 10
14.88305404807536
 20
-14.80477187655065
 30
0.0
 10
14.87252471487798
 20
-14.81901655668462
 30
0.0
 10
14.87252471487798
 20
-14.83515048331956
 30
0.0
  0
SPLINE
  5
112
330
70
100
AcDbEntity
  8
Layer 1
 62
     7
370
     5
100
AcDbSpline
210
0.0
220
0.0
230
1.0
 70
     8
 71
     3
 72
     8
 73
     4
 74
     0
 42
0.0000000001
 43
0.0000000001
 40
0.0
 40
0.0
 40
0.0
 40
0.0
 40
1.0
 40
1.0
 40
1.0
 40
1.0
 10
14.26655001246846
 20
-14.74454765864438
 30
0.0
 10
14.26121645591517
 20
-14.73507256585885
 30
0.0
 10
14.25118822055404
 20
-14.72920963627984
 30
0.0
 10
14.24031512491377
 20
-14.72920963627984
 30
0.0
  0
SPLINE
  5
113
330
70
100
AcDbEntity
  8
Layer 1
 62
     7
370
     5
100
AcDbSpline
210
0.0
220
0.0
230
1.0
 70
     8
 71
     3
 72
     8
 73
     4
 74
     0
 42
0.0000000001
 43
0.0000000001
 40
0.0
 40
0.0
 40
0.0
 40
0.0
 40
1.0
 40
1.0
 40
1.0
 40
1.0
 10
14.18812146416083
 20
-14.69507157875197
 30
0.0
 10
14.18812146416083
 20
-14.68149584415358
 30
0.0
 10
14.17903553352271
 20
-14.66959956846545
 30
0.0
 10
14.16593830585712
 20
-14.66602700672898
 30
0.0
  0
SPLINE
  5
114
330
70
100
AcDbEntity
  8
Layer 1
 62
     7
370
     5
100
AcDbSpline
210
0.0
220
0.0
230
1.0
 70
     8
 71
     3
 72
     8
 73
     4
 74
     0
 42
0.0000000001
 43
0.0000000001
 40
0.0
 40
0.0
 40
0.0
 40
0.0
 40
1.0
 40
1.0
 40
1.0
 40
1.0
 10
14.18812146416083
 20
-14.69910392143889
 30
0.0
 10
14.18812146416083
 20
-14.71573084862833
 30
0.0
 10
14.20160025181237
 20
-14.72920963627984
 30
0.0
 10
14.21822717900179
 20
-14.72920963627984
 30
0.0
  0
SPLINE
  5
115
330
70
100
AcDbEntity
  8
Layer 1
 62
     7
370
     5
100
AcDbSpline
210
0.0
220
0.0
230
1.0
 70
     8
 71
     3
 72
     8
 73
     4
 74
     0
 42
0.0000000001
 43
0.0000000001
 40
0.0
 40
0.0
 40
0.0
 40
0.0
 40
1.0
 40
1.0
 40
1.0
 40
1.0
 10
15.4104849170269
 20
-14.87873468665644
 30
0.0
 10
15.4021714534322
 20
-14.87873468665644
 30
0.0
 10
15.39543205960646
 20
-14.88547408048223
 30
0.0
 10
15.39543205960646
 20
-14.89378754407693
 30
0.0
  0
SPLINE
  5
116
330
70
100
AcDbEntity
  8
Layer 1
 62
     7
370
     5
100
AcDbSpline
210
0.0
220
0.0
230
1.0
 70
     8
 71
     3
 72
     8
 73
     4
 74
     0
 42
0.0000000001
 43
0.0000000001
 40
0.0
 40
0.0
 40
0.0
 40
0.0
 40
1.0
 40
1.0
 40
1.0
 40
1.0
 10
14.51426670827092
 20
-15.00417516516035
 30
0.0
 10
14.51980901732635
 20
-15.00417516516035
 30
0.0
 10
14.52430194654039
 20
-14.99968223595513
 30
0.0
 10
14.52430194655122
 20
-14.9941399268997
 30
0.0
  0
SPLINE
  5
117
330
70
100
AcDbEntity
  8
Layer 1
 62
     7
370
     5
100
AcDbSpline
210
0.0
220
0.0
230
1.0
 70
     8
 71
     3
 72
     8
 73
     4
 74
     0
 42
0.0000000001
 43
0.0000000001
 40
0.0
 40
0.0
 40
0.0
 40
0.0
 40
1.0
 40
1.0
 40
1.0
 40
1.0
 10
14.50924908913079
 20
-14.93669555178379
 30
0.0
 10
14.50924908913079
 20
-14.93215134737433
 30
0.0
 10
14.50619550550393
 20
-14.92817426670715
 30
0.0
 10
14.50180544875444
 20
-14.92700072699697
 30
0.0
  0
SPLINE
  5
118
330
70
100
AcDbEntity
  8
Layer 1
 62
     7
370
     5
100
AcDbSpline
210
0.0
220
0.0
230
1.0
 70
     8
 71
     3
 72
     8
 73
     4
 74
     0
 42
0.0000000001
 43
0.0000000001
 40
0.0
 40
0.0
 40
0.0
 40
0.0
 40
1.0
 40
1.0
 40
1.0
 40
1.0
 10
15.336456330887
 20
-15.64502737260095
 30
0.0
 10
15.34578867338129
 20
-15.68771435353829
 30
0.0
 10
15.35646102892739
 20
-15.7300973175777
 30
0.0
 10
15.36845757562691
 20
-15.77211343145394
 30
0.0
  0
SPLINE
  5
119
330
70
100
AcDbEntity
  8
Layer 1
 62
     7
370
     5
100
AcDbSpline
210
0.0
220
0.0
230
1.0
 70
     8
 71
     3
 72
     8
 73
     4
 74
     0
 42
0.0000000001
 43
0.0000000001
 40
0.0
 40
0.0
 40
0.0
 40
0.0
 40
1.0
 40
1.0
 40
1.0
 40
1.0
 10
6.734905645530147
 20
-8.985564891393222
 30
0.0
 10
6.708232655681487
 20
-8.885784765945345
 30
0.0
 10
6.642456623218637
 20
-8.800972987517473
 30
0.0
 10
6.552452577134001
 20
-8.750309455166769
 30
0.0
  0
SPLINE
  5
11A
330
70
100
AcDbEntity
  8
Layer 1
 62
     7
370
     5
100
AcDbSpline
210
0.0
220
0.0
230
1.0
 70
     8
 71
     3
 72
     8
 73
     4
 74
     0
 42
0.0000000001
 43
0.0000000001
 40
0.0
 40
0.0
 40
0.0
 40
0.0
 40
1.0
 40
1.0
 40
1.0
 40
1.0
 10
6.473931925207087
 20
-8.649697748474864
 30
0.0
 10
6.467024174121787
 20
-8.624373514690734
 30
0.0
 10
6.448713513693759
 20
-8.603712565856362
 30
0.0
 10
6.424402983778159
 20
-8.593811455967472
 30
0.0
  0
SPLINE
  5
11B
330
70
100
AcDbEntity
  8
Layer 1
 62
     7
370
     5
100
AcDbSpline
210
0.0
220
0.0
230
1.0
 70
     8
 71
     3
 72
     8
 73
     4
 74
     0
 42
0.0000000001
 43
0.0000000001
 40
0.0
 40
0.0
 40
0.0
 40
0.0
 40
1.0
 40
1.0
 40
1.0
 40
1.0
 10
6.759584925262061
 20
-9.147882326396331
 30
0.0
 10
6.760666491632794
 20
-9.129004889495085
 30
0.0
 10
6.751043944595001
 20
-9.111122396565304
 30
0.0
 10
6.734693865455356
 20
-9.101624906270393
 30
0.0
  0
SPLINE
  5
11C
330
70
100
AcDbEntity
  8
Layer 1
 62
     7
370
     5
100
AcDbSpline
210
0.0
220
0.0
230
1.0
 70
     8
 71
     3
 72
     8
 73
     4
 74
     0
 42
0.0000000001
 43
0.0000000001
 40
0.0
 40
0.0
 40
0.0
 40
0.0
 40
1.0
 40
1.0
 40
1.0
 40
1.0
 10
6.659566043983747
 20
-9.356284157495894
 30
0.0
 10
6.677130415304885
 20
-9.356284157495894
 30
0.0
 10
6.693416119600542
 20
-9.34709979094042
 30
0.0
 10
6.702503953617628
 20
-9.332069208357399
 30
0.0
  0
SPLINE
  5
11D
330
70
100
AcDbEntity
  8
Layer 1
 62
     7
370
     5
100
AcDbSpline
210
0.0
220
0.0
230
1.0
 70
     8
 71
     3
 72
     8
 73
     4
 74
     0
 42
0.0000000001
 43
0.0000000001
 40
0.0
 40
0.0
 40
0.0
 40
0.0
 40
1.0
 40
1.0
 40
1.0
 40
1.0
 10
6.686639605155707
 20
-9.926497492144688
 30
0.0
 10
6.686639605155707
 20
-9.940758154248593
 30
0.0
 10
6.694894699399545
 20
-9.953729654658774
 30
0.0
 10
6.7078135149655
 20
-9.959768751281242
 30
0.0
  0
SPLINE
  5
11E
330
70
100
AcDbEntity
  8
Layer 1
 62
     7
370
     5
100
AcDbSpline
210
0.0
220
0.0
230
1.0
 70
     8
 71
     3
 72
     8
 73
     4
 74
     0
 42
0.0000000001
 43
0.0000000001
 40
0.0
 40
0.0
 40
0.0
 40
0.0
 40
1.0
 40
1.0
 40
1.0
 40
1.0
 10
6.643055401818791
 20
-9.356284157495919
 30
0.0
 10
6.626921475182598
 20
-9.356284157495919
 30
0.0
 10
6.612676795047794
 20
-9.366813490694942
 30
0.0
 10
6.607944044145192
 20
-9.382237648940922
 30
0.0
  0
SPLINE
  5
11F
330
70
100
AcDbEntity
  8
Layer 1
 62
     7
370
     5
100
AcDbSpline
210
0.0
220
0.0
230
1.0
 70
     8
 71
     3
 72
     8
 73
     4
 74
     0
 42
0.0000000001
 43
0.0000000001
 40
0.0
 40
0.0
 40
0.0
 40
0.0
 40
1.0
 40
1.0
 40
1.0
 40
1.0
 10
6.607944044145192
 20
-9.853238010879723
 30
0.0
 10
6.612676795047794
 20
-9.868662169125677
 30
0.0
 10
6.626921475182598
 20
-9.879191502324728
 30
0.0
 10
6.643055401818791
 20
-9.879191502324728
 30
0.0
  0
SPLINE
  5
120
330
70
100
AcDbEntity
  8
Layer 1
 62
     7
370
     5
100
AcDbSpline
210
0.0
220
0.0
230
1.0
 70
     8
 71
     3
 72
     8
 73
     4
 74
     0
 42
0.0000000001
 43
0.0000000001
 40
0.0
 40
0.0
 40
0.0
 40
0.0
 40
1.0
 40
1.0
 40
1.0
 40
1.0
 10
6.408102683747718
 20
-8.497636023789608
 30
0.0
 10
6.406486475240348
 20
-8.501393578982767
 30
0.0
 10
6.405652933307047
 20
-8.505441075054729
 30
0.0
 10
6.405652933307047
 20
-8.509531472464407
 30
0.0
  0
SPLINE
  5
121
330
70
100
AcDbEntity
  8
Layer 1
 62
     7
370
     5
100
AcDbSpline
210
0.0
220
0.0
230
1.0
 70
     8
 71
     3
 72
     8
 73
     4
 74
     0
 42
0.0000000001
 43
0.0000000001
 40
0.0
 40
0.0
 40
0.0
 40
0.0
 40
1.0
 40
1.0
 40
1.0
 40
1.0
 10
6.537114554779122
 20
-8.724074567632037
 30
0.0
 10
6.537114554779122
 20
-8.734947663271819
 30
0.0
 10
6.542977484357631
 20
-8.744975898632572
 30
0.0
 10
6.552452577142503
 20
-8.750309455186096
 30
0.0
  0
SPLINE
  5
122
330
70
100
AcDbEntity
  8
Layer 1
 62
     7
370
     5
100
AcDbSpline
210
0.0
220
0.0
230
1.0
 70
     8
 71
     3
 72
     8
 73
     4
 74
     0
 42
0.0000000001
 43
0.0000000001
 40
0.0
 40
0.0
 40
0.0
 40
0.0
 40
1.0
 40
1.0
 40
1.0
 40
1.0
 10
6.405652933307047
 20
-8.565929509291663
 30
0.0
 10
6.405652933307047
 20
-8.578171209482459
 30
0.0
 10
6.413065520633203
 20
-8.589193972604688
 30
0.0
 10
6.424402983778159
 20
-8.593811456009966
 30
0.0
  0
SPLINE
  5
123
330
70
100
AcDbEntity
  8
Layer 1
 62
     7
370
     5
100
AcDbSpline
210
0.0
220
0.0
230
1.0
 70
     8
 71
     3
 72
     8
 73
     4
 74
     0
 42
0.0000000001
 43
0.0000000001
 40
0.0
 40
0.0
 40
0.0
 40
0.0
 40
1.0
 40
1.0
 40
1.0
 40
1.0
 10
6.473931925228233
 20
-8.649697748474965
 30
0.0
 10
6.477504486964688
 20
-8.662794976140629
 30
0.0
 10
6.489400762652823
 20
-8.671880906778772
 30
0.0
 10
6.502976497251236
 20
-8.671880906778772
 30
0.0
  0
SPLINE
  5
124
330
70
100
AcDbEntity
  8
Layer 1
 62
     7
370
     5
100
AcDbSpline
210
0.0
220
0.0
230
1.0
 70
     8
 71
     3
 72
     8
 73
     4
 74
     0
 42
0.0000000001
 43
0.0000000001
 40
0.0
 40
0.0
 40
0.0
 40
0.0
 40
1.0
 40
1.0
 40
1.0
 40
1.0
 10
6.537114554779122
 20
-8.701986621619703
 30
0.0
 10
6.537114554779122
 20
-8.68535969443034
 30
0.0
 10
6.523635767127567
 20
-8.671880906778772
 30
0.0
 10
6.507008839938192
 20
-8.671880906778772
 30
0.0
  0
SPLINE
  5
125
330
70
100
AcDbEntity
  8
Layer 1
 62
     7
370
     5
100
AcDbSpline
210
0.0
220
0.0
230
1.0
 70
     8
 71
     3
 72
     8
 73
     4
 74
     0
 42
0.0000000001
 43
0.0000000001
 40
0.0
 40
0.0
 40
0.0
 40
0.0
 40
1.0
 40
1.0
 40
1.0
 40
1.0
 10
6.701692462576184
 20
-9.879191502324728
 30
0.0
 10
6.693378998981503
 20
-9.879191502324728
 30
0.0
 10
6.686639605155707
 20
-9.885930896150485
 30
0.0
 10
6.686639605155707
 20
-9.894244359745192
 30
0.0
  0
SPLINE
  5
126
330
70
100
AcDbEntity
  8
Layer 1
 62
     7
370
     5
100
AcDbSpline
210
0.0
220
0.0
230
1.0
 70
     8
 71
     3
 72
     8
 73
     4
 74
     0
 42
0.0000000001
 43
0.0000000001
 40
0.0
 40
0.0
 40
0.0
 40
0.0
 40
1.0
 40
1.0
 40
1.0
 40
1.0
 10
6.802044845379289
 20
-9.008061389169142
 30
0.0
 10
6.807587154442431
 20
-9.008061389169142
 30
0.0
 10
6.812080083659616
 20
-9.003568459951969
 30
0.0
 10
6.812080083659616
 20
-8.998026150888815
 30
0.0
  0
SPLINE
  5
127
330
70
100
AcDbEntity
  8
Layer 1
 62
     7
370
     5
100
AcDbSpline
210
0.0
220
0.0
230
1.0
 70
     8
 71
     3
 72
     8
 73
     4
 74
     0
 42
0.0000000001
 43
0.0000000001
 40
0.0
 40
0.0
 40
0.0
 40
0.0
 40
1.0
 40
1.0
 40
1.0
 40
1.0
 10
6.734905645594519
 20
-8.985564891364447
 30
0.0
 10
6.736079185301882
 20
-8.989954948117832
 30
0.0
 10
6.740056265970919
 20
-8.993008531748676
 30
0.0
 10
6.744600470383438
 20
-8.993008531748676
 30
0.0
  0
SPLINE
  5
128
330
70
100
AcDbEntity
  8
Layer 1
 62
     7
370
     5
100
AcDbSpline
210
0.0
220
0.0
230
1.0
 70
     8
 71
     3
 72
     8
 73
     4
 74
     0
 42
0.0000000001
 43
0.0000000001
 40
0.0
 40
0.0
 40
0.0
 40
0.0
 40
1.0
 40
1.0
 40
1.0
 40
1.0
 10
5.940378351360234
 20
-5.739689915359222
 30
0.0
 10
5.913622723986577
 20
-5.707298158156188
 30
0.0
 10
5.881272656292367
 20
-5.679969421412224
 30
0.0
 10
5.84486555701849
 20
-5.659002479495951
 30
0.0
  0
SPLINE
  5
129
330
70
100
AcDbEntity
  8
Layer 1
 62
     7
370
     5
100
AcDbSpline
210
0.0
220
0.0
230
1.0
 70
     8
 71
     3
 72
     8
 73
     4
 74
     0
 42
0.0000000001
 43
0.0000000001
 40
0.0
 40
0.0
 40
0.0
 40
0.0
 40
1.0
 40
1.0
 40
1.0
 40
1.0
 10
6.055855674524941
 20
-5.96685715973572
 30
0.0
 10
6.046670128816142
 20
-5.925300530919937
 30
0.0
 10
6.014214298913012
 20
-5.892844701016782
 30
0.0
 10
5.972657670097229
 20
-5.883659155307971
 30
0.0
  0
SPLINE
  5
12A
330
70
100
AcDbEntity
  8
Layer 1
 62
     7
370
     5
100
AcDbSpline
210
0.0
220
0.0
230
1.0
 70
     8
 71
     3
 72
     8
 73
     4
 74
     0
 42
0.0000000001
 43
0.0000000001
 40
0.0
 40
0.0
 40
0.0
 40
0.0
 40
1.0
 40
1.0
 40
1.0
 40
1.0
 10
6.177890870269164
 20
-6.249260219943304
 30
0.0
 10
6.167119593857819
 20
-6.231267393274277
 30
0.0
 10
6.150982268400613
 20
-6.217100964821193
 30
0.0
 10
6.131745833972457
 20
-6.208751006883479
 30
0.0
  0
SPLINE
  5
12B
330
70
100
AcDbEntity
  8
Layer 1
 62
     7
370
     5
100
AcDbSpline
210
0.0
220
0.0
230
1.0
 70
     8
 71
     3
 72
     8
 73
     4
 74
     0
 42
0.0000000001
 43
0.0000000001
 40
0.0
 40
0.0
 40
0.0
 40
0.0
 40
1.0
 40
1.0
 40
1.0
 40
1.0
 10
5.518845018753697
 20
-5.607746508664654
 30
0.0
 10
5.522999942545462
 20
-5.637493310387399
 30
0.0
 10
5.548441986187526
 20
-5.659628684651074
 30
0.0
 10
5.578477558505154
 20
-5.659628684651074
 30
0.0
  0
SPLINE
  5
12C
330
70
100
AcDbEntity
  8
Layer 1
 62
     7
370
     5
100
AcDbSpline
210
0.0
220
0.0
230
1.0
 70
     8
 71
     3
 72
    11
 73
     7
 74
     0
 42
0.0000000001
 43
0.0000000001
 40
0.0
 40
0.0
 40
0.0
 40
0.0
 40
1.0
 40
1.0
 40
1.0
 40
2.0
 40
2.0
 40
2.0
 40
2.0
 10
6.133697975910687
 20
-6.107444548272483
 30
0.0
 10
6.165050010486449
 20
-6.0963599301462
 30
0.0
 10
6.181479997786961
 20
-6.061958225976998
 30
0.0
 10
6.170395379660678
 20
-6.030606191401211
 30
0.0
 10
6.16188985302094
 20
-6.006548929143162
 30
0.0
 10
6.139144079269208
 20
-5.990465238279966
 30
0.0
 10
6.113627499350033
 20
-5.990465238279966
 30
0.0
  0
SPLINE
  5
12D
330
70
100
AcDbEntity
  8
Layer 1
 62
     7
370
     5
100
AcDbSpline
210
0.0
220
0.0
230
1.0
 70
     8
 71
     3
 72
     8
 73
     4
 74
     0
 42
0.0000000001
 43
0.0000000001
 40
0.0
 40
0.0
 40
0.0
 40
0.0
 40
1.0
 40
1.0
 40
1.0
 40
1.0
 10
5.940378351300422
 20
-5.739689915359424
 30
0.0
 10
5.9460975252621
 20
-5.74661384548373
 30
0.0
 10
5.954609163227005
 20
-5.750623043380579
 30
0.0
 10
5.963589684323816
 20
-5.750623043380579
 30
0.0
  0
SPLINE
  5
12E
330
70
100
AcDbEntity
  8
Layer 1
 62
     7
370
     5
100
AcDbSpline
210
0.0
220
0.0
230
1.0
 70
     8
 71
     3
 72
     8
 73
     4
 74
     0
 42
0.0000000001
 43
0.0000000001
 40
0.0
 40
0.0
 40
0.0
 40
0.0
 40
1.0
 40
1.0
 40
1.0
 40
1.0
 10
6.113627499350033
 20
-6.181134765605873
 30
0.0
 10
6.113627499350033
 20
-6.19312720397809
 30
0.0
 10
6.120745063103766
 20
-6.203975902919662
 30
0.0
 10
6.131745833997936
 20
-6.208751006881445
 30
0.0
  0
SPLINE
  5
12F
330
70
100
AcDbEntity
  8
Layer 1
 62
     7
370
     5
100
AcDbSpline
210
0.0
220
0.0
230
1.0
 70
     8
 71
     3
 72
     8
 73
     4
 74
     0
 42
0.0000000001
 43
0.0000000001
 40
0.0
 40
0.0
 40
0.0
 40
0.0
 40
1.0
 40
1.0
 40
1.0
 40
1.0
 10
6.133697975910649
 20
-6.1074445483303
 30
0.0
 10
6.121669344781619
 20
-6.111697311650169
 30
0.0
 10
6.113627499350033
 20
-6.123070198526028
 30
0.0
 10
6.113627499350033
 20
-6.135828488485622
 30
0.0
  0
SPLINE
  5
130
330
70
100
AcDbEntity
  8
Layer 1
 62
     7
370
     5
100
AcDbSpline
210
0.0
220
0.0
230
1.0
 70
     8
 71
     3
 72
     8
 73
     4
 74
     0
 42
0.0000000001
 43
0.0000000001
 40
0.0
 40
0.0
 40
0.0
 40
0.0
 40
1.0
 40
1.0
 40
1.0
 40
1.0
 10
6.055855674509049
 20
-5.966857159735645
 30
0.0
 10
6.058903857729331
 20
-5.980647545485402
 30
0.0
 10
6.071128595213823
 20
-5.990465238279966
 30
0.0
 10
6.085251844134353
 20
-5.990465238279966
 30
0.0
  0
SPLINE
  5
131
330
70
100
AcDbEntity
  8
Layer 1
 62
     7
370
     5
100
AcDbSpline
210
0.0
220
0.0
230
1.0
 70
     8
 71
     3
 72
     8
 73
     4
 74
     0
 42
0.0000000001
 43
0.0000000001
 40
0.0
 40
0.0
 40
0.0
 40
0.0
 40
1.0
 40
1.0
 40
1.0
 40
1.0
 10
5.949049591552958
 20
-5.854262985698596
 30
0.0
 10
5.949049591552958
 20
-5.868386234619126
 30
0.0
 10
5.958867284347522
 20
-5.880610972103631
 30
0.0
 10
5.972657670097317
 20
-5.883659155323912
 30
0.0
  0
SPLINE
  5
132
330
70
100
AcDbEntity
  8
Layer 1
 62
     7
370
     5
100
AcDbSpline
210
0.0
220
0.0
230
1.0
 70
     8
 71
     3
 72
     8
 73
     4
 74
     0
 42
0.0000000001
 43
0.0000000001
 40
0.0
 40
0.0
 40
0.0
 40
0.0
 40
1.0
 40
1.0
 40
1.0
 40
1.0
 10
5.959084829833259
 20
-5.750623043380579
 30
0.0
 10
5.95354252077013
 20
-5.750623043380579
 30
0.0
 10
5.949049591552958
 20
-5.755115972597776
 30
0.0
 10
5.949049591552958
 20
-5.760658281660893
 30
0.0
  0
SPLINE
  5
133
330
70
100
AcDbEntity
  8
Layer 1
 62
     7
370
     5
100
AcDbSpline
210
0.0
220
0.0
230
1.0
 70
     8
 71
     3
 72
     8
 73
     4
 74
     0
 42
0.0000000001
 43
0.0000000001
 40
0.0
 40
0.0
 40
0.0
 40
0.0
 40
1.0
 40
1.0
 40
1.0
 40
1.0
 10
7.463081883117284
 20
-8.750309455166769
 30
0.0
 10
7.37307783703266
 20
-8.800972987517473
 30
0.0
 10
7.307301804569798
 20
-8.885784765945345
 30
0.0
 10
7.280628814721175
 20
-8.985564891393222
 30
0.0
  0
SPLINE
  5
134
330
70
100
AcDbEntity
  8
Layer 1
 62
     7
370
     5
100
AcDbSpline
210
0.0
220
0.0
230
1.0
 70
     8
 71
     3
 72
     8
 73
     4
 74
     0
 42
0.0000000001
 43
0.0000000001
 40
0.0
 40
0.0
 40
0.0
 40
0.0
 40
1.0
 40
1.0
 40
1.0
 40
1.0
 10
7.591131476473138
 20
-8.593811455967472
 30
0.0
 10
7.566820946557539
 20
-8.603712565856362
 30
0.0
 10
7.548510286129499
 20
-8.624373514690734
 30
0.0
 10
7.541602535044211
 20
-8.649697748474864
 30
0.0
  0
SPLINE
  5
135
330
70
100
AcDbEntity
  8
Layer 1
 62
     7
370
     5
100
AcDbSpline
210
0.0
220
0.0
230
1.0
 70
     8
 71
     3
 72
     8
 73
     4
 74
     0
 42
0.0000000001
 43
0.0000000001
 40
0.0
 40
0.0
 40
0.0
 40
0.0
 40
1.0
 40
1.0
 40
1.0
 40
1.0
 10
7.280840594795941
 20
-9.101624906270393
 30
0.0
 10
7.264490515656284
 20
-9.111122396565304
 30
0.0
 10
7.254867968618504
 20
-9.129004889495085
 30
0.0
 10
7.255949534989213
 20
-9.147882326396331
 30
0.0
  0
SPLINE
  5
136
330
70
100
AcDbEntity
  8
Layer 1
 62
     7
370
     5
100
AcDbSpline
210
0.0
220
0.0
230
1.0
 70
     8
 71
     3
 72
     8
 73
     4
 74
     0
 42
0.0000000001
 43
0.0000000001
 40
0.0
 40
0.0
 40
0.0
 40
0.0
 40
1.0
 40
1.0
 40
1.0
 40
1.0
 10
7.313030506734017
 20
-9.332069208357399
 30
0.0
 10
7.32211834075109
 20
-9.34709979094042
 30
0.0
 10
7.338404045046748
 20
-9.356284157495894
 30
0.0
 10
7.355968416367899
 20
-9.356284157495894
 30
0.0
  0
SPLINE
  5
137
330
70
100
AcDbEntity
  8
Layer 1
 62
     7
370
     5
100
AcDbSpline
210
0.0
220
0.0
230
1.0
 70
     8
 71
     3
 72
     8
 73
     4
 74
     0
 42
0.0000000001
 43
0.0000000001
 40
0.0
 40
0.0
 40
0.0
 40
0.0
 40
1.0
 40
1.0
 40
1.0
 40
1.0
 10
7.307720945285823
 20
-9.959768751281242
 30
0.0
 10
7.320639760851766
 20
-9.953729654658774
 30
0.0
 10
7.328894855095565
 20
-9.940758154248593
 30
0.0
 10
7.328894855095565
 20
-9.926497492144688
 30
0.0
  0
SPLINE
  5
138
330
70
100
AcDbEntity
  8
Layer 1
 62
     7
370
     5
100
AcDbSpline
210
0.0
220
0.0
230
1.0
 70
     8
 71
     3
 72
     8
 73
     4
 74
     0
 42
0.0000000001
 43
0.0000000001
 40
0.0
 40
0.0
 40
0.0
 40
0.0
 40
1.0
 40
1.0
 40
1.0
 40
1.0
 10
7.407590416106105
 20
-9.382237648940922
 30
0.0
 10
7.402857665203504
 20
-9.366813490694942
 30
0.0
 10
7.3886129850687
 20
-9.356284157495919
 30
0.0
 10
7.372479058432467
 20
-9.356284157495919
 30
0.0
  0
SPLINE
  5
139
330
70
100
AcDbEntity
  8
Layer 1
 62
     7
370
     5
100
AcDbSpline
210
0.0
220
0.0
230
1.0
 70
     8
 71
     3
 72
     8
 73
     4
 74
     0
 42
0.0000000001
 43
0.0000000001
 40
0.0
 40
0.0
 40
0.0
 40
0.0
 40
1.0
 40
1.0
 40
1.0
 40
1.0
 10
7.372479058432467
 20
-9.879191502324728
 30
0.0
 10
7.3886129850687
 20
-9.879191502324728
 30
0.0
 10
7.402857665203504
 20
-9.868662169125677
 30
0.0
 10
7.407590416106105
 20
-9.853238010879723
 30
0.0
  0
SPLINE
  5
13A
330
70
100
AcDbEntity
  8
Layer 1
 62
     7
370
     5
100
AcDbSpline
210
0.0
220
0.0
230
1.0
 70
     8
 71
     3
 72
     8
 73
     4
 74
     0
 42
0.0000000001
 43
0.0000000001
 40
0.0
 40
0.0
 40
0.0
 40
0.0
 40
1.0
 40
1.0
 40
1.0
 40
1.0
 10
7.60988152694425
 20
-8.509531472464407
 30
0.0
 10
7.60988152694425
 20
-8.505441075054729
 30
0.0
 10
7.609047985010924
 20
-8.501393578982767
 30
0.0
 10
7.607431776503554
 20
-8.497636023789608
 30
0.0
  0
SPLINE
  5
13B
330
70
100
AcDbEntity
  8
Layer 1
 62
     7
370
     5
100
AcDbSpline
210
0.0
220
0.0
230
1.0
 70
     8
 71
     3
 72
     8
 73
     4
 74
     0
 42
0.0000000001
 43
0.0000000001
 40
0.0
 40
0.0
 40
0.0
 40
0.0
 40
1.0
 40
1.0
 40
1.0
 40
1.0
 10
7.463081883108795
 20
-8.750309455186096
 30
0.0
 10
7.472556975893667
 20
-8.744975898632572
 30
0.0
 10
7.478419905472176
 20
-8.734947663271819
 30
0.0
 10
7.478419905472176
 20
-8.724074567632037
 30
0.0
  0
SPLINE
  5
13C
330
70
100
AcDbEntity
  8
Layer 1
 62
     7
370
     5
100
AcDbSpline
210
0.0
220
0.0
230
1.0
 70
     8
 71
     3
 72
     8
 73
     4
 74
     0
 42
0.0000000001
 43
0.0000000001
 40
0.0
 40
0.0
 40
0.0
 40
0.0
 40
1.0
 40
1.0
 40
1.0
 40
1.0
 10
7.591131476473138
 20
-8.593811456009966
 30
0.0
 10
7.602468939618094
 20
-8.589193972604688
 30
0.0
 10
7.60988152694425
 20
-8.578171209482459
 30
0.0
 10
7.60988152694425
 20
-8.565929509291663
 30
0.0
  0
SPLINE
  5
13D
330
70
100
AcDbEntity
  8
Layer 1
 62
     7
370
     5
100
AcDbSpline
210
0.0
220
0.0
230
1.0
 70
     8
 71
     3
 72
     8
 73
     4
 74
     0
 42
0.0000000001
 43
0.0000000001
 40
0.0
 40
0.0
 40
0.0
 40
0.0
 40
1.0
 40
1.0
 40
1.0
 40
1.0
 10
7.512557963000037
 20
-8.671880906778772
 30
0.0
 10
7.526133697598474
 20
-8.671880906778772
 30
0.0
 10
7.53802997328661
 20
-8.662794976140629
 30
0.0
 10
7.541602535023078
 20
-8.649697748474965
 30
0.0
  0
SPLINE
  5
13E
330
70
100
AcDbEntity
  8
Layer 1
 62
     7
370
     5
100
AcDbSpline
210
0.0
220
0.0
230
1.0
 70
     8
 71
     3
 72
     8
 73
     4
 74
     0
 42
0.0000000001
 43
0.0000000001
 40
0.0
 40
0.0
 40
0.0
 40
0.0
 40
1.0
 40
1.0
 40
1.0
 40
1.0
 10
7.508525620313106
 20
-8.671880906778772
 30
0.0
 10
7.491898693123693
 20
-8.671880906778772
 30
0.0
 10
7.478419905472176
 20
-8.68535969443034
 30
0.0
 10
7.478419905472176
 20
-8.701986621619703
 30
0.0
  0
SPLINE
  5
13F
330
70
100
AcDbEntity
  8
Layer 1
 62
     7
370
     5
100
AcDbSpline
210
0.0
220
0.0
230
1.0
 70
     8
 71
     3
 72
     8
 73
     4
 74
     0
 42
0.0000000001
 43
0.0000000001
 40
0.0
 40
0.0
 40
0.0
 40
0.0
 40
1.0
 40
1.0
 40
1.0
 40
1.0
 10
7.328894855095565
 20
-9.894244359745192
 30
0.0
 10
7.328894855095565
 20
-9.885930896150485
 30
0.0
 10
7.322155461269807
 20
-9.879191502324728
 30
0.0
 10
7.313841997675075
 20
-9.879191502324728
 30
0.0
  0
SPLINE
  5
140
330
70
100
AcDbEntity
  8
Layer 1
 62
     7
370
     5
100
AcDbSpline
210
0.0
220
0.0
230
1.0
 70
     8
 71
     3
 72
     8
 73
     4
 74
     0
 42
0.0000000001
 43
0.0000000001
 40
0.0
 40
0.0
 40
0.0
 40
0.0
 40
1.0
 40
1.0
 40
1.0
 40
1.0
 10
7.203454376591707
 20
-8.998026150888815
 30
0.0
 10
7.203454376591707
 20
-9.003568459951969
 30
0.0
 10
7.207947305808867
 20
-9.008061389169142
 30
0.0
 10
7.213489614871983
 20
-9.008061389169142
 30
0.0
  0
SPLINE
  5
141
330
70
100
AcDbEntity
  8
Layer 1
 62
     7
370
     5
100
AcDbSpline
210
0.0
220
0.0
230
1.0
 70
     8
 71
     3
 72
     8
 73
     4
 74
     0
 42
0.0000000001
 43
0.0000000001
 40
0.0
 40
0.0
 40
0.0
 40
0.0
 40
1.0
 40
1.0
 40
1.0
 40
1.0
 10
7.27093398996822
 20
-8.993008531748676
 30
0.0
 10
7.275478194380739
 20
-8.993008531748676
 30
0.0
 10
7.279455275049776
 20
-8.989954948117832
 30
0.0
 10
7.280628814757126
 20
-8.985564891364447
 30
0.0
  0
SPLINE
  5
142
330
70
100
AcDbEntity
  8
Layer 1
 62
     7
370
     5
100
AcDbSpline
210
0.0
220
0.0
230
1.0
 70
     8
 71
     3
 72
     8
 73
     4
 74
     0
 42
0.0000000001
 43
0.0000000001
 40
0.0
 40
0.0
 40
0.0
 40
0.0
 40
1.0
 40
1.0
 40
1.0
 40
1.0
 10
8.170668903333169
 20
-5.659002479495951
 30
0.0
 10
8.13426180405928
 20
-5.679969421412224
 30
0.0
 10
8.101911736365069
 20
-5.707298158156188
 30
0.0
 10
8.075156108991411
 20
-5.739689915359222
 30
0.0
  0
SPLINE
  5
143
330
70
100
AcDbEntity
  8
Layer 1
 62
     7
370
     5
100
AcDbSpline
210
0.0
220
0.0
230
1.0
 70
     8
 71
     3
 72
     8
 73
     4
 74
     0
 42
0.0000000001
 43
0.0000000001
 40
0.0
 40
0.0
 40
0.0
 40
0.0
 40
1.0
 40
1.0
 40
1.0
 40
1.0
 10
8.042876790154043
 20
-5.883659155307971
 30
0.0
 10
8.001320161338298
 20
-5.892844701016782
 30
0.0
 10
7.968864331435143
 20
-5.925300530919937
 30
0.0
 10
7.959678785726332
 20
-5.96685715973572
 30
0.0
  0
SPLINE
  5
144
330
70
100
AcDbEntity
  8
Layer 1
 62
     7
370
     5
100
AcDbSpline
210
0.0
220
0.0
230
1.0
 70
     8
 71
     3
 72
     8
 73
     4
 74
     0
 42
0.0000000001
 43
0.0000000001
 40
0.0
 40
0.0
 40
0.0
 40
0.0
 40
1.0
 40
1.0
 40
1.0
 40
1.0
 10
7.883788626278828
 20
-6.208751006883479
 30
0.0
 10
7.864552191850672
 20
-6.217100964821193
 30
0.0
 10
7.848414866393441
 20
-6.231267393274277
 30
0.0
 10
7.837643589982108
 20
-6.249260219943304
 30
0.0
  0
SPLINE
  5
145
330
70
100
AcDbEntity
  8
Layer 1
 62
     7
370
     5
100
AcDbSpline
210
0.0
220
0.0
230
1.0
 70
     8
 71
     3
 72
     8
 73
     4
 74
     0
 42
0.0000000001
 43
0.0000000001
 40
0.0
 40
0.0
 40
0.0
 40
0.0
 40
1.0
 40
1.0
 40
1.0
 40
1.0
 10
8.437056901846492
 20
-5.659628684651074
 30
0.0
 10
8.46709247416412
 20
-5.659628684651074
 30
0.0
 10
8.492534517806182
 20
-5.637493310387399
 30
0.0
 10
8.496689441597936
 20
-5.607746508664654
 30
0.0
  0
SPLINE
  5
146
330
70
100
AcDbEntity
  8
Layer 1
 62
     7
370
     5
100
AcDbSpline
210
0.0
220
0.0
230
1.0
 70
     8
 71
     3
 72
    11
 73
     7
 74
     0
 42
0.0000000001
 43
0.0000000001
 40
0.0
 40
0.0
 40
0.0
 40
0.0
 40
1.0
 40
1.0
 40
1.0
 40
2.0
 40
2.0
 40
2.0
 40
2.0
 10
7.901906960901264
 20
-5.990465238279966
 30
0.0
 10
7.868653106522451
 20
-5.990465238279966
 30
0.0
 10
7.841695531219379
 20
-6.017422813583038
 30
0.0
 10
7.841695531219379
 20
-6.050676667961852
 30
0.0
 10
7.841695531219379
 20
-6.076193247881014
 30
0.0
 10
7.857779222082588
 20
-6.098939021632759
 30
0.0
 10
7.881836484340611
 20
-6.107444548272483
 30
0.0
  0
SPLINE
  5
147
330
70
100
AcDbEntity
  8
Layer 1
 62
     7
370
     5
100
AcDbSpline
210
0.0
220
0.0
230
1.0
 70
     8
 71
     3
 72
     8
 73
     4
 74
     0
 42
0.0000000001
 43
0.0000000001
 40
0.0
 40
0.0
 40
0.0
 40
0.0
 40
1.0
 40
1.0
 40
1.0
 40
1.0
 10
8.051944775927495
 20
-5.750623043380579
 30
0.0
 10
8.060925297024304
 20
-5.750623043380579
 30
0.0
 10
8.069436934989198
 20
-5.74661384548373
 30
0.0
 10
8.075156108950839
 20
-5.739689915359424
 30
0.0
  0
SPLINE
  5
148
330
70
100
AcDbEntity
  8
Layer 1
 62
     7
370
     5
100
AcDbSpline
210
0.0
220
0.0
230
1.0
 70
     8
 71
     3
 72
     8
 73
     4
 74
     0
 42
0.0000000001
 43
0.0000000001
 40
0.0
 40
0.0
 40
0.0
 40
0.0
 40
1.0
 40
1.0
 40
1.0
 40
1.0
 10
7.883788626253362
 20
-6.208751006881445
 30
0.0
 10
7.894789397147532
 20
-6.203975902919662
 30
0.0
 10
7.901906960901264
 20
-6.19312720397809
 30
0.0
 10
7.901906960901264
 20
-6.181134765605873
 30
0.0
  0
SPLINE
  5
149
330
70
100
AcDbEntity
  8
Layer 1
 62
     7
370
     5
100
AcDbSpline
210
0.0
220
0.0
230
1.0
 70
     8
 71
     3
 72
     8
 73
     4
 74
     0
 42
0.0000000001
 43
0.0000000001
 40
0.0
 40
0.0
 40
0.0
 40
0.0
 40
1.0
 40
1.0
 40
1.0
 40
1.0
 10
7.901906960901264
 20
-6.135828488485622
 30
0.0
 10
7.901906960901264
 20
-6.123070198526028
 30
0.0
 10
7.893865115469654
 20
-6.111697311650169
 30
0.0
 10
7.881836484340649
 20
-6.1074445483303
 30
0.0
  0
SPLINE
  5
14A
330
70
100
AcDbEntity
  8
Layer 1
 62
     7
370
     5
100
AcDbSpline
210
0.0
220
0.0
230
1.0
 70
     8
 71
     3
 72
     8
 73
     4
 74
     0
 42
0.0000000001
 43
0.0000000001
 40
0.0
 40
0.0
 40
0.0
 40
0.0
 40
1.0
 40
1.0
 40
1.0
 40
1.0
 10
7.930282616116906
 20
-5.990465238279966
 30
0.0
 10
7.944405865037474
 20
-5.990465238279966
 30
0.0
 10
7.956630602521991
 20
-5.980647545485402
 30
0.0
 10
7.959678785742248
 20
-5.966857159735645
 30
0.0
  0
SPLINE
  5
14B
330
70
100
AcDbEntity
  8
Layer 1
 62
     7
370
     5
100
AcDbSpline
210
0.0
220
0.0
230
1.0
 70
     8
 71
     3
 72
     8
 73
     4
 74
     0
 42
0.0000000001
 43
0.0000000001
 40
0.0
 40
0.0
 40
0.0
 40
0.0
 40
1.0
 40
1.0
 40
1.0
 40
1.0
 10
8.042876790153993
 20
-5.883659155323912
 30
0.0
 10
8.056667175903776
 20
-5.880610972103631
 30
0.0
 10
8.066484868698328
 20
-5.868386234619126
 30
0.0
 10
8.066484868698328
 20
-5.854262985698596
 30
0.0
  0
SPLINE
  5
14C
330
70
100
AcDbEntity
  8
Layer 1
 62
     7
370
     5
100
AcDbSpline
210
0.0
220
0.0
230
1.0
 70
     8
 71
     3
 72
     8
 73
     4
 74
     0
 42
0.0000000001
 43
0.0000000001
 40
0.0
 40
0.0
 40
0.0
 40
0.0
 40
1.0
 40
1.0
 40
1.0
 40
1.0
 10
8.066484868698328
 20
-5.760658281660893
 30
0.0
 10
8.066484868698328
 20
-5.755115972597776
 30
0.0
 10
8.061991939481167
 20
-5.750623043380579
 30
0.0
 10
8.056449630418038
 20
-5.750623043380579
 30
0.0
  0
SPLINE
  5
14D
330
70
100
AcDbEntity
  8
Layer 1
 62
     7
370
     5
100
AcDbSpline
210
0.0
220
0.0
230
1.0
 70
     8
 71
     3
 72
   110
 73
   106
 74
     0
 42
0.0000000001
 43
0.0000000001
 40
0.0
 40
0.0
 40
0.0
 40
0.0
 40
1.0
 40
1.0
 40
1.0
 40
2.0
 40
2.0
 40
2.0
 40
3.0
 40
3.0
 40
3.0
 40
4.0
 40
4.0
 40
4.0
 40
5.0
 40
5.0
 40
5.0
 40
6.0
 40
6.0
 40
6.0
 40
7.0
 40
7.0
 40
7.0
 40
8.0
 40
8.0
 40
8.0
 40
9.0
 40
9.0
 40
9.0
 40
10.0
 40
10.0
 40
10.0
 40
11.0
 40
11.0
 40
11.0
 40
12.0
 40
12.0
 40
12.0
 40
13.0
 40
13.0
 40
13.0
 40
14.0
 40
14.0
 40
14.0
 40
15.0
 40
15.0
 40
15.0
 40
16.0
 40
16.0
 40
16.0
 40
17.0
 40
17.0
 40
17.0
 40
18.0
 40
18.0
 40
18.0
 40
19.0
 40
19.0
 40
19.0
 40
20.0
 40
20.0
 40
20.0
 40
21.0
 40
21.0
 40
21.0
 40
22.0
 40
22.0
 40
22.0
 40
23.0
 40
23.0
 40
23.0
 40
24.0
 40
24.0
 40
24.0
 40
25.0
 40
25.0
 40
25.0
 40
26.0
 40
26.0
 40
26.0
 40
27.0
 40
27.0
 40
27.0
 40
28.0
 40
28.0
 40
28.0
 40
29.0
 40
29.0
 40
29.0
 40
30.0
 40
30.0
 40
30.0
 40
31.0
 40
31.0
 40
31.0
 40
32.0
 40
32.0
 40
32.0
 40
33.0
 40
33.0
 40
33.0
 40
34.0
 40
34.0
 40
34.0
 40
35.0
 40
35.0
 40
35.0
 40
35.0
 10
7.222340116804793
 20
-15.57842048574331
 30
0.0
 10
7.222340979634609
 20
-15.57841953470377
 30
0.0
 10
7.22233843254302
 20
-15.57842051944425
 30
0.0
 10
7.22233634146303
 20
-15.57842125267623
 30
0.0
 10
7.222329949167133
 20
-15.57842349411875
 30
0.0
 10
7.222327818231885
 20
-15.57842338525074
 30
0.0
 10
7.222324833471398
 20
-15.57842375392152
 30
0.0
 10
7.222319839156157
 20
-15.57842437080775
 30
0.0
 10
7.222312454268312
 20
-15.57842632472494
 30
0.0
 10
7.222305589342188
 20
-15.57842799331918
 30
0.0
 10
7.22229596066447
 20
-15.57843033367301
 30
0.0
 10
7.22228735488607
 20
-15.57843211272264
 30
0.0
 10
7.222278605497219
 20
-15.57843397462261
 30
0.0
 10
7.222253569744894
 20
-15.57843930231651
 30
0.0
 10
7.222227358142642
 20
-15.57844530836968
 30
0.0
 10
7.222201411273216
 20
-15.57845117118298
 30
0.0
 10
7.222165060127204
 20
-15.57845938488988
 30
0.0
 10
7.222129228587062
 20
-15.57846731745151
 30
0.0
 10
7.22209327541557
 20
-15.57847531733773
 30
0.0
 10
7.222047049251651
 20
-15.57848560305206
 30
0.0
 10
7.222000622017882
 20
-15.57849600006099
 30
0.0
 10
7.221954242262969
 20
-15.57850636555496
 30
0.0
 10
7.221897572845945
 20
-15.5785190307038
 30
0.0
 10
7.22184097431169
 20
-15.57853164880273
 30
0.0
 10
7.221784356146839
 20
-15.57854426841007
 30
0.0
 10
7.221717475066586
 20
-15.57855917551582
 30
0.0
 10
7.221650566594057
 20
-15.57857408472634
 30
0.0
 10
7.22158366144246
 20
-15.57858897843923
 30
0.0
 10
7.221506507121552
 20
-15.57860615371305
 30
0.0
 10
7.221429357216948
 20
-15.57862330837729
 30
0.0
 10
7.221352202523903
 20
-15.57864044803364
 30
0.0
 10
7.221167215206062
 20
-15.5786815423459
 30
0.0
 10
7.220982200361453
 20
-15.5787225503841
 30
0.0
 10
7.220797169338551
 20
-15.57876347615186
 30
0.0
 10
7.220571340857885
 20
-15.57881342563498
 30
0.0
 10
7.220345488278073
 20
-15.57886325256842
 30
0.0
 10
7.220119611468842
 20
-15.57891297275154
 30
0.0
 10
7.219853067701087
 20
-15.578971644578
 30
0.0
 10
7.219586490193869
 20
-15.57903016775516
 30
0.0
 10
7.219319883815374
 20
-15.57908855792127
 30
0.0
 10
7.219012740026591
 20
-15.57915582629251
 30
0.0
 10
7.218705557919242
 20
-15.57922291812903
 30
0.0
 10
7.218398341234306
 20
-15.57928985164873
 30
0.0
 10
7.218050716475848
 20
-15.57936558890436
 30
0.0
 10
7.217703047445638
 20
-15.57944112345752
 30
0.0
 10
7.217355338554069
 20
-15.57951647389869
 30
0.0
 10
7.21696735063166
 20
-15.57960055302871
 30
0.0
 10
7.216579313077822
 20
-15.57968440292059
 30
0.0
 10
7.216191230672911
 20
-15.57976804474217
 30
0.0
 10
7.215762998164727
 20
-15.57986033995217
 30
0.0
 10
7.215334711045051
 20
-15.57995238181188
 30
0.0
 10
7.214906372569417
 20
-15.58004418402861
 30
0.0
 10
7.214438057950044
 20
-15.58014455399921
 30
0.0
 10
7.213969681941534
 20
-15.58024463750848
 30
0.0
 10
7.213501235837194
 20
-15.58034439235792
 30
0.0
 10
7.212445649661023
 20
-15.58056917774752
 30
0.0
 10
7.21138970755861
 20
-15.58079229429679
 30
0.0
 10
7.210333388390052
 20
-15.58101361148947
 30
0.0
 10
7.209120919459804
 20
-15.58126764476638
 30
0.0
 10
7.207907953744552
 20
-15.58151930738929
 30
0.0
 10
7.206694500606166
 20
-15.58176859777892
 30
0.0
 10
7.205327423855477
 20
-15.5820494484233
 30
0.0
 10
7.203959728453494
 20
-15.5823272881618
 30
0.0
 10
7.202591442417352
 20
-15.58260218767234
 30
0.0
 10
7.201072037190303
 20
-15.58290744822627
 30
0.0
 10
7.199551903660385
 20
-15.58320908322566
 30
0.0
 10
7.198031083763238
 20
-15.58350721775001
 30
0.0
 10
7.196361789157132
 20
-15.58383445857208
 30
0.0
 10
7.194691667624447
 20
-15.5841574820661
 30
0.0
 10
7.193020720509669
 20
-15.58447617830181
 30
0.0
 10
7.191204671428395
 20
-15.58482254953098
 30
0.0
 10
7.189387647155373
 20
-15.58516380932827
 30
0.0
 10
7.18756966982634
 20
-15.58549991738522
 30
0.0
 10
7.185610155893944
 20
-15.58586219276122
 30
0.0
 10
7.183649534730546
 20
-15.58621848300486
 30
0.0
 10
7.181687847798191
 20
-15.58656879623812
 30
0.0
 10
7.179588161171775
 20
-15.58694375311772
 30
0.0
 10
7.177487253553812
 20
-15.58731186247296
 30
0.0
 10
7.175385170575395
 20
-15.58767317609097
 30
0.0
 10
7.170782348460028
 20
-15.58846432578795
 30
0.0
 10
7.166173891009369
 20
-15.58922289292157
 30
0.0
 10
7.161560282680662
 20
-15.58994869795596
 30
0.0
 10
7.156444494503867
 20
-15.59075350507199
 30
0.0
 10
7.151322373101871
 20
-15.59151802978383
 30
0.0
 10
7.146194553540604
 20
-15.59224225845676
 30
0.0
 10
7.140602994520754
 20
-15.59303198346957
 30
0.0
 10
7.135004660100864
 20
-15.59377379445098
 30
0.0
 10
7.129400379297963
 20
-15.59446760666931
 30
0.0
 10
7.123377335227511
 20
-15.5952132619486
 30
0.0
 10
7.117347422921461
 20
-15.59590347733883
 30
0.0
 10
7.111311669626097
 20
-15.59653820475258
 30
0.0
 10
7.104908441777511
 20
-15.59721157625283
 30
0.0
 10
7.098498640055165
 20
-15.59782249755224
 30
0.0
 10
7.092083483565046
 20
-15.59837080790953
 30
0.0
 10
7.085359884904037
 20
-15.59894548115251
 30
0.0
 10
7.078630404179723
 20
-15.59945137801876
 30
0.0
 10
7.071896447822672
 20
-15.59988847486637
 30
0.0
 10
7.064921469299228
 20
-15.60034121631025
 30
0.0
 10
7.057941689025205
 20
-15.60072014460908
 30
0.0
 10
7.050958689162889
 20
-15.60102495089434
 30
0.0
 10
7.043805839056036
 20
-15.60133717110239
 30
0.0
 10
7.036649610833478
 20
-15.60157161964669
 30
0.0
 10
7.029491616960854
 20
-15.60172875159987
 30
0.0
 10
7.022251276597039
 20
-15.60188769121942
 30
0.0
 10
7.015009129724918
 20
-15.60196752509521
 30
0.0
 10
7.007767230125637
 20
-15.60196751807052
 30
0.0
  0
SPLINE
  5
14E
330
70
100
AcDbEntity
  8
Layer 1
 62
     7
370
     5
100
AcDbSpline
210
0.0
220
0.0
230
1.0
 70
     8
 71
     3
 72
    95
 73
    91
 74
     0
 42
0.0000000001
 43
0.0000000001
 40
0.0
 40
0.0
 40
0.0
 40
0.0
 40
1.0
 40
1.0
 40
1.0
 40
2.0
 40
2.0
 40
2.0
 40
3.0
 40
3.0
 40
3.0
 40
4.0
 40
4.0
 40
4.0
 40
5.0
 40
5.0
 40
5.0
 40
6.0
 40
6.0
 40
6.0
 40
7.0
 40
7.0
 40
7.0
 40
8.0
 40
8.0
 40
8.0
 40
9.0
 40
9.0
 40
9.0
 40
10.0
 40
10.0
 40
10.0
 40
11.0
 40
11.0
 40
11.0
 40
12.0
 40
12.0
 40
12.0
 40
13.0
 40
13.0
 40
13.0
 40
14.0
 40
14.0
 40
14.0
 40
15.0
 40
15.0
 40
15.0
 40
16.0
 40
16.0
 40
16.0
 40
17.0
 40
17.0
 40
17.0
 40
18.0
 40
18.0
 40
18.0
 40
19.0
 40
19.0
 40
19.0
 40
20.0
 40
20.0
 40
20.0
 40
21.0
 40
21.0
 40
21.0
 40
22.0
 40
22.0
 40
22.0
 40
23.0
 40
23.0
 40
23.0
 40
24.0
 40
24.0
 40
24.0
 40
25.0
 40
25.0
 40
25.0
 40
26.0
 40
26.0
 40
26.0
 40
27.0
 40
27.0
 40
27.0
 40
28.0
 40
28.0
 40
28.0
 40
29.0
 40
29.0
 40
29.0
 40
30.0
 40
30.0
 40
30.0
 40
30.0
 10
7.007767230125637
 20
-15.60196751807052
 30
0.0
 10
7.000528558160074
 20
-15.60196753924485
 30
0.0
 10
6.993289657888099
 20
-15.60188664141492
 30
0.0
 10
6.986052537847815
 20
-15.60172776015161
 30
0.0
 10
6.978888999559431
 20
-15.60157049427696
 30
0.0
 10
6.971727205486646
 20
-15.60133682266476
 30
0.0
 10
6.964568821715665
 20
-15.60102450698342
 30
0.0
 10
6.957580216515768
 20
-15.60071959863204
 30
0.0
 10
6.950594861768788
 20
-15.60033973244564
 30
0.0
 10
6.943614296139848
 20
-15.59988637040563
 30
0.0
 10
6.936877705516255
 20
-15.59944885364408
 30
0.0
 10
6.930145575095707
 20
-15.59894288869974
 30
0.0
 10
6.923419345174124
 20
-15.5983678890288
 30
0.0
 10
6.917002830454053
 20
-15.59781936572595
 30
0.0
 10
6.910591685355913
 20
-15.59720801885742
 30
0.0
 10
6.904187129476288
 20
-15.59653414536173
 30
0.0
 10
6.898149795740222
 20
-15.59589891018448
 30
0.0
 10
6.892118317264892
 20
-15.59520811307627
 30
0.0
 10
6.886093673632595
 20
-15.59446214852447
 30
0.0
 10
6.880488703230563
 20
-15.59376814743677
 30
0.0
 10
6.874889648614675
 20
-15.59302639707415
 30
0.0
 10
6.869297409610971
 20
-15.59223642441475
 30
0.0
 10
6.864170669396179
 20
-15.59151220919451
 30
0.0
 10
6.859049657353339
 20
-15.59074746561105
 30
0.0
 10
6.85393497900879
 20
-15.58994253808843
 30
0.0
 10
6.84932298667368
 20
-15.58921672126977
 30
0.0
 10
6.844716144227681
 20
-15.58845823115055
 30
0.0
 10
6.840114881806457
 20
-15.58766726066379
 30
0.0
 10
6.836051430558186
 20
-15.58696874149283
 30
0.0
 10
6.831992331143005
 20
-15.58624489104762
 30
0.0
 10
6.827938013939842
 20
-15.58549529888238
 30
0.0
 10
6.826121419729032
 20
-15.58515943350239
 30
0.0
 10
6.82430578560219
 20
-15.58481840017642
 30
0.0
 10
6.822491135152138
 20
-15.58447220558534
 30
0.0
 10
6.820821432945611
 20
-15.58415366386692
 30
0.0
 10
6.819152563546392
 20
-15.58383075248247
 30
0.0
 10
6.817484534654883
 20
-15.58350356000596
 30
0.0
 10
6.815964874096329
 20
-15.58320547074378
 30
0.0
 10
6.814445911172001
 20
-15.58290382811002
 30
0.0
 10
6.812927638623831
 20
-15.58259874977059
 30
0.0
 10
6.81156080576784
 20
-15.58232410138915
 30
0.0
 10
6.810194532433834
 20
-15.58204666850724
 30
0.0
 10
6.808828864363363
 20
-15.58176628691189
 30
0.0
 10
6.807616891735404
 20
-15.58151746010963
 30
0.0
 10
6.806405395801637
 20
-15.58126631095625
 30
0.0
 10
6.805194404276107
 20
-15.58101275284154
 30
0.0
 10
6.804139267510246
 20
-15.58079182768769
 30
0.0
 10
6.803084513672729
 20
-15.58056907373833
 30
0.0
 10
6.802030153743316
 20
-15.58034447111072
 30
0.0
 10
6.801133827479853
 20
-15.58015353324557
 30
0.0
 10
6.800237785891503
 20
-15.57996125935172
 30
0.0
 10
6.799342008237317
 20
-15.57976776532362
 30
0.0
 10
6.798954064976593
 20
-15.57968396695709
 30
0.0
 10
6.798566171218882
 20
-15.57959993974438
 30
0.0
 10
6.798178317211143
 20
-15.57951572955433
 30
0.0
 10
6.797830796354029
 20
-15.57944027642798
 30
0.0
 10
6.797483307409505
 20
-15.57936467640135
 30
0.0
 10
6.797135847629647
 20
-15.57928894237337
 30
0.0
 10
6.796828890475971
 20
-15.57922203649526
 30
0.0
 10
6.796521956083942
 20
-15.57915502603545
 30
0.0
 10
6.796215049828547
 20
-15.57908788754268
 30
0.0
 10
6.795948726197845
 20
-15.57902962686257
 30
0.0
 10
6.795682423754656
 20
-15.57897126977076
 30
0.0
 10
6.795416144864727
 20
-15.57891280336983
 30
0.0
 10
6.79519052567198
 20
-15.5788632645491
 30
0.0
 10
6.79496492338871
 20
-15.57881364725275
 30
0.0
 10
6.794739346523088
 20
-15.57876392031254
 30
0.0
 10
6.794554505685633
 20
-15.5787231733625
 30
0.0
 10
6.794369681914594
 20
-15.57868235279329
 30
0.0
 10
6.794184868736515
 20
-15.5786414688519
 30
0.0
 10
6.794040869493628
 20
-15.57860961367429
 30
0.0
 10
6.793896876681691
 20
-15.57857772002401
 30
0.0
 10
6.793752925256562
 20
-15.57854567955041
 30
0.0
 10
6.793696275943059
 20
-15.57853307063859
 30
0.0
 10
6.793639633038954
 20
-15.57852043898871
 30
0.0
 10
6.793582970715192
 20
-15.57850785523876
 30
0.0
 10
6.793536542349278
 20
-15.57849754427879
 30
0.0
 10
6.793490100945088
 20
-15.57848726547864
 30
0.0
 10
6.793443729959145
 20
-15.57847678294928
 30
0.0
 10
6.793407590786083
 20
-15.57846861340244
 30
0.0
 10
6.793371494383968
 20
-15.57846032011371
 30
0.0
 10
6.793335229683318
 20
-15.57845249143669
 30
0.0
 10
6.793309242874682
 20
-15.57844688150951
 30
0.0
 10
6.793283169645317
 20
-15.57844151015901
 30
0.0
 10
6.793257496585852
 20
-15.57843500947628
 30
0.0
 10
6.793241987727595
 20
-15.57843108247392
 30
0.0
 10
6.793226624901611
 20
-15.57842674334923
 30
0.0
 10
6.793210557461671
 20
-15.57842436597944
 30
0.0
 10
6.793205030949264
 20
-15.57842354826584
 30
0.0
 10
6.793199421076362
 20
-15.57842296264081
 30
0.0
 10
6.793194438981963
 20
-15.5784205898087
 30
0.0
  0
SPLINE
  5
14F
330
70
100
AcDbEntity
  8
Layer 1
 62
     7
370
     5
100
AcDbSpline
210
0.0
220
0.0
230
1.0
 70
     8
 71
     3
 72
   107
 73
   103
 74
     0
 42
0.0000000001
 43
0.0000000001
 40
0.0
 40
0.0
 40
0.0
 40
0.0
 40
1.0
 40
1.0
 40
1.0
 40
2.0
 40
2.0
 40
2.0
 40
3.0
 40
3.0
 40
3.0
 40
4.0
 40
4.0
 40
4.0
 40
5.0
 40
5.0
 40
5.0
 40
6.0
 40
6.0
 40
6.0
 40
7.0
 40
7.0
 40
7.0
 40
8.0
 40
8.0
 40
8.0
 40
9.0
 40
9.0
 40
9.0
 40
10.0
 40
10.0
 40
10.0
 40
11.0
 40
11.0
 40
11.0
 40
12.0
 40
12.0
 40
12.0
 40
13.0
 40
13.0
 40
13.0
 40
14.0
 40
14.0
 40
14.0
 40
15.0
 40
15.0
 40
15.0
 40
16.0
 40
16.0
 40
16.0
 40
17.0
 40
17.0
 40
17.0
 40
18.0
 40
18.0
 40
18.0
 40
19.0
 40
19.0
 40
19.0
 40
20.0
 40
20.0
 40
20.0
 40
21.0
 40
21.0
 40
21.0
 40
22.0
 40
22.0
 40
22.0
 40
23.0
 40
23.0
 40
23.0
 40
24.0
 40
24.0
 40
24.0
 40
25.0
 40
25.0
 40
25.0
 40
26.0
 40
26.0
 40
26.0
 40
27.0
 40
27.0
 40
27.0
 40
28.0
 40
28.0
 40
28.0
 40
29.0
 40
29.0
 40
29.0
 40
30.0
 40
30.0
 40
30.0
 40
31.0
 40
31.0
 40
31.0
 40
32.0
 40
32.0
 40
32.0
 40
33.0
 40
33.0
 40
33.0
 40
34.0
 40
34.0
 40
34.0
 40
34.0
 10
7.007767230125637
 20
-15.6450273744872
 30
0.0
 10
7.00122278159391
 20
-15.64502718843386
 30
0.0
 10
6.994678018009633
 20
-15.64493659258518
 30
0.0
 10
6.988135723345597
 20
-15.64475867193512
 30
0.0
 10
6.981652863827055
 20
-15.64458236765062
 30
0.0
 10
6.975172428573399
 20
-15.64432031800649
 30
0.0
 10
6.968696728388206
 20
-15.64397014378892
 30
0.0
 10
6.962360168202798
 20
-15.64362749358257
 30
0.0
 10
6.956028141791951
 20
-15.64320046509207
 30
0.0
 10
6.949702819382044
 20
-15.64269055050264
 30
0.0
 10
6.943579615315835
 20
-15.64219692964275
 30
0.0
 10
6.937462693658491
 20
-15.64162563511159
 30
0.0
 10
6.931354062071982
 20
-15.64097632970983
 30
0.0
 10
6.925503690166073
 20
-15.64035447553078
 30
0.0
 10
6.919660922176325
 20
-15.63966106730378
 30
0.0
 10
6.913827521925668
 20
-15.63889631420107
 30
0.0
 10
6.908303794280641
 20
-15.63817215887596
 30
0.0
 10
6.90278846618033
 20
-15.63738403246121
 30
0.0
 10
6.897282920269187
 20
-15.63653267365086
 30
0.0
 10
6.892135031499454
 20
-15.63573662171888
 30
0.0
 10
6.886995695239634
 20
-15.63488528607844
 30
0.0
 10
6.88186625575799
 20
-15.63397805217737
 30
0.0
 10
6.877138827079597
 20
-15.63314192113868
 30
0.0
 10
6.872419804683772
 20
-15.63225831034768
 30
0.0
 10
6.867710039902135
 20
-15.63132782244921
 30
0.0
 10
6.863440158253789
 20
-15.6304842403627
 30
0.0
 10
6.859177885688318
 20
-15.62960212871652
 30
0.0
 10
6.854923975591557
 20
-15.6286816113004
 30
0.0
 10
6.852973546749201
 20
-15.62825955167111
 30
0.0
 10
6.851024875903767
 20
-15.62782941820288
 30
0.0
 10
6.849078028218122
 20
-15.62739117335761
 30
0.0
 10
6.847254550804702
 20
-15.62698069975833
 30
0.0
 10
6.845432672807722
 20
-15.62656311023316
 30
0.0
 10
6.843612463412922
 20
-15.62613837423724
 30
0.0
 10
6.841919461297252
 20
-15.62574332137031
 30
0.0
 10
6.840227902709279
 20
-15.62534208600633
 30
0.0
 10
6.83853783273485
 20
-15.62493467596262
 30
0.0
 10
6.836978842879387
 20
-15.62455886423006
 30
0.0
 10
6.835421119681338
 20
-15.62417779847838
 30
0.0
 10
6.833864685892194
 20
-15.62379153985135
 30
0.0
 10
6.832443243462888
 20
-15.62343878189603
 30
0.0
 10
6.831022876477795
 20
-15.62308169277146
 30
0.0
 10
6.829603572701645
 20
-15.62272042732408
 30
0.0
 10
6.828322974707879
 20
-15.62239446764245
 30
0.0
 10
6.827043242266856
 20
-15.62206510803862
 30
0.0
 10
6.825764435087257
 20
-15.62173219358654
 30
0.0
 10
6.824627210146306
 20
-15.62143613752416
 30
0.0
 10
6.823490716928972
 20
-15.62113727018451
 30
0.0
 10
6.822354999276247
 20
-15.62083548431875
 30
0.0
 10
6.82136356430399
 20
-15.62057203762426
 30
0.0
 10
6.820372720356494
 20
-15.62030636684527
 30
0.0
 10
6.819382486504245
 20
-15.62003844162152
 30
0.0
 10
6.818539262977132
 20
-15.61981029263266
 30
0.0
 10
6.81769648184229
 20
-15.61958050890075
 30
0.0
 10
6.816854118040812
 20
-15.61934920754273
 30
0.0
 10
6.816488919300367
 20
-15.61924892905919
 30
0.0
 10
6.816123799000794
 20
-15.61914836532678
 30
0.0
 10
6.815758744532709
 20
-15.61904756316734
 30
0.0
 10
6.815431482355961
 20
-15.61895719655897
 30
0.0
 10
6.815104273085871
 20
-15.61886663833464
 30
0.0
 10
6.814777108963678
 20
-15.61877591737581
 30
0.0
 10
6.81448798575564
 20
-15.61869574497038
 30
0.0
 10
6.81419889780683
 20
-15.6186154454741
 30
0.0
 10
6.813909852643278
 20
-15.6185349920342
 30
0.0
 10
6.813658958720123
 20
-15.61846515769091
 30
0.0
 10
6.813408097033124
 20
-15.61839520736023
 30
0.0
 10
6.813157273588116
 20
-15.61832512055257
 30
0.0
 10
6.812944701531932
 20
-15.61826572221043
 30
0.0
 10
6.81273215694312
 20
-15.6182062258436
 30
0.0
 10
6.812519645859285
 20
-15.61814660910689
 30
0.0
 10
6.812345486109292
 20
-15.61809775125077
 30
0.0
 10
6.812171348862382
 20
-15.61804881255014
 30
0.0
 10
6.811997243296509
 20
-15.61799976375709
 30
0.0
 10
6.811924602464046
 20
-15.61797929947647
 30
0.0
 10
6.811851967146442
 20
-15.61795881603146
 30
0.0
 10
6.811779337030606
 20
-15.6179383115331
 30
0.0
 10
6.811716331980252
 20
-15.61792052432545
 30
0.0
 10
6.811653330844301
 20
-15.61790272127475
 30
0.0
 10
6.811590339798461
 20
-15.61788489059411
 30
0.0
 10
6.81153698555618
 20
-15.61786978777372
 30
0.0
 10
6.811483638552872
 20
-15.61785466513076
 30
0.0
 10
6.811430285871438
 20
-15.61783953922928
 30
0.0
 10
6.811386583595182
 20
-15.61782714929298
 30
0.0
 10
6.811342877509154
 20
-15.61781475717036
 30
0.0
 10
6.811299209478154
 20
-15.61780229577155
 30
0.0
 10
6.811265198169216
 20
-15.61779259007898
 30
0.0
 10
6.811231209945402
 20
-15.61778284236179
 30
0.0
 10
6.811197144818631
 20
-15.61777319836389
 30
0.0
 10
6.81117276560163
 20
-15.61776629649274
 30
0.0
 10
6.811148346996812
 20
-15.61775944774417
 30
0.0
 10
6.81112412614627
 20
-15.61775228533136
 30
0.0
 10
6.811115628655102
 20
-15.61774977251535
 30
0.0
 10
6.811107155504373
 20
-15.61774722109231
 30
0.0
 10
6.811098519787265
 20
-15.61774490991552
 30
0.0
 10
6.811092334195184
 20
-15.61774325446564
 30
0.0
 10
6.811086065197223
 20
-15.61774172227597
 30
0.0
 10
6.81108018776274
 20
-15.61773959490445
 30
0.0
 10
6.811076640041606
 20
-15.61773831078631
 30
0.0
 10
6.811073234988068
 20
-15.61773680981137
 30
0.0
 10
6.811069134321264
 20
-15.61773634518434
 30
0.0
 10
6.811067728155913
 20
-15.61773618585845
 30
0.0
 10
6.81106624019464
 20
-15.61773614839482
 30
0.0
 10
6.81106536381728
 20
-15.61773516544319
 30
0.0
  0
SPLINE
  5
150
330
70
100
AcDbEntity
  8
Layer 1
 62
     7
370
     5
100
AcDbSpline
210
0.0
220
0.0
230
1.0
 70
     8
 71
     3
 72
   116
 73
   112
 74
     0
 42
0.0000000001
 43
0.0000000001
 40
0.0
 40
0.0
 40
0.0
 40
0.0
 40
1.0
 40
1.0
 40
1.0
 40
2.0
 40
2.0
 40
2.0
 40
3.0
 40
3.0
 40
3.0
 40
4.0
 40
4.0
 40
4.0
 40
5.0
 40
5.0
 40
5.0
 40
6.0
 40
6.0
 40
6.0
 40
7.0
 40
7.0
 40
7.0
 40
8.0
 40
8.0
 40
8.0
 40
9.0
 40
9.0
 40
9.0
 40
10.0
 40
10.0
 40
10.0
 40
11.0
 40
11.0
 40
11.0
 40
12.0
 40
12.0
 40
12.0
 40
13.0
 40
13.0
 40
13.0
 40
14.0
 40
14.0
 40
14.0
 40
15.0
 40
15.0
 40
15.0
 40
16.0
 40
16.0
 40
16.0
 40
17.0
 40
17.0
 40
17.0
 40
18.0
 40
18.0
 40
18.0
 40
19.0
 40
19.0
 40
19.0
 40
20.0
 40
20.0
 40
20.0
 40
21.0
 40
21.0
 40
21.0
 40
22.0
 40
22.0
 40
22.0
 40
23.0
 40
23.0
 40
23.0
 40
24.0
 40
24.0
 40
24.0
 40
25.0
 40
25.0
 40
25.0
 40
26.0
 40
26.0
 40
26.0
 40
27.0
 40
27.0
 40
27.0
 40
28.0
 40
28.0
 40
28.0
 40
29.0
 40
29.0
 40
29.0
 40
30.0
 40
30.0
 40
30.0
 40
31.0
 40
31.0
 40
31.0
 40
32.0
 40
32.0
 40
32.0
 40
33.0
 40
33.0
 40
33.0
 40
34.0
 40
34.0
 40
34.0
 40
35.0
 40
35.0
 40
35.0
 40
36.0
 40
36.0
 40
36.0
 40
37.0
 40
37.0
 40
37.0
 40
37.0
 10
7.20446920862797
 20
-15.61773503689179
 30
0.0
 10
7.204469253084084
 20
-15.61773378138317
 30
0.0
 10
7.204467269112683
 20
-15.61773504789036
 30
0.0
 10
7.204465560430977
 20
-15.61773598247919
 30
0.0
 10
7.204460407091093
 20
-15.61773880117504
 30
0.0
 10
7.204457757813618
 20
-15.61773860070836
 30
0.0
 10
7.204454606113131
 20
-15.61773901528206
 30
0.0
 10
7.204449345952562
 20
-15.61773970720204
 30
0.0
 10
7.204442686276731
 20
-15.61774211233675
 30
0.0
 10
7.204436341021985
 20
-15.61774414033536
 30
0.0
 10
7.204427450423647
 20
-15.61774698184796
 30
0.0
 10
7.204419177095751
 20
-15.61774908296812
 30
0.0
 10
7.204410760695862
 20
-15.61775136262473
 30
0.0
 10
7.204399933212293
 20
-15.61775429534474
 30
0.0
 10
7.204388868942158
 20
-15.61775752354563
 30
0.0
 10
7.20437786141786
 20
-15.61776068629481
 30
0.0
 10
7.204364404071143
 20
-15.61776455294196
 30
0.0
 10
7.204351031539545
 20
-15.61776832176193
 30
0.0
 10
7.204337646515947
 20
-15.6177721076408
 30
0.0
 10
7.204303577916625
 20
-15.61778174375318
 30
0.0
 10
7.204269428388619
 20
-15.61779149038099
 30
0.0
 10
7.204235298140158
 20
-15.6178012121123
 30
0.0
 10
7.204191437936047
 20
-15.61781370534436
 30
0.0
 10
7.20414760957087
 20
-15.61782615746122
 30
0.0
 10
7.204103771784603
 20
-15.61783861336135
 30
0.0
 10
7.204050231892728
 20
-15.61785382598047
 30
0.0
 10
7.203996677948149
 20
-15.61786904424285
 30
0.0
 10
7.203943123884098
 20
-15.61788424854505
 30
0.0
 10
7.20387988800356
 20
-15.61790220156975
 30
0.0
 10
7.203816651956458
 20
-15.61792013513033
 30
0.0
 10
7.203753410690801
 20
-15.61793805496439
 30
0.0
 10
7.203680509656173
 20
-15.61795871195828
 30
0.0
 10
7.203607601687028
 20
-15.61797935071207
 30
0.0
 10
7.203534688606269
 20
-15.61799996981646
 30
0.0
 10
7.203452137010672
 20
-15.61802331459825
 30
0.0
 10
7.203369578862748
 20
-15.6180466341923
 30
0.0
 10
7.203287013986381
 20
-15.61806993043693
 30
0.0
 10
7.203194831872981
 20
-15.61809594025079
 30
0.0
 10
7.203102641372399
 20
-15.61812192095895
 30
0.0
 10
7.203010443132344
 20
-15.61814787407919
 30
0.0
 10
7.202797281210298
 20
-15.61820787757794
 30
0.0
 10
7.202584077918104
 20
-15.6182677336101
 30
0.0
 10
7.202370838086671
 20
-15.6183274593107
 30
0.0
 10
7.20211938233457
 20
-15.61839788879314
 30
0.0
 10
7.201867875772816
 20
-15.61846813704311
 30
0.0
 10
7.201616324194572
 20
-15.61853822363501
 30
0.0
 10
7.201326724428554
 20
-15.61861891110571
 30
0.0
 10
7.201037064998293
 20
-15.61869938431712
 30
0.0
 10
7.200747352242829
 20
-15.61877966508197
 30
0.0
 10
7.200419758540899
 20
-15.61887044283488
 30
0.0
 10
7.200092096657158
 20
-15.6189609745249
 30
0.0
 10
7.199764372921322
 20
-15.61905128172505
 30
0.0
 10
7.199398935117692
 20
-15.61915198137318
 30
0.0
 10
7.199033420407153
 20
-15.61925240189038
 30
0.0
 10
7.198667836959493
 20
-15.61935257154563
 30
0.0
 10
7.198264707758514
 20
-15.61946302871575
 30
0.0
 10
7.19786149497669
 20
-15.61957318085036
 30
0.0
 10
7.197458199180699
 20
-15.61968302810047
 30
0.0
 10
7.197017614081901
 20
-15.61980303198356
 30
0.0
 10
7.196576929908006
 20
-15.61992267199553
 30
0.0
 10
7.196136134599959
 20
-15.6200419018339
 30
0.0
 10
7.195144246074201
 20
-15.62031019577085
 30
0.0
 10
7.194151794819465
 20
-15.62057641278892
 30
0.0
 10
7.193158758497183
 20
-15.62084042949595
 30
0.0
 10
7.192021237284885
 20
-15.62114286012999
 30
0.0
 10
7.190882948366985
 20
-15.62144240359094
 30
0.0
 10
7.189743908743606
 20
-15.62173906507703
 30
0.0
 10
7.188463476865573
 20
-15.622072552004
 30
0.0
 10
7.187182096339988
 20
-15.62240239705223
 30
0.0
 10
7.1858998120226
 20
-15.62272868997552
 30
0.0
 10
7.184479198713498
 20
-15.62309018240204
 30
0.0
 10
7.183057476098105
 20
-15.62344731498062
 30
0.0
 10
7.181634695906495
 20
-15.62380018458371
 30
0.0
 10
7.180076874610171
 20
-15.62418654628999
 30
0.0
 10
7.178517785453815
 20
-15.62456779738916
 30
0.0
 10
7.176957435342678
 20
-15.62494381726507
 30
0.0
 10
7.175265978703261
 20
-15.62535143175571
 30
0.0
 10
7.173573040306286
 20
-15.62575289899635
 30
0.0
 10
7.171878661374812
 20
-15.6261481954657
 30
0.0
 10
7.170057184829564
 20
-15.62657314364813
 30
0.0
 10
7.168234043531608
 20
-15.62699096058274
 30
0.0
 10
7.1664092999913
 20
-15.6274016477458
 30
0.0
 10
7.164461430257802
 20
-15.6278400463905
 30
0.0
 10
7.162511734761538
 20
-15.62827032062647
 30
0.0
 10
7.160560277390004
 20
-15.62869250276405
 30
0.0
 10
7.15630512435132
 20
-15.62961307096695
 30
0.0
 10
7.152041594334377
 20
-15.63049516463416
 30
0.0
 10
7.147770432528621
 20
-15.63133858161053
 30
0.0
 10
7.143060111643762
 20
-15.63226871836936
 30
0.0
 10
7.138340508893204
 20
-15.63315181611003
 30
0.0
 10
7.133612560747413
 20
-15.63398777269556
 30
0.0
 10
7.128484456338683
 20
-15.63489448159326
 30
0.0
 10
7.123346534106556
 20
-15.63574573193877
 30
0.0
 10
7.118200002529205
 20
-15.63654132606386
 30
0.0
 10
7.112696464031323
 20
-15.63739210932052
 30
0.0
 10
7.107183080326345
 20
-15.63817924696857
 30
0.0
 10
7.101661334880595
 20
-15.6389026152102
 30
0.0
 10
7.095829967911703
 20
-15.63966654496974
 30
0.0
 10
7.089989275173201
 20
-15.6403593533195
 30
0.0
 10
7.08414099361985
 20
-15.64098078504493
 30
0.0
 10
7.078035606114477
 20
-15.64162953655555
 30
0.0
 10
7.071921947878434
 20
-15.64220049768005
 30
0.0
 10
7.06580199752918
 20
-15.64269352483342
 30
0.0
 10
7.059482793178252
 20
-15.64320260401786
 30
0.0
 10
7.053156880325736
 20
-15.64362859185351
 30
0.0
 10
7.046826472437739
 20
-15.64397107859256
 30
0.0
 10
7.040356386222267
 20
-15.64432112218669
 30
0.0
 10
7.03388160442004
 20
-15.64458393918435
 30
0.0
 10
7.0274043705605
 20
-15.64476003075199
 30
0.0
 10
7.020860211889864
 20
-15.64493794175296
 30
0.0
 10
7.014313550229315
 20
-15.64502732591669
 30
0.0
 10
7.007767230125637
 20
-15.64502737258049
 30
0.0
  0
SPLINE
  5
151
330
70
100
AcDbEntity
  8
Layer 1
 62
     7
370
     5
100
AcDbSpline
210
0.0
220
0.0
230
1.0
 70
     8
 71
     3
 72
    80
 73
    76
 74
     0
 42
0.0000000001
 43
0.0000000001
 40
0.0
 40
0.0
 40
0.0
 40
0.0
 40
1.0
 40
1.0
 40
1.0
 40
2.0
 40
2.0
 40
2.0
 40
3.0
 40
3.0
 40
3.0
 40
4.0
 40
4.0
 40
4.0
 40
5.0
 40
5.0
 40
5.0
 40
6.0
 40
6.0
 40
6.0
 40
7.0
 40
7.0
 40
7.0
 40
8.0
 40
8.0
 40
8.0
 40
9.0
 40
9.0
 40
9.0
 40
10.0
 40
10.0
 40
10.0
 40
11.0
 40
11.0
 40
11.0
 40
12.0
 40
12.0
 40
12.0
 40
13.0
 40
13.0
 40
13.0
 40
14.0
 40
14.0
 40
14.0
 40
15.0
 40
15.0
 40
15.0
 40
16.0
 40
16.0
 40
16.0
 40
17.0
 40
17.0
 40
17.0
 40
18.0
 40
18.0
 40
18.0
 40
19.0
 40
19.0
 40
19.0
 40
20.0
 40
20.0
 40
20.0
 40
21.0
 40
21.0
 40
21.0
 40
22.0
 40
22.0
 40
22.0
 40
23.0
 40
23.0
 40
23.0
 40
24.0
 40
24.0
 40
24.0
 40
25.0
 40
25.0
 40
25.0
 40
25.0
 10
14.75843665005557
 20
-18.18407827681994
 30
0.0
 10
14.76359677720615
 20
-18.16806723046289
 30
0.0
 10
14.76836693235656
 20
-18.15192934572633
 30
0.0
 10
14.77284183756766
 20
-18.13571180876018
 30
0.0
 10
14.77766736730778
 20
-18.11822357085351
 30
0.0
 10
14.78214956675083
 20
-18.10064270964689
 30
0.0
 10
14.78636590927335
 20
-18.08299876401947
 30
0.0
 10
14.79087066919459
 20
-18.06414789061702
 30
0.0
 10
14.79507195650429
 20
-18.045225007075
 30
0.0
 10
14.79903281729096
 20
-18.02625246494805
 30
0.0
 10
14.8032300954416
 20
-18.00614748251602
 30
0.0
 10
14.80715738916173
 20
-17.98598673649917
 30
0.0
 10
14.81086651338488
 20
-17.96578623519159
 30
0.0
 10
14.81476851506909
 20
-17.94453529147035
 30
0.0
 10
14.81842906732693
 20
-17.92324035034208
 30
0.0
 10
14.82189094968546
 20
-17.90191339718292
 30
0.0
 10
14.8255091691355
 20
-17.87962332815684
 30
0.0
 10
14.82891036983025
 20
-17.85729829051625
 30
0.0
 10
14.83213007797647
 20
-17.83494727421387
 30
0.0
 10
14.83547538760164
 20
-17.81172434015512
 30
0.0
 10
14.83862476836008
 20
-17.78847336103447
 30
0.0
 10
14.84160785027711
 20
-17.76520118918903
 30
0.0
 10
14.84469063994498
 20
-17.74115115874719
 30
0.0
 10
14.84759582810271
 20
-17.71707849519566
 30
0.0
 10
14.85034821852297
 20
-17.69298846497433
 30
0.0
 10
14.85317849035697
 20
-17.66821678523297
 30
0.0
 10
14.85584719501
 20
-17.6434267421053
 30
0.0
 10
14.85837513468689
 20
-17.61862242443157
 30
0.0
 10
14.86096257264105
 20
-17.59323430557613
 30
0.0
 10
14.86340254147563
 20
-17.56783123232799
 30
0.0
 10
14.86571255058905
 20
-17.54241639079896
 30
0.0
 10
14.86806661394666
 20
-17.51651686216249
 30
0.0
 10
14.87028571338568
 20
-17.49060511209866
 30
0.0
 10
14.872384418265
 20
-17.46468368688983
 30
0.0
 10
14.8745142605881
 20
-17.43837767834715
 30
0.0
 10
14.87652010938126
 20
-17.41206170543912
 30
0.0
 10
14.87841468966935
 20
-17.38573763569168
 30
0.0
 10
14.88225776255783
 20
-17.33234041658268
 30
0.0
 10
14.88564300626841
 20
-17.27890988194261
 30
0.0
 10
14.88864625134265
 20
-17.22545878301856
 30
0.0
 10
14.8901575590103
 20
-17.19856085972166
 30
0.0
 10
14.89157213114317
 20
-17.17165772882236
 30
0.0
 10
14.89289524024032
 20
-17.14475007235288
 30
0.0
 10
14.89421825532218
 20
-17.11784432784434
 30
0.0
 10
14.89544982036604
 20
-17.09093405840874
 30
0.0
 10
14.89659351626162
 20
-17.06402000109996
 30
0.0
 10
14.89886962435551
 20
-17.01045742042033
 30
0.0
 10
14.90079771496963
 20
-16.95687983736348
 30
0.0
 10
14.90239707124826
 20
-16.90329258913311
 30
0.0
 10
14.90397302533008
 20
-16.85048944344976
 30
0.0
 10
14.90522979494595
 20
-16.79767691337027
 30
0.0
 10
14.90617428515752
 20
-16.74485879146265
 30
0.0
 10
14.90709548884862
 20
-16.69334290674189
 30
0.0
 10
14.90771962188167
 20
-16.64182170252835
 30
0.0
 10
14.90804234381431
 20
-16.59029857697098
 30
0.0
 10
14.90835365602884
 20
-16.54059703302346
 30
0.0
 10
14.90838449295653
 20
-16.49089370118733
 30
0.0
 10
14.90811843309049
 20
-16.44119191331793
 30
0.0
 10
14.907864907534
 20
-16.39383161949952
 30
0.0
 10
14.90734180036858
 20
-16.34647272759947
 30
0.0
 10
14.90651973895124
 20
-16.29911876904748
 30
0.0
 10
14.90574734973332
 20
-16.25462612380571
 30
0.0
 10
14.90471104276
 20
-16.2101378337392
 30
0.0
 10
14.90336344731031
 20
-16.16565911223695
 30
0.0
 10
14.90272706625574
 20
-16.14465472571661
 30
0.0
 10
14.90202126618467
 20
-16.12365247303786
 30
0.0
 10
14.90123782303537
 20
-16.10265308186113
 30
0.0
 10
14.90048831972967
 20
-16.08256341342945
 30
0.0
 10
14.8996677548413
 20
-16.06247636394151
 30
0.0
 10
14.89876674404369
 20
-16.04239291156255
 30
0.0
 10
14.89790943947863
 20
-16.02328366730952
 30
0.0
 10
14.89697930425341
 20
-16.00417767965233
 30
0.0
 10
14.89596485864316
 20
-15.98507609706454
 30
0.0
 10
14.89500556146004
 20
-15.967012936077
 30
0.0
 10
14.89397087147611
 20
-15.94895371423068
 30
0.0
 10
14.89284681510359
 20
-15.93090013481211
 30
0.0
  0
SPLINE
  5
152
330
70
100
AcDbEntity
  8
Layer 1
 62
     7
370
     5
100
AcDbSpline
210
0.0
220
0.0
230
1.0
 70
     8
 71
     3
 72
    80
 73
    76
 74
     0
 42
0.0000000001
 43
0.0000000001
 40
0.0
 40
0.0
 40
0.0
 40
0.0
 40
1.0
 40
1.0
 40
1.0
 40
2.0
 40
2.0
 40
2.0
 40
3.0
 40
3.0
 40
3.0
 40
4.0
 40
4.0
 40
4.0
 40
5.0
 40
5.0
 40
5.0
 40
6.0
 40
6.0
 40
6.0
 40
7.0
 40
7.0
 40
7.0
 40
8.0
 40
8.0
 40
8.0
 40
9.0
 40
9.0
 40
9.0
 40
10.0
 40
10.0
 40
10.0
 40
11.0
 40
11.0
 40
11.0
 40
12.0
 40
12.0
 40
12.0
 40
13.0
 40
13.0
 40
13.0
 40
14.0
 40
14.0
 40
14.0
 40
15.0
 40
15.0
 40
15.0
 40
16.0
 40
16.0
 40
16.0
 40
17.0
 40
17.0
 40
17.0
 40
18.0
 40
18.0
 40
18.0
 40
19.0
 40
19.0
 40
19.0
 40
20.0
 40
20.0
 40
20.0
 40
21.0
 40
21.0
 40
21.0
 40
22.0
 40
22.0
 40
22.0
 40
23.0
 40
23.0
 40
23.0
 40
24.0
 40
24.0
 40
24.0
 40
25.0
 40
25.0
 40
25.0
 40
25.0
 10
15.50952012442884
 20
-18.18407827681994
 30
0.0
 10
15.50435999727829
 20
-18.16806723046289
 30
0.0
 10
15.49958984212788
 20
-18.15192934572633
 30
0.0
 10
15.49511493691676
 20
-18.13571180876018
 30
0.0
 10
15.49028940717656
 20
-18.11822357085351
 30
0.0
 10
15.48580720773359
 20
-18.10064270964689
 30
0.0
 10
15.48159086521102
 20
-18.08299876401947
 30
0.0
 10
15.47708610528982
 20
-18.06414789061702
 30
0.0
 10
15.47288481798015
 20
-18.045225007075
 30
0.0
 10
15.46892395719348
 20
-18.02625246494805
 30
0.0
 10
15.46472667904282
 20
-18.00614748251602
 30
0.0
 10
15.46079938532271
 20
-17.98598673649917
 30
0.0
 10
15.45709026111505
 20
-17.96578623519159
 30
0.0
 10
15.45318825944721
 20
-17.94453529147035
 30
0.0
 10
15.44952770722287
 20
-17.92324035034208
 30
0.0
 10
15.44606582486578
 20
-17.90191339718292
 30
0.0
 10
15.4424476054172
 20
-17.87962332815684
 30
0.0
 10
15.43904640468898
 20
-17.85729829051625
 30
0.0
 10
15.43582669652566
 20
-17.83494727421387
 30
0.0
 10
15.4324813868828
 20
-17.81172434015512
 30
0.0
 10
15.42933200612436
 20
-17.78847336103447
 30
0.0
 10
15.42634892420733
 20
-17.76520118918903
 30
0.0
 10
15.42326613453946
 20
-17.74115115874719
 30
0.0
 10
15.4203609463817
 20
-17.71707849519566
 30
0.0
 10
15.41760855597747
 20
-17.69298846497433
 30
0.0
 10
15.41477828416006
 20
-17.66821678523297
 30
0.0
 10
15.41210957954048
 20
-17.6434267421053
 30
0.0
 10
15.4095816398644
 20
-17.61862242443157
 30
0.0
 10
15.40699420191105
 20
-17.59323430557613
 30
0.0
 10
15.40455423304294
 20
-17.56783123232799
 30
0.0
 10
15.40224422391262
 20
-17.54241639079896
 30
0.0
 10
15.39989016053775
 20
-17.51651686216249
 30
0.0
 10
15.39767106109876
 20
-17.49060511209866
 30
0.0
 10
15.39557235621944
 20
-17.46468368688983
 30
0.0
 10
15.39344251389634
 20
-17.43837767834715
 30
0.0
 10
15.39143666510315
 20
-17.41206170543912
 30
0.0
 10
15.38954208481509
 20
-17.38573763569168
 30
0.0
 10
15.38569901192654
 20
-17.33234041658268
 30
0.0
 10
15.38231376821601
 20
-17.27890988194261
 30
0.0
 10
15.37931052314179
 20
-17.22545878301856
 30
0.0
 10
15.37779921547412
 20
-17.19856085972166
 30
0.0
 10
15.37638464334127
 20
-17.17165772882236
 30
0.0
 10
15.37506153424412
 20
-17.14475007235288
 30
0.0
 10
15.37373851916226
 20
-17.11784432784434
 30
0.0
 10
15.37250695411841
 20
-17.09093405840874
 30
0.0
 10
15.3713632582228
 20
-17.06402000109996
 30
0.0
 10
15.36908715012891
 20
-17.01045742042033
 30
0.0
 10
15.36715905951481
 20
-16.95687983736348
 30
0.0
 10
15.3655597032361
 20
-16.90329258913311
 30
0.0
 10
15.36398374915436
 20
-16.85048944344976
 30
0.0
 10
15.36272697953849
 20
-16.79767691337027
 30
0.0
 10
15.36178248932692
 20
-16.74485879146265
 30
0.0
 10
15.36086128563582
 20
-16.69334290674189
 30
0.0
 10
15.36023715260277
 20
-16.64182170252835
 30
0.0
 10
15.35991443067013
 20
-16.59029857697098
 30
0.0
 10
15.35960311845557
 20
-16.54059703302346
 30
0.0
 10
15.35957228152789
 20
-16.49089370118733
 30
0.0
 10
15.35983834139392
 20
-16.44119191331793
 30
0.0
 10
15.36009186695044
 20
-16.39383161949952
 30
0.0
 10
15.36061497411585
 20
-16.34647272759947
 30
0.0
 10
15.3614370355332
 20
-16.29911876904748
 30
0.0
 10
15.3622094247511
 20
-16.25462612380571
 30
0.0
 10
15.36324573172439
 20
-16.2101378337392
 30
0.0
 10
15.3645933271741
 20
-16.16565911223695
 30
0.0
 10
15.3652297082287
 20
-16.14465472571661
 30
0.0
 10
15.36593550829975
 20
-16.12365247303786
 30
0.0
 10
15.36671895144907
 20
-16.10265308186113
 30
0.0
 10
15.36746845475474
 20
-16.08256341342945
 30
0.0
 10
15.36828901964309
 20
-16.06247636394151
 30
0.0
 10
15.36919003044075
 20
-16.04239291156255
 30
0.0
 10
15.37004733500581
 20
-16.02328366730952
 30
0.0
 10
15.370977470231
 20
-16.00417767965233
 30
0.0
 10
15.37199191584126
 20
-15.98507609706454
 30
0.0
 10
15.37295121302441
 20
-15.967012936077
 30
0.0
 10
15.37398590300831
 20
-15.94895371423068
 30
0.0
 10
15.37510995938085
 20
-15.93090013481211
 30
0.0
  0
SPLINE
  5
153
330
70
100
AcDbEntity
  8
Layer 1
 62
     7
370
     5
100
AcDbSpline
210
0.0
220
0.0
230
1.0
 70
     8
 71
     3
 72
   191
 73
   187
 74
     0
 42
0.0000000001
 43
0.0000000001
 40
0.0
 40
0.0
 40
0.0
 40
0.0
 40
1.0
 40
1.0
 40
1.0
 40
2.0
 40
2.0
 40
2.0
 40
3.0
 40
3.0
 40
3.0
 40
4.0
 40
4.0
 40
4.0
 40
5.0
 40
5.0
 40
5.0
 40
6.0
 40
6.0
 40
6.0
 40
7.0
 40
7.0
 40
7.0
 40
8.0
 40
8.0
 40
8.0
 40
9.0
 40
9.0
 40
9.0
 40
10.0
 40
10.0
 40
10.0
 40
11.0
 40
11.0
 40
11.0
 40
12.0
 40
12.0
 40
12.0
 40
13.0
 40
13.0
 40
13.0
 40
14.0
 40
14.0
 40
14.0
 40
15.0
 40
15.0
 40
15.0
 40
16.0
 40
16.0
 40
16.0
 40
17.0
 40
17.0
 40
17.0
 40
18.0
 40
18.0
 40
18.0
 40
19.0
 40
19.0
 40
19.0
 40
20.0
 40
20.0
 40
20.0
 40
21.0
 40
21.0
 40
21.0
 40
22.0
 40
22.0
 40
22.0
 40
23.0
 40
23.0
 40
23.0
 40
24.0
 40
24.0
 40
24.0
 40
25.0
 40
25.0
 40
25.0
 40
26.0
 40
26.0
 40
26.0
 40
27.0
 40
27.0
 40
27.0
 40
28.0
 40
28.0
 40
28.0
 40
29.0
 40
29.0
 40
29.0
 40
30.0
 40
30.0
 40
30.0
 40
31.0
 40
31.0
 40
31.0
 40
32.0
 40
32.0
 40
32.0
 40
33.0
 40
33.0
 40
33.0
 40
34.0
 40
34.0
 40
34.0
 40
35.0
 40
35.0
 40
35.0
 40
36.0
 40
36.0
 40
36.0
 40
37.0
 40
37.0
 40
37.0
 40
38.0
 40
38.0
 40
38.0
 40
39.0
 40
39.0
 40
39.0
 40
40.0
 40
40.0
 40
40.0
 40
41.0
 40
41.0
 40
41.0
 40
42.0
 40
42.0
 40
42.0
 40
43.0
 40
43.0
 40
43.0
 40
44.0
 40
44.0
 40
44.0
 40
45.0
 40
45.0
 40
45.0
 40
46.0
 40
46.0
 40
46.0
 40
47.0
 40
47.0
 40
47.0
 40
48.0
 40
48.0
 40
48.0
 40
49.0
 40
49.0
 40
49.0
 40
50.0
 40
50.0
 40
50.0
 40
51.0
 40
51.0
 40
51.0
 40
52.0
 40
52.0
 40
52.0
 40
53.0
 40
53.0
 40
53.0
 40
54.0
 40
54.0
 40
54.0
 40
55.0
 40
55.0
 40
55.0
 40
56.0
 40
56.0
 40
56.0
 40
57.0
 40
57.0
 40
57.0
 40
58.0
 40
58.0
 40
58.0
 40
59.0
 40
59.0
 40
59.0
 40
60.0
 40
60.0
 40
60.0
 40
61.0
 40
61.0
 40
61.0
 40
62.0
 40
62.0
 40
62.0
 40
62.0
 10
15.33645633133359
 20
-15.6450273744872
 30
0.0
 10
15.33645181387068
 20
-15.64502416401377
 30
0.0
 10
15.33644587765118
 20
-15.64502396317938
 30
0.0
 10
15.33644027612003
 20
-15.64502305518673
 30
0.0
 10
15.33643330753201
 20
-15.64502192559798
 30
0.0
 10
15.33642685692838
 20
-15.64501970156748
 30
0.0
 10
15.33642029315974
 20
-15.6450177174933
 30
0.0
 10
15.33641111628097
 20
-15.64501494353686
 30
0.0
 10
15.33640171819689
 20
-15.64501263862659
 30
0.0
 10
15.3363923509273
 20
-15.64501026915248
 30
0.0
 10
15.33636562665467
 20
-15.6450035091813
 30
0.0
 10
15.33633915318988
 20
-15.64499622370681
 30
0.0
 10
15.33631262124479
 20
-15.64498906464809
 30
0.0
 10
15.33627553333036
 20
-15.64497905729434
 30
0.0
 10
15.33623833114504
 20
-15.64496929695822
 30
0.0
 10
15.33620115279948
 20
-15.64495948996351
 30
0.0
 10
15.33615341717071
 20
-15.64494689814291
 30
0.0
 10
15.3361057208432
 20
-15.6449342294029
 30
0.0
 10
15.33605801129147
 20
-15.64492159335868
 30
0.0
 10
15.33599977464847
 20
-15.64490616917689
 30
0.0
 10
15.33594151830157
 20
-15.64489079371138
 30
0.0
 10
15.33588326230708
 20
-15.64487542321747
 30
0.0
 10
15.33581450015595
 20
-15.64485728073727
 30
0.0
 10
15.33574573849569
 20
-15.64483914518367
 30
0.0
 10
15.33567697150847
 20
-15.64482102772894
 30
0.0
 10
15.33559772203365
 20
-15.64480014854217
 30
0.0
 10
15.33551846548403
 20
-15.64477929339263
 30
0.0
 10
15.33543920459164
 20
-15.64475845522934
 30
0.0
 10
15.33524932845982
 20
-15.64470853565699
 30
0.0
 10
15.33505942740554
 20
-15.64465871356515
 30
0.0
 10
15.3348695049938
 20
-15.64460897233142
 30
0.0
 10
15.33463792934011
 20
-15.64454832199213
 30
0.0
 10
15.33440632193353
 20
-15.64448779186743
 30
0.0
 10
15.33417468874394
 20
-15.64442736086233
 30
0.0
 10
15.33390158715383
 20
-15.64435611112647
 30
0.0
 10
15.33362844972268
 20
-15.64428499917699
 30
0.0
 10
15.33335528114169
 20
-15.64421400704946
 30
0.0
 10
15.33304082916025
 20
-15.64413228602908
 30
0.0
 10
15.33272633590228
 20
-15.64405072378415
 30
0.0
 10
15.33241180749357
 20
-15.64396929732687
 30
0.0
 10
15.33205618235112
 20
-15.64387723157175
 30
0.0
 10
15.33170051227219
 20
-15.64378533940693
 30
0.0
 10
15.3313447973131
 20
-15.64369362129691
 30
0.0
 10
15.33094829016542
 20
-15.64359138526422
 30
0.0
 10
15.33055172725403
 20
-15.64348936549532
 30
0.0
 10
15.33015509709071
 20
-15.64338760752316
 30
0.0
 10
15.32924148635463
 20
-15.64315321492164
 30
0.0
 10
15.32832751879348
 20
-15.64292021136167
 30
0.0
 10
15.32741317088529
 20
-15.64268870970174
 30
0.0
 10
15.3263417547242
 20
-15.64241744028926
 30
0.0
 10
15.32526981631902
 20
-15.64214823309423
 30
0.0
 10
15.32419736675105
 20
-15.64188107780064
 30
0.0
 10
15.3229719245124
 20
-15.64157581087632
 30
0.0
 10
15.32174581486611
 20
-15.64127322304891
 30
0.0
 10
15.32051907233087
 20
-15.64097322330596
 30
0.0
 10
15.3191433938259
 20
-15.64063680128909
 30
0.0
 10
15.31776691942809
 20
-15.64030363393125
 30
0.0
 10
15.31638967945575
 20
-15.63997366113484
 30
0.0
 10
15.31486793277013
 20
-15.63960906598842
 30
0.0
 10
15.31334525142602
 20
-15.63924837095091
 30
0.0
 10
15.31182161258637
 20
-15.63889176348837
 30
0.0
 10
15.31015876938995
 20
-15.63850257526506
 30
0.0
 10
15.30849478574601
 20
-15.63811825564352
 30
0.0
 10
15.30682967716428
 20
-15.63773887880029
 30
0.0
 10
15.30503076118235
 20
-15.63732901539922
 30
0.0
 10
15.30323053219912
 20
-15.63692492109417
 30
0.0
 10
15.30142901295683
 20
-15.63652663333576
 30
0.0
 10
15.29744622877448
 20
-15.63564610197815
 30
0.0
 10
15.29345713832049
 20
-15.63479395070294
 30
0.0
 10
15.28946211311184
 20
-15.633970594712
 30
0.0
 10
15.28499756541133
 20
-15.63305047233385
 30
0.0
 10
15.28052560599667
 20
-15.63216631141093
 30
0.0
 10
15.27604663370327
 20
-15.63131915035994
 30
0.0
 10
15.2711446684065
 20
-15.63039198363496
 30
0.0
 10
15.26623430309498
 20
-15.62950913529582
 30
0.0
 10
15.26131613966681
 20
-15.62867205367456
 30
0.0
 10
15.25602176023534
 20
-15.62777093930885
 30
0.0
 10
15.25071834401913
 20
-15.6269228613364
 30
0.0
 10
15.24540689780961
 20
-15.62612836786161
 30
0.0
 10
15.23976822519211
 20
-15.62528492740784
 30
0.0
 10
15.23412050268323
 20
-15.62450187727659
 30
0.0
 10
15.22846476421765
 20
-15.62378161788539
 30
0.0
 10
15.22253118407507
 20
-15.62302597530265
 30
0.0
 10
15.21658878105293
 20
-15.62233944426303
 30
0.0
 10
15.2106391118747
 20
-15.62172298366676
 30
0.0
 10
15.20446348818993
 20
-15.62108311134029
 30
0.0
 10
15.19828003596588
 20
-15.62051873274266
 30
0.0
 10
15.19209055370579
 20
-15.62003057371394
 30
0.0
 10
15.18572955861807
 20
-15.6195288876192
 30
0.0
 10
15.17936219467512
 20
-15.6191077037642
 30
0.0
 10
15.1729903704477
 20
-15.61877008581139
 30
0.0
 10
15.16650215394272
 20
-15.61842630068865
 30
0.0
 10
15.16000931271562
 20
-15.61816916230032
 30
0.0
 10
15.15351433814923
 20
-15.61799657816441
 30
0.0
 10
15.14696123784508
 20
-15.61782244951428
 30
0.0
 10
15.14040596584676
 20
-15.61773439529815
 30
0.0
 10
15.13385025415586
 20
-15.61773516172664
 30
0.0
 10
15.12079998923119
 20
-15.61773668743366
 30
0.0
 10
15.10774798190537
 20
-15.61809018900595
 30
0.0
 10
15.09471614922252
 20
-15.61878484434608
 30
0.0
 10
15.08834621650913
 20
-15.61912439043165
 30
0.0
 10
15.08198110399012
 20
-15.61954544613773
 30
0.0
 10
15.07562238005309
 20
-15.62004865366104
 30
0.0
 10
15.0694373175934
 20
-15.62053811821283
 30
0.0
 10
15.06325829952688
 20
-15.62110530860253
 30
0.0
 10
15.0570870857837
 20
-15.62174703853879
 30
0.0
 10
15.05114284134634
 20
-15.62236516647312
 30
0.0
 10
15.04520583772296
 20
-15.62305245184428
 30
0.0
 10
15.03927765066906
 20
-15.62380881741617
 30
0.0
 10
15.0336288995436
 20
-15.62452953031483
 30
0.0
 10
15.02798815340669
 20
-15.6253129644592
 30
0.0
 10
15.02235649022345
 20
-15.62615686355654
 30
0.0
 10
15.01705331852147
 20
-15.62695153853395
 30
0.0
 10
15.01175820106987
 20
-15.62779983041772
 30
0.0
 10
15.00647207282835
 20
-15.6287008024681
 30
0.0
 10
15.00156266656843
 20
-15.62953756571379
 30
0.0
 10
14.99666101392083
 20
-15.63041976805678
 30
0.0
 10
14.99176773050029
 20
-15.63134609789497
 30
0.0
 10
14.98729786415401
 20
-15.63219227217377
 30
0.0
 10
14.98283498131652
 20
-15.63307526762479
 30
0.0
 10
14.9783795217683
 20
-15.63399425025202
 30
0.0
 10
14.97439334029081
 20
-15.63481643963278
 30
0.0
 10
14.9704131007157
 20
-15.63566743461147
 30
0.0
 10
14.96643911977336
 20
-15.63654657151935
 30
0.0
 10
14.96464190178156
 20
-15.63694415789208
 30
0.0
 10
14.96284596384713
 20
-15.63734750003992
 30
0.0
 10
14.96105131470313
 20
-15.63775650370859
 30
0.0
 10
14.95939048674939
 20
-15.6381350092947
 30
0.0
 10
14.95773076255015
 20
-15.63851836355815
 30
0.0
 10
14.95607217669713
 20
-15.63890657834319
 30
0.0
 10
14.954552482285
 20
-15.63926228368
 30
0.0
 10
14.95303374354956
 20
-15.63962206957431
 30
0.0
 10
14.95151596377215
 20
-15.63998585539032
 30
0.0
 10
14.95014212055399
 20
-15.64031514207835
 30
0.0
 10
14.94876906303521
 20
-15.64064770600698
 30
0.0
 10
14.94739679725489
 20
-15.6409835050704
 30
0.0
 10
14.94617313282065
 20
-15.64128294077502
 30
0.0
 10
14.94495009793599
 20
-15.64158494889203
 30
0.0
 10
14.94372771723975
 20
-15.64188958121402
 30
0.0
 10
14.94265816540817
 20
-15.64215612670101
 30
0.0
 10
14.94158911441036
 20
-15.64242468122739
 30
0.0
 10
14.94052054406509
 20
-15.64269513452677
 30
0.0
 10
14.93960891498851
 20
-15.64292586626346
 30
0.0
 10
14.93869763574541
 20
-15.64315797998455
 30
0.0
 10
14.93778672251776
 20
-15.64339152027466
 30
0.0
 10
14.9373911731606
 20
-15.64349293137381
 30
0.0
 10
14.93699569281895
 20
-15.64359461146546
 30
0.0
 10
14.93660028388424
 20
-15.64369656855996
 30
0.0
 10
14.93624531927008
 20
-15.64378809699426
 30
0.0
 10
14.93589041220224
 20
-15.64387984866314
 30
0.0
 10
14.93553556255657
 20
-15.64397182170831
 30
0.0
 10
14.93522153442326
 20
-15.64405321427565
 30
0.0
 10
14.93490755126044
 20
-15.64413478021518
 30
0.0
 10
14.93459360973204
 20
-15.64421650635336
 30
0.0
 10
14.93432086885311
 20
-15.64428750702311
 30
0.0
 10
14.93404815939778
 20
-15.64435862860273
 30
0.0
 10
14.93377547605599
 20
-15.64442984935888
 30
0.0
 10
14.93354431293909
 20
-15.64449022566161
 30
0.0
 10
14.93331316858889
 20
-15.64455067323792
 30
0.0
 10
14.93308204505183
 20
-15.64461120281344
 30
0.0
 10
14.93289260711311
 20
-15.64466081523361
 30
0.0
 10
14.93270318315687
 20
-15.6447104827415
 30
0.0
 10
14.9325137825188
 20
-15.64476023194169
 30
0.0
 10
14.93236620778235
 20
-15.64479899487924
 30
0.0
 10
14.93221864720239
 20
-15.64483780741236
 30
0.0
 10
14.93207108976268
 20
-15.64487665014657
 30
0.0
 10
14.93201304034503
 20
-15.64489193096268
 30
0.0
 10
14.93195499141337
 20
-15.64490721645284
 30
0.0
 10
14.93189695748277
 20
-15.64492254056469
 30
0.0
 10
14.93184943170283
 20
-15.64493508995368
 30
0.0
 10
14.93180191598329
 20
-15.64494766524424
 30
0.0
 10
14.93175436814118
 20
-15.64496017071539
 30
0.0
 10
14.93171735191625
 20
-15.64496990628506
 30
0.0
 10
14.93168031622278
 20
-15.64497959953933
 30
0.0
 10
14.93164337192315
 20
-15.64498950483046
 30
0.0
 10
14.9316169573294
 20
-15.64499658695791
 30
0.0
 10
14.93159058945636
 20
-15.64500377747923
 30
0.0
 10
14.93156401898133
 20
-15.64501050704136
 30
0.0
 10
14.93155471151673
 20
-15.64501286436317
 30
0.0
 10
14.93154537919175
 20
-15.64501516512281
 30
0.0
 10
14.93153622440925
 20
-15.64501787251629
 30
0.0
 10
14.93152968103522
 20
-15.64501980762378
 30
0.0
 10
14.93152322836171
 20
-15.6450219504669
 30
0.0
 10
14.93151635947012
 20
-15.64502314157812
 30
0.0
 10
14.93151085528805
 20
-15.64502409603968
 30
0.0
 10
14.93150508384643
 20
-15.64502443938073
 30
0.0
 10
14.93150044365261
 20
-15.64502737258049
 30
0.0
  0
SPLINE
  5
154
330
70
100
AcDbEntity
  8
Layer 1
 62
     7
370
     5
100
AcDbSpline
210
0.0
220
0.0
230
1.0
 70
     8
 71
     3
 72
   179
 73
   175
 74
     0
 42
0.0000000001
 43
0.0000000001
 40
0.0
 40
0.0
 40
0.0
 40
0.0
 40
1.0
 40
1.0
 40
1.0
 40
2.0
 40
2.0
 40
2.0
 40
3.0
 40
3.0
 40
3.0
 40
4.0
 40
4.0
 40
4.0
 40
5.0
 40
5.0
 40
5.0
 40
6.0
 40
6.0
 40
6.0
 40
7.0
 40
7.0
 40
7.0
 40
8.0
 40
8.0
 40
8.0
 40
9.0
 40
9.0
 40
9.0
 40
10.0
 40
10.0
 40
10.0
 40
11.0
 40
11.0
 40
11.0
 40
12.0
 40
12.0
 40
12.0
 40
13.0
 40
13.0
 40
13.0
 40
14.0
 40
14.0
 40
14.0
 40
15.0
 40
15.0
 40
15.0
 40
16.0
 40
16.0
 40
16.0
 40
17.0
 40
17.0
 40
17.0
 40
18.0
 40
18.0
 40
18.0
 40
19.0
 40
19.0
 40
19.0
 40
20.0
 40
20.0
 40
20.0
 40
21.0
 40
21.0
 40
21.0
 40
22.0
 40
22.0
 40
22.0
 40
23.0
 40
23.0
 40
23.0
 40
24.0
 40
24.0
 40
24.0
 40
25.0
 40
25.0
 40
25.0
 40
26.0
 40
26.0
 40
26.0
 40
27.0
 40
27.0
 40
27.0
 40
28.0
 40
28.0
 40
28.0
 40
29.0
 40
29.0
 40
29.0
 40
30.0
 40
30.0
 40
30.0
 40
31.0
 40
31.0
 40
31.0
 40
32.0
 40
32.0
 40
32.0
 40
33.0
 40
33.0
 40
33.0
 40
34.0
 40
34.0
 40
34.0
 40
35.0
 40
35.0
 40
35.0
 40
36.0
 40
36.0
 40
36.0
 40
37.0
 40
37.0
 40
37.0
 40
38.0
 40
38.0
 40
38.0
 40
39.0
 40
39.0
 40
39.0
 40
40.0
 40
40.0
 40
40.0
 40
41.0
 40
41.0
 40
41.0
 40
42.0
 40
42.0
 40
42.0
 40
43.0
 40
43.0
 40
43.0
 40
44.0
 40
44.0
 40
44.0
 40
45.0
 40
45.0
 40
45.0
 40
46.0
 40
46.0
 40
46.0
 40
47.0
 40
47.0
 40
47.0
 40
48.0
 40
48.0
 40
48.0
 40
49.0
 40
49.0
 40
49.0
 40
50.0
 40
50.0
 40
50.0
 40
51.0
 40
51.0
 40
51.0
 40
52.0
 40
52.0
 40
52.0
 40
53.0
 40
53.0
 40
53.0
 40
54.0
 40
54.0
 40
54.0
 40
55.0
 40
55.0
 40
55.0
 40
56.0
 40
56.0
 40
56.0
 40
57.0
 40
57.0
 40
57.0
 40
58.0
 40
58.0
 40
58.0
 40
58.0
 10
15.36190868521026
 20
-15.60196751807052
 30
0.0
 10
15.36190230089202
 20
-15.60196778340223
 30
0.0
 10
15.3618961112108
 20
-15.60196558559621
 30
0.0
 10
15.361889895709
 20
-15.60196371952439
 30
0.0
 10
15.36187139097415
 20
-15.6019581638727
 30
0.0
 10
15.36185265737451
 20
-15.60195554860247
 30
0.0
 10
15.36183396998098
 20
-15.60195233968963
 30
0.0
 10
15.36180290403429
 20
-15.60194700518885
 30
0.0
 10
15.36177196578188
 20
-15.60194003011078
 30
0.0
 10
15.36174099818696
 20
-15.60193342598376
 30
0.0
 10
15.36169772311281
 20
-15.60192419717267
 30
0.0
 10
15.36165439073827
 20
-15.60191569275985
 30
0.0
 10
15.36161107034748
 20
-15.60190702568325
 30
0.0
 10
15.36155546153744
 20
-15.60189590007227
 30
0.0
 10
15.36149987247411
 20
-15.60188450642512
 30
0.0
 10
15.36144427664711
 20
-15.6018731862307
 30
0.0
 10
15.3613764271804
 20
-15.60185937100047
 30
0.0
 10
15.36130856764
 20
-15.60184566517015
 30
0.0
 10
15.36124070712147
 20
-15.60183195496653
 30
0.0
 10
15.36106834679529
 20
-15.60179713213829
 30
0.0
 10
15.3608959801589
 20
-15.60176228109698
 30
0.0
 10
15.36072360089446
 20
-15.6017275066762
 30
0.0
 10
15.36050257662689
 20
-15.60168291899968
 30
0.0
 10
15.36028153159842
 20
-15.60163845728966
 30
0.0
 10
15.36006047255056
 20
-15.60159405982065
 30
0.0
 10
15.35979101607404
 20
-15.60153994221868
 30
0.0
 10
15.35952153876741
 20
-15.60148592006597
 30
0.0
 10
15.35925204273035
 20
-15.60143199353441
 30
0.0
 10
15.35893439732078
 20
-15.60136843224647
 30
0.0
 10
15.35861672588981
 20
-15.60130500380018
 30
0.0
 10
15.35829903211199
 20
-15.60124168685764
 30
0.0
 10
15.35793343677046
 20
-15.60116882304712
 30
0.0
 10
15.35756781183517
 20
-15.60109610690023
 30
0.0
 10
15.35720216152233
 20
-15.60102351879679
 30
0.0
 10
15.35678886596707
 20
-15.60094147226356
 30
0.0
 10
15.35637553798983
 20
-15.60085958931664
 30
0.0
 10
15.35596217552122
 20
-15.60077788073845
 30
0.0
 10
15.35550162695929
 20
-15.60068684497433
 30
0.0
 10
15.35504103558201
 20
-15.60059602566017
 30
0.0
 10
15.35458039455994
 20
-15.60050545857039
 30
0.0
 10
15.35352023720121
 20
-15.60029701997703
 30
0.0
 10
15.35245981688295
 20
-15.60008991737158
 30
0.0
 10
15.35139912222618
 20
-15.59988422928765
 30
0.0
 10
15.35015772954378
 20
-15.59964350055341
 30
0.0
 10
15.34891596108933
 20
-15.59940470934346
 30
0.0
 10
15.34767382716015
 20
-15.59916783454175
 30
0.0
 10
15.34625635804713
 20
-15.59889752334015
 30
0.0
 10
15.34483841299902
 20
-15.59862970775821
 30
0.0
 10
15.34342001895318
 20
-15.59836429164748
 30
0.0
 10
15.34183165106497
 20
-15.59806706928644
 30
0.0
 10
15.34024272011955
 20
-15.59777285593761
 30
0.0
 10
15.33865324031611
 20
-15.5974816375103
 30
0.0
 10
15.33689973975477
 20
-15.59716036782535
 30
0.0
 10
15.33514557121596
 20
-15.59684274305401
 30
0.0
 10
15.33339072513846
 20
-15.5965289037513
 30
0.0
 10
15.33147867255353
 20
-15.59618694940119
 30
0.0
 10
15.32956581559887
 20
-15.59584948913584
 30
0.0
 10
15.32765216944072
 20
-15.59551657041445
 30
0.0
 10
15.32558818002273
 20
-15.59515749634273
 30
0.0
 10
15.32352327252447
 20
-15.59480370544831
 30
0.0
 10
15.32145746337978
 20
-15.59445523185678
 30
0.0
 10
15.31690234851519
 20
-15.59368684662584
 30
0.0
 10
15.31234284981224
 20
-15.59294431431916
 30
0.0
 10
15.30777924569752
 20
-15.59222794034614
 30
0.0
 10
15.30269732837857
 20
-15.591430203906
 30
0.0
 10
15.29761032014302
 20
-15.59066490511256
 30
0.0
 10
15.29251853731597
 20
-15.58993273693742
 30
0.0
 10
15.28696523286279
 20
-15.58913420468942
 30
0.0
 10
15.28140624904909
 20
-15.58837508120104
 30
0.0
 10
15.27584202498726
 20
-15.58765653291132
 30
0.0
 10
15.26987290299533
 20
-15.58688569723848
 30
0.0
 10
15.26389775036151
 20
-15.58616155677689
 30
0.0
 10
15.2579172803548
 20
-15.5854841405809
 30
0.0
 10
15.25158856253564
 20
-15.58476727786842
 30
0.0
 10
15.24525389004303
 20
-15.58410273944236
 30
0.0
 10
15.23891403879565
 20
-15.58349256416459
 30
0.0
 10
15.23228238715064
 20
-15.58285430472811
 30
0.0
 10
15.22564506906135
 20
-15.58227552788215
 30
0.0
 10
15.21900285330409
 20
-15.58175613780998
 30
0.0
 10
15.20507351044716
 20
-15.58066692862798
 30
0.0
 10
15.19112262863453
 20
-15.5798388904943
 30
0.0
 10
15.17716182031105
 20
-15.5792825686805
 30
0.0
 10
15.16997416004442
 20
-15.5789961488613
 30
0.0
 10
15.16278386859769
 20
-15.57878175178851
 30
0.0
 10
15.15559216800845
 20
-15.5786379922552
 30
0.0
 10
15.1483413653372
 20
-15.5784930512924
 30
0.0
 10
15.14108913026727
 20
-15.57841991365186
 30
0.0
 10
15.13383663250432
 20
-15.57842058309431
 30
0.0
 10
15.1193931973972
 20
-15.57842191629682
 30
0.0
 10
15.10494872041818
 20
-15.57871597720117
 30
0.0
 10
15.09051688442337
 20
-15.5792948732034
 30
0.0
 10
15.08345008334471
 20
-15.57957833976264
 30
0.0
 10
15.0763863132487
 20
-15.57993010244738
 30
0.0
 10
15.06932659458951
 20
-15.58035100483435
 30
0.0
 10
15.06244535378144
 20
-15.58076126632227
 30
0.0
 10
15.05556796214965
 20
-15.58123721583893
 30
0.0
 10
15.04869556540815
 20
-15.58177642567703
 30
0.0
 10
15.04205920304813
 20
-15.58229711620301
 30
0.0
 10
15.03542749836861
 20
-15.58287679628542
 30
0.0
 10
15.02880150991548
 20
-15.58351575183133
 30
0.0
 10
15.02246894629807
 20
-15.58412641191196
 30
0.0
 10
15.01614160384292
 20
-15.58479121379789
 30
0.0
 10
15.00982023324468
 20
-15.58550852723526
 30
0.0
 10
15.00384852936612
 20
-15.58618616246796
 30
0.0
 10
14.9978821549501
 20
-15.5869106605697
 30
0.0
 10
14.99192177731394
 20
-15.58768148377587
 30
0.0
 10
14.98636718625878
 20
-15.58839982881161
 30
0.0
 10
14.98081780324878
 20
-15.58915840597814
 30
0.0
 10
14.97527408405214
 20
-15.589956267651
 30
0.0
 10
14.9701923839061
 20
-15.59068763474149
 30
0.0
 10
14.96511544285706
 20
-15.59145201117813
 30
0.0
 10
14.96004359746921
 20
-15.59224882433083
 30
0.0
 10
14.95548999635374
 20
-15.592964218627
 30
0.0
 10
14.95094050274701
 20
-15.5937057594999
 30
0.0
 10
14.94639536353229
 20
-15.59447295947896
 30
0.0
 10
14.94433447406375
 20
-15.5948208287702
 30
0.0
 10
14.94227447984149
 20
-15.59517397347536
 30
0.0
 10
14.94021538984803
 20
-15.59553231988611
 30
0.0
 10
14.93830665812743
 20
-15.59586449922909
 30
0.0
 10
14.93639870340045
 20
-15.59620114833915
 30
0.0
 10
14.93449154932581
 20
-15.59654227116892
 30
0.0
 10
14.93274130549081
 20
-15.59685532827214
 30
0.0
 10
14.93099173598122
 20
-15.59717215323154
 30
0.0
 10
14.92924284880289
 20
-15.59749270006053
 30
0.0
 10
14.92765736843448
 20
-15.59778329668153
 30
0.0
 10
14.92607244884718
 20
-15.59807695216043
 30
0.0
 10
14.92448809167596
 20
-15.59837361085599
 30
0.0
 10
14.92307330432335
 20
-15.59863851890708
 30
0.0
 10
14.92165896544118
 20
-15.59890582172266
 30
0.0
 10
14.92024509391553
 20
-15.59917557355965
 30
0.0
 10
14.91900635929331
 20
-15.59941191111498
 30
0.0
 10
14.91776798341539
 20
-15.59965012854647
 30
0.0
 10
14.91652995563554
 20
-15.59989014114469
 30
0.0
 10
14.91547249793517
 20
-15.60009514718283
 30
0.0
 10
14.91441529419565
 20
-15.60030146291554
 30
0.0
 10
14.91335835175295
 20
-15.60050910752284
 30
0.0
 10
14.91289903687854
 20
-15.60059934352138
 30
0.0
 10
14.91243977135023
 20
-15.60068983047871
 30
0.0
 10
14.91198055739629
 20
-15.60078057848619
 30
0.0
 10
14.91156811861808
 20
-15.60086208297232
 30
0.0
 10
14.91115572144266
 20
-15.60094379803639
 30
0.0
 10
14.91074336596706
 20
-15.6010257232307
 30
0.0
 10
14.91037828554153
 20
-15.60109825600057
 30
0.0
 10
14.91001323780238
 20
-15.60117095348124
 30
0.0
 10
14.90964822122128
 20
-15.60124380599611
 30
0.0
 10
14.90933098094082
 20
-15.60130712298898
 30
0.0
 10
14.9090137641957
 20
-15.6013705570878
 30
0.0
 10
14.9086965667964
 20
-15.60143409081148
 30
0.0
 10
14.90842759165995
 20
-15.60148796575509
 30
0.0
 10
14.90815863043424
 20
-15.60154191233492
 30
0.0
 10
14.9078896841525
 20
-15.60159592466364
 30
0.0
 10
14.90766919683841
 20
-15.60164020500547
 30
0.0
 10
14.90744871956819
 20
-15.6016845295374
 30
0.0
 10
14.90722825850876
 20
-15.60172895868358
 30
0.0
 10
14.907056444135
 20
-15.60176358414512
 30
0.0
 10
14.90688463960727
 20
-15.60179827314649
 30
0.0
 10
14.90671283801703
 20
-15.60183291394112
 30
0.0
 10
14.90664523887264
 20
-15.60184654412976
 30
0.0
 10
14.90657764018303
 20
-15.60186016685497
 30
0.0
 10
14.90651005103872
 20
-15.60187389985961
 30
0.0
 10
14.90645469342831
 20
-15.60188514761732
 30
0.0
 10
14.90639934222104
 20
-15.60189646935181
 30
0.0
 10
14.90634397084353
 20
-15.60190751154252
 30
0.0
 10
14.90630085826794
 20
-15.60191610907617
 30
0.0
 10
14.9062577334645
 20
-15.60192453714209
 30
0.0
 10
14.90621466611186
 20
-15.60193371405939
 30
0.0
 10
14.90618386887293
 20
-15.60194027642503
 30
0.0
 10
14.90615310101205
 20
-15.60194722172372
 30
0.0
 10
14.90612220523722
 20
-15.60195247252788
 30
0.0
 10
14.90610364308238
 20
-15.6019556272065
 30
0.0
 10
14.90608503475578
 20
-15.60195817024108
 30
0.0
 10
14.90606665672496
 20
-15.60196375213594
 30
0.0
 10
14.90606051401015
 20
-15.60196561784113
 30
0.0
 10
14.90605439702355
 20
-15.6019678230414
 30
0.0
 10
14.90604808927416
 20
-15.60196751807052
 30
0.0
  0
SPLINE
  5
155
330
70
100
AcDbEntity
  8
Layer 1
 62
     7
370
     5
100
AcDbSpline
210
0.0
220
0.0
230
1.0
 70
     8
 71
     3
 72
    71
 73
    67
 74
     0
 42
0.0000000001
 43
0.0000000001
 40
0.0
 40
0.0
 40
0.0
 40
0.0
 40
1.0
 40
1.0
 40
1.0
 40
2.0
 40
2.0
 40
2.0
 40
3.0
 40
3.0
 40
3.0
 40
4.0
 40
4.0
 40
4.0
 40
5.0
 40
5.0
 40
5.0
 40
6.0
 40
6.0
 40
6.0
 40
7.0
 40
7.0
 40
7.0
 40
8.0
 40
8.0
 40
8.0
 40
9.0
 40
9.0
 40
9.0
 40
10.0
 40
10.0
 40
10.0
 40
11.0
 40
11.0
 40
11.0
 40
12.0
 40
12.0
 40
12.0
 40
13.0
 40
13.0
 40
13.0
 40
14.0
 40
14.0
 40
14.0
 40
15.0
 40
15.0
 40
15.0
 40
16.0
 40
16.0
 40
16.0
 40
17.0
 40
17.0
 40
17.0
 40
18.0
 40
18.0
 40
18.0
 40
19.0
 40
19.0
 40
19.0
 40
20.0
 40
20.0
 40
20.0
 40
21.0
 40
21.0
 40
21.0
 40
22.0
 40
22.0
 40
22.0
 40
22.0
 10
11.7655007773054
 20
-14.3699859517389
 30
0.0
 10
11.80590497088345
 20
-14.3941736319719
 30
0.0
 10
11.84701722129941
 20
-14.41719801279717
 30
0.0
 10
11.88874149495349
 20
-14.43904831557211
 30
0.0
 10
11.93062499198749
 20
-14.46098200096235
 30
0.0
 10
11.9731251922377
 20
-14.48173263044123
 30
0.0
 10
12.01615378528969
 20
-14.50131070768649
 30
0.0
 10
12.03776464557354
 20
-14.51114368297019
 30
0.0
 10
12.05950879252562
 20
-14.520680882876
 30
0.0
 10
12.08137684134251
 20
-14.52992556473257
 30
0.0
 10
12.10332527760877
 20
-14.53920423025182
 30
0.0
 10
12.12539852834629
 20
-14.54818822316287
 30
0.0
 10
12.14758587624556
 20
-14.55688080944027
 30
0.0
 10
12.16986624891845
 20
-14.56560984107727
 30
0.0
 10
12.19226167750793
 20
-14.57404501740001
 30
0.0
 10
12.21476187138324
 20
-14.58218986368224
 30
0.0
 10
12.23736231292398
 20
-14.59037099862184
 30
0.0
 10
12.26006845537558
 20
-14.59825921067686
 30
0.0
 10
12.28287291033499
 20
-14.6058556649989
 30
0.0
 10
12.32875694806711
 20
-14.62114022222093
 30
0.0
 10
12.37503899456525
 20
-14.63524362622176
 30
0.0
 10
12.4216466437184
 20
-14.64816698927923
 30
0.0
 10
12.46858097258193
 20
-14.66118093404546
 30
0.0
 10
12.51584548448836
 20
-14.67299823774222
 30
0.0
 10
12.56337829658868
 20
-14.6836160000527
 30
0.0
 10
12.61118008965076
 20
-14.6942938466669
 30
0.0
 10
12.65925322803852
 20
-14.70375853743765
 30
0.0
 10
12.70753472390429
 20
-14.71200036649401
 30
0.0
 10
12.75602737765333
 20
-14.72027824097831
 30
0.0
 10
12.80473021535787
 20
-14.72732253404943
 30
0.0
 10
12.85358277981039
 20
-14.73311775773388
 30
0.0
 10
12.90259099054638
 20
-14.73893144523976
 30
0.0
 10
12.95174988362146
 20
-14.74348809150665
 30
0.0
 10
13.0009893197181
 20
-14.74676584306692
 30
0.0
 10
13.02565340562028
 20
-14.74840767230898
 30
0.0
 10
13.05033769991759
 20
-14.74972862447074
 30
0.0
 10
13.07503541288489
 20
-14.75072566757209
 30
0.0
 10
13.09975353974619
 20
-14.75172353477943
 30
0.0
 10
13.1244851074691
 20
-14.75239695725097
 30
0.0
 10
13.14922119776868
 20
-14.75274229153329
 30
0.0
 10
13.17397250689277
 20
-14.7530878382818
 30
0.0
 10
13.19872834416027
 20
-14.75310489300586
 30
0.0
 10
13.22348003091742
 20
-14.75279042361025
 30
0.0
 10
13.24824007475116
 20
-14.7524758480383
 30
0.0
 10
13.27299596527137
 20
-14.75182952443955
 30
0.0
 10
13.2977382255578
 20
-14.7508355623505
 30
0.0
 10
13.3224714270135
 20
-14.74984196417861
 30
0.0
 10
13.34719100821444
 20
-14.74850098203016
 30
0.0
 10
13.37188491508272
 20
-14.74679458902162
 30
0.0
 10
13.39655126913087
 20
-14.7450900999621
 30
0.0
 10
13.42119200610788
 20
-14.74302101501954
 30
0.0
 10
13.44579700872577
 20
-14.74056840139683
 30
0.0
 10
13.49486061598274
 20
-14.73567776702435
 30
0.0
 10
13.54378213500536
 20
-14.72926213222505
 30
0.0
 10
13.59242501807173
 20
-14.7211639358218
 30
0.0
 10
13.64082431123532
 20
-14.71310629291282
 30
0.0
 10
13.68894775211642
 20
-14.70338289779819
 30
0.0
 10
13.7366374712592
 20
-14.69182927104154
 30
0.0
 10
13.78407873520627
 20
-14.68033583668383
 30
0.0
 10
13.83109078487339
 20
-14.66703119138843
 30
0.0
 10
13.87744958627491
 20
-14.65177151239608
 30
0.0
 10
13.90056150287882
 20
-14.64416388627955
 30
0.0
 10
13.92351105695974
 20
-14.63607034352127
 30
0.0
 10
13.94627277268505
 20
-14.62747369328862
 30
0.0
 10
13.96900720286402
 20
-14.61888734826758
 30
0.0
 10
13.99155424475892
 20
-14.6097991012467
 30
0.0
 10
14.01387658112227
 20
-14.60019776519422
 30
0.0
  0
SPLINE
  5
156
330
70
100
AcDbEntity
  8
Layer 1
 62
     7
370
     5
100
AcDbSpline
210
0.0
220
0.0
230
1.0
 70
     8
 71
     3
 72
    71
 73
    67
 74
     0
 42
0.0000000001
 43
0.0000000001
 40
0.0
 40
0.0
 40
0.0
 40
0.0
 40
1.0
 40
1.0
 40
1.0
 40
2.0
 40
2.0
 40
2.0
 40
3.0
 40
3.0
 40
3.0
 40
4.0
 40
4.0
 40
4.0
 40
5.0
 40
5.0
 40
5.0
 40
6.0
 40
6.0
 40
6.0
 40
7.0
 40
7.0
 40
7.0
 40
8.0
 40
8.0
 40
8.0
 40
9.0
 40
9.0
 40
9.0
 40
10.0
 40
10.0
 40
10.0
 40
11.0
 40
11.0
 40
11.0
 40
12.0
 40
12.0
 40
12.0
 40
13.0
 40
13.0
 40
13.0
 40
14.0
 40
14.0
 40
14.0
 40
15.0
 40
15.0
 40
15.0
 40
16.0
 40
16.0
 40
16.0
 40
17.0
 40
17.0
 40
17.0
 40
18.0
 40
18.0
 40
18.0
 40
19.0
 40
19.0
 40
19.0
 40
20.0
 40
20.0
 40
20.0
 40
21.0
 40
21.0
 40
21.0
 40
22.0
 40
22.0
 40
22.0
 40
22.0
 10
11.7655007773054
 20
-16.02973867141352
 30
0.0
 10
11.80590497088345
 20
-16.00555099128082
 30
0.0
 10
11.84701722129941
 20
-15.9825266104055
 30
0.0
 10
11.88874149495349
 20
-15.96067630762544
 30
0.0
 10
11.93062499198749
 20
-15.93874262223009
 30
0.0
 10
11.9731251922377
 20
-15.91799199279138
 30
0.0
 10
12.01615378528969
 20
-15.89841391555948
 30
0.0
 10
12.03776464557354
 20
-15.88858094028251
 30
0.0
 10
12.05950879252562
 20
-15.87904374037672
 30
0.0
 10
12.08137684134251
 20
-15.86979905852018
 30
0.0
 10
12.10332527760877
 20
-15.8605203930009
 30
0.0
 10
12.12539852834629
 20
-15.85153640008987
 30
0.0
 10
12.14758587624556
 20
-15.84284381381245
 30
0.0
 10
12.16986624891845
 20
-15.83411478217545
 30
0.0
 10
12.19226167750793
 20
-15.82567960585273
 30
0.0
 10
12.21476187138324
 20
-15.81753475957048
 30
0.0
 10
12.23736231292398
 20
-15.80935362463096
 30
0.0
 10
12.26006845537558
 20
-15.80146541257583
 30
0.0
 10
12.28287291033499
 20
-15.7938689582538
 30
0.0
 10
12.32875694806711
 20
-15.77858440103179
 30
0.0
 10
12.37503899456525
 20
-15.76448099703101
 30
0.0
 10
12.4216466437184
 20
-15.75155763397351
 30
0.0
 10
12.46858097258193
 20
-15.73854368920726
 30
0.0
 10
12.51584548448836
 20
-15.72672638551057
 30
0.0
 10
12.56337829658868
 20
-15.71610862320001
 30
0.0
 10
12.61118008965076
 20
-15.70543077658582
 30
0.0
 10
12.65925322803852
 20
-15.69596608581504
 30
0.0
 10
12.70753472390429
 20
-15.68772425674208
 30
0.0
 10
12.75602737765333
 20
-15.67944638224117
 30
0.0
 10
12.80473021535787
 20
-15.67240208913651
 30
0.0
 10
12.85358277981039
 20
-15.6666068654553
 30
0.0
 10
12.90259099054638
 20
-15.6607931779527
 30
0.0
 10
12.95174988362146
 20
-15.65623653172595
 30
0.0
 10
13.0009893197181
 20
-15.6529587801791
 30
0.0
 10
13.02565340562028
 20
-15.65131695094381
 30
0.0
 10
13.05033769991759
 20
-15.64999599878201
 30
0.0
 10
13.07503541288489
 20
-15.64899895566393
 30
0.0
 10
13.09975353974619
 20
-15.64800108843987
 30
0.0
 10
13.1244851074691
 20
-15.64732766593485
 30
0.0
 10
13.14922119776868
 20
-15.64698233165253
 30
0.0
 10
13.17397250689277
 20
-15.64663678490403
 30
0.0
 10
13.19872834416027
 20
-15.64661973021344
 30
0.0
 10
13.22348003091742
 20
-15.646934199609
 30
0.0
 10
13.24824007475116
 20
-15.64724877518094
 30
0.0
 10
13.27299596527137
 20
-15.64789509874627
 30
0.0
 10
13.2977382255578
 20
-15.64888906081859
 30
0.0
 10
13.3224714270135
 20
-15.64988265897376
 30
0.0
 10
13.34719100821444
 20
-15.65122364112221
 30
0.0
 10
13.37188491508272
 20
-15.65293003413075
 30
0.0
 10
13.39655126913087
 20
-15.6546345231903
 30
0.0
 10
13.42119200610788
 20
-15.65670360813285
 30
0.0
 10
13.44579700872577
 20
-15.65915622175554
 30
0.0
 10
13.49486061598274
 20
-15.66404685612802
 30
0.0
 10
13.54378213500536
 20
-15.67046249092737
 30
0.0
 10
13.59242501807173
 20
-15.67856068734742
 30
0.0
 10
13.64082431123532
 20
-15.6866183302732
 30
0.0
 10
13.68894775211642
 20
-15.69634172542126
 30
0.0
 10
13.7366374712592
 20
-15.7078953521946
 30
0.0
 10
13.78407873520627
 20
-15.71938878656897
 30
0.0
 10
13.83109078487339
 20
-15.73269343186429
 30
0.0
 10
13.87744958627491
 20
-15.74795311085662
 30
0.0
 10
13.90056150287882
 20
-15.75556073697316
 30
0.0
 10
13.92351105695974
 20
-15.76365427973145
 30
0.0
 10
13.94627277268505
 20
-15.7722509299642
 30
0.0
 10
13.96900720286402
 20
-15.78083727498521
 30
0.0
 10
13.99155424475892
 20
-15.78992552200601
 30
0.0
 10
14.01387658112227
 20
-15.79952685795817
 30
0.0
  0
SPLINE
  5
157
330
70
100
AcDbEntity
  8
Layer 1
 62
     7
370
     5
100
AcDbSpline
210
0.0
220
0.0
230
1.0
 70
     8
 71
     3
 72
    71
 73
    67
 74
     0
 42
0.0000000001
 43
0.0000000001
 40
0.0
 40
0.0
 40
0.0
 40
0.0
 40
1.0
 40
1.0
 40
1.0
 40
2.0
 40
2.0
 40
2.0
 40
3.0
 40
3.0
 40
3.0
 40
4.0
 40
4.0
 40
4.0
 40
5.0
 40
5.0
 40
5.0
 40
6.0
 40
6.0
 40
6.0
 40
7.0
 40
7.0
 40
7.0
 40
8.0
 40
8.0
 40
8.0
 40
9.0
 40
9.0
 40
9.0
 40
10.0
 40
10.0
 40
10.0
 40
11.0
 40
11.0
 40
11.0
 40
12.0
 40
12.0
 40
12.0
 40
13.0
 40
13.0
 40
13.0
 40
14.0
 40
14.0
 40
14.0
 40
15.0
 40
15.0
 40
15.0
 40
16.0
 40
16.0
 40
16.0
 40
17.0
 40
17.0
 40
17.0
 40
18.0
 40
18.0
 40
18.0
 40
19.0
 40
19.0
 40
19.0
 40
20.0
 40
20.0
 40
20.0
 40
21.0
 40
21.0
 40
21.0
 40
22.0
 40
22.0
 40
22.0
 40
22.0
 10
6.177890870338513
 20
-6.249260219923345
 30
0.0
 10
6.202078550471179
 20
-6.28966441360175
 30
0.0
 10
6.225102931346529
 20
-6.330776664017699
 30
0.0
 10
6.246953234126571
 20
-6.372500937651819
 30
0.0
 10
6.268886919521959
 20
-6.414384434665735
 30
0.0
 10
6.289637548960627
 20
-6.456884634875803
 30
0.0
 10
6.309215626192528
 20
-6.499913227947685
 30
0.0
 10
6.319048601469514
 20
-6.521524088241461
 30
0.0
 10
6.328585801375311
 20
-6.543268235218723
 30
0.0
 10
6.337830483231843
 20
-6.565136284031533
 30
0.0
 10
6.347109148751112
 20
-6.587084720293735
 30
0.0
 10
6.356093141662135
 20
-6.609157970997822
 30
0.0
 10
6.36478572793952
 20
-6.631345318880271
 30
0.0
 10
6.3735147595765
 20
-6.653625691536426
 30
0.0
 10
6.381949935899278
 20
-6.676021120125849
 30
0.0
 10
6.390094782181525
 20
-6.698521314001204
 30
0.0
 10
6.398275917121091
 20
-6.721121755541919
 30
0.0
 10
6.406164129176166
 20
-6.743827897993519
 30
0.0
 10
6.413760583498249
 20
-6.766632352959529
 30
0.0
 10
6.429045140720226
 20
-6.812516390704963
 30
0.0
 10
6.443148544720997
 20
-6.858798437243181
 30
0.0
 10
6.456071907778524
 20
-6.905406086416418
 30
0.0
 10
6.469085852544745
 20
-6.952340415300214
 30
0.0
 10
6.480903156241474
 20
-6.999604927206657
 30
0.0
 10
6.491520918551966
 20
-7.047137739290355
 30
0.0
 10
6.502198765166199
 20
-7.094939532335779
 30
0.0
 10
6.511663455936942
 20
-7.14301267069004
 30
0.0
 10
6.519905285009914
 20
-7.191294166539048
 30
0.0
 10
6.528183159510843
 20
-7.239786820271243
 30
0.0
 10
6.535227452615508
 20
-7.288489657975774
 30
0.0
 10
6.541022676296708
 20
-7.337342222448341
 30
0.0
 10
6.546836363799343
 20
-7.386350433204407
 30
0.0
 10
6.551393010026091
 20
-7.435509326319611
 30
0.0
 10
6.554670761572879
 20
-7.484748762396255
 30
0.0
 10
6.556312590808235
 20
-7.509412848288396
 30
0.0
 10
6.557633542970064
 20
-7.534097142560628
 30
0.0
 10
6.558630586088106
 20
-7.558794855532091
 30
0.0
 10
6.559628453312155
 20
-7.583512982397551
 30
0.0
 10
6.560301875817091
 20
-7.608244550153876
 30
0.0
 10
6.560647210099482
 20
-7.632980640453498
 30
0.0
 10
6.56099275684797
 20
-7.65773194957761
 30
0.0
 10
6.561009811538585
 20
-7.682487786811684
 30
0.0
 10
6.56069534214301
 20
-7.707239473568809
 30
0.0
 10
6.560380766571054
 20
-7.731999517402577
 30
0.0
 10
6.559734443005746
 20
-7.75675540795622
 30
0.0
 10
6.558740480933415
 20
-7.781497668259349
 30
0.0
 10
6.557746882778271
 20
-7.806230869731784
 30
0.0
 10
6.556405900629758
 20
-7.830950450932719
 30
0.0
 10
6.554699507621257
 20
-7.855644357800997
 30
0.0
 10
6.552995018561709
 20
-7.880310711849144
 30
0.0
 10
6.550925933619168
 20
-7.904951448826194
 30
0.0
 10
6.548473319996459
 20
-7.929556451444049
 30
0.0
 10
6.543582685624009
 20
-7.978620058701039
 30
0.0
 10
6.537167050824639
 20
-8.027541577723656
 30
0.0
 10
6.5290688544046
 20
-8.07618446079002
 30
0.0
 10
6.521011211478783
 20
-8.12458375395359
 30
0.0
 10
6.511287816330764
 20
-8.172707194834703
 30
0.0
 10
6.499734189557443
 20
-8.220396913977486
 30
0.0
 10
6.488240755183078
 20
-8.267838177924557
 30
0.0
 10
6.474936109887734
 20
-8.314850227591705
 30
0.0
 10
6.459676430895379
 20
-8.361209028959667
 30
0.0
 10
6.452068804778845
 20
-8.384320945546834
 30
0.0
 10
6.443975262020532
 20
-8.407270499602695
 30
0.0
 10
6.435378611787869
 20
-8.430032215340613
 30
0.0
 10
6.426792266766836
 20
-8.452766645532189
 30
0.0
 10
6.417704019745984
 20
-8.475313687477207
 30
0.0
 10
6.408102683793849
 20
-8.49763602384054
 30
0.0
  0
SPLINE
  5
158
330
70
100
AcDbEntity
  8
Layer 1
 62
     7
370
     5
100
AcDbSpline
210
0.0
220
0.0
230
1.0
 70
     8
 71
     3
 72
    71
 73
    67
 74
     0
 42
0.0000000001
 43
0.0000000001
 40
0.0
 40
0.0
 40
0.0
 40
0.0
 40
1.0
 40
1.0
 40
1.0
 40
2.0
 40
2.0
 40
2.0
 40
3.0
 40
3.0
 40
3.0
 40
4.0
 40
4.0
 40
4.0
 40
5.0
 40
5.0
 40
5.0
 40
6.0
 40
6.0
 40
6.0
 40
7.0
 40
7.0
 40
7.0
 40
8.0
 40
8.0
 40
8.0
 40
9.0
 40
9.0
 40
9.0
 40
10.0
 40
10.0
 40
10.0
 40
11.0
 40
11.0
 40
11.0
 40
12.0
 40
12.0
 40
12.0
 40
13.0
 40
13.0
 40
13.0
 40
14.0
 40
14.0
 40
14.0
 40
15.0
 40
15.0
 40
15.0
 40
16.0
 40
16.0
 40
16.0
 40
17.0
 40
17.0
 40
17.0
 40
18.0
 40
18.0
 40
18.0
 40
19.0
 40
19.0
 40
19.0
 40
20.0
 40
20.0
 40
20.0
 40
21.0
 40
21.0
 40
21.0
 40
22.0
 40
22.0
 40
22.0
 40
22.0
 10
7.837643590013132
 20
-6.249260219923345
 30
0.0
 10
7.813455909780107
 20
-6.28966441360175
 30
0.0
 10
7.790431528954841
 20
-6.330776664017699
 30
0.0
 10
7.768581226179914
 20
-6.372500937651819
 30
0.0
 10
7.746647540789669
 20
-6.414384434665735
 30
0.0
 10
7.725896911310819
 20
-6.456884634875803
 30
0.0
 10
7.706318834065503
 20
-6.499913227947685
 30
0.0
 10
7.696485858781784
 20
-6.521524088241461
 30
0.0
 10
7.686948658876012
 20
-6.543268235218723
 30
0.0
 10
7.677703977019442
 20
-6.565136284031533
 30
0.0
 10
7.668425311500186
 20
-6.587084720293735
 30
0.0
 10
7.659441318589162
 20
-6.609157970997822
 30
0.0
 10
7.650748732311726
 20
-6.631345318880271
 30
0.0
 10
7.642019700674786
 20
-6.653625691536426
 30
0.0
 10
7.633584524352019
 20
-6.676021120125849
 30
0.0
 10
7.625439678069747
 20
-6.698521314001204
 30
0.0
 10
7.617258543130206
 20
-6.721121755541919
 30
0.0
 10
7.609370331075132
 20
-6.743827897993519
 30
0.0
 10
7.601773876753074
 20
-6.766632352959529
 30
0.0
 10
7.586489319531071
 20
-6.812516390704963
 30
0.0
 10
7.572385915530276
 20
-6.858798437243181
 30
0.0
 10
7.559462552472798
 20
-6.905406086416418
 30
0.0
 10
7.546448607706515
 20
-6.952340415300214
 30
0.0
 10
7.534631304009849
 20
-6.999604927206657
 30
0.0
 10
7.524013541699332
 20
-7.047137739290355
 30
0.0
 10
7.513335695085098
 20
-7.094939532335779
 30
0.0
 10
7.50387100431433
 20
-7.14301267069004
 30
0.0
 10
7.495629175257981
 20
-7.191294166539048
 30
0.0
 10
7.487351300773752
 20
-7.239786820271243
 30
0.0
 10
7.480307007702561
 20
-7.288489657975774
 30
0.0
 10
7.47451178401814
 20
-7.337342222448341
 30
0.0
 10
7.468698096512247
 20
-7.386350433204407
 30
0.0
 10
7.464141450245354
 20
-7.435509326319611
 30
0.0
 10
7.460863698685139
 20
-7.484748762396255
 30
0.0
 10
7.459221869443062
 20
-7.509412848288396
 30
0.0
 10
7.457900917281234
 20
-7.534097142560628
 30
0.0
 10
7.456903874179879
 20
-7.558794855532091
 30
0.0
 10
7.455906006972554
 20
-7.583512982397551
 30
0.0
 10
7.455232584501054
 20
-7.608244550153876
 30
0.0
 10
7.454887250218714
 20
-7.632980640453498
 30
0.0
 10
7.454541703470251
 20
-7.65773194957761
 30
0.0
 10
7.454524648746162
 20
-7.682487786811684
 30
0.0
 10
7.454839118141724
 20
-7.707239473568809
 30
0.0
 10
7.455153693713693
 20
-7.731999517402577
 30
0.0
 10
7.45580001731245
 20
-7.75675540795622
 30
0.0
 10
7.456793979401506
 20
-7.781497668259349
 30
0.0
 10
7.457787577573374
 20
-7.806230869731784
 30
0.0
 10
7.459128559721888
 20
-7.830950450932719
 30
0.0
 10
7.460834952730376
 20
-7.855644357800997
 30
0.0
 10
7.462539441789935
 20
-7.880310711849144
 30
0.0
 10
7.464608526732477
 20
-7.904951448826194
 30
0.0
 10
7.467061140355174
 20
-7.929556451444049
 30
0.0
 10
7.471951774727635
 20
-7.978620058701039
 30
0.0
 10
7.478367409526994
 20
-8.027541577723656
 30
0.0
 10
7.486465605930194
 20
-8.07618446079002
 30
0.0
 10
7.494523248839236
 20
-8.12458375395359
 30
0.0
 10
7.50424664395382
 20
-8.172707194834703
 30
0.0
 10
7.515800270710453
 20
-8.220396913977486
 30
0.0
 10
7.52729370506822
 20
-8.267838177924557
 30
0.0
 10
7.540598350363552
 20
-8.314850227591705
 30
0.0
 10
7.555858029355918
 20
-8.361209028959667
 30
0.0
 10
7.563465655472428
 20
-8.384320945546834
 30
0.0
 10
7.571559198230765
 20
-8.407270499602695
 30
0.0
 10
7.580155848463428
 20
-8.430032215340613
 30
0.0
 10
7.588742193484462
 20
-8.452766645532189
 30
0.0
 10
7.597830440505301
 20
-8.475313687477207
 30
0.0
 10
7.607431776557783
 20
-8.49763602384054
 30
0.0
  0
LINE
  5
159
330
70
100
AcDbEntity
  8
Layer 1
 62
     7
370
     5
100
AcDbLine
 10
6.611784300175409
 20
-18.3130882128106
 30
0.0
 11
7.403750160075863
 21
-18.3130882128106
 31
0.0
  0
LINE
  5
15A
330
70
100
AcDbEntity
  8
Layer 1
 62
     7
370
     5
100
AcDbLine
 10
6.773288041778502
 20
-15.77211343146463
 30
0.0
 11
6.811064913235086
 21
-15.61773504140766
 31
0.0
  0
LINE
  5
15B
330
70
100
AcDbEntity
  8
Layer 1
 62
     7
370
     5
100
AcDbLine
 10
7.242246418472795
 20
-15.77211343146463
 30
0.0
 11
7.204469528350677
 21
-15.61773495038811
 31
0.0
  0
LINE
  5
15C
330
70
100
AcDbEntity
  8
Layer 1
 62
     7
370
     5
100
AcDbLine
 10
15.52996131714225
 20
-18.3130882128106
 30
0.0
 11
14.73799545734214
 21
-18.3130882128106
 31
0.0
  0
LINE
  5
15D
330
70
100
AcDbEntity
  8
Layer 1
 62
     7
370
     5
100
AcDbLine
 10
14.52430194655122
 20
-15.44773269715003
 30
0.0
 11
14.52430194655122
 21
-14.95199192610271
 31
0.0
  0
LINE
  5
15E
330
70
100
AcDbEntity
  8
Layer 1
 62
     7
370
     5
100
AcDbLine
 10
6.759896844601989
 20
-9.008061389169142
 30
0.0
 11
7.255637615649308
 21
-9.008061389169142
 31
0.0
  0
LINE
  5
15F
330
70
100
AcDbEntity
  8
Layer 1
 62
     7
370
     5
100
AcDbLine
 10
6.686639605155733
 20
-9.926497492144688
 30
0.0
 11
6.686639605155733
 21
-9.894244359745192
 31
0.0
  0
LINE
  5
160
330
70
100
AcDbEntity
  8
Layer 1
 62
     7
370
     5
100
AcDbLine
 10
7.328894855095565
 20
-9.926497492144688
 30
0.0
 11
7.328894855095565
 21
-9.894244359745192
 31
0.0
  0
SPLINE
  5
161
330
70
100
AcDbEntity
  8
Layer 1
 62
     7
370
     5
100
AcDbSpline
210
0.0
220
0.0
230
1.0
 70
     8
 71
     3
 72
    11
 73
     7
 74
     0
 42
0.0000000001
 43
0.0000000001
 40
0.0
 40
0.0
 40
0.0
 40
0.0
 40
1.0
 40
1.0
 40
1.0
 40
2.0
 40
2.0
 40
2.0
 40
2.0
 10
6.609151239092877
 20
-18.20686622470791
 30
0.0
 10
6.580023609619981
 20
-18.21585378228865
 30
0.0
 10
6.563696855480189
 20
-18.24675224637291
 30
0.0
 10
6.572684413060932
 20
-18.2758798758458
 30
0.0
 10
6.578350839754963
 20
-18.29424410613829
 30
0.0
 10
6.593161874682651
 20
-18.30833862198144
 30
0.0
 10
6.611784300206269
 20
-18.31308821284084
 30
0.0
  0
SPLINE
  5
162
330
70
100
AcDbEntity
  8
Layer 1
 62
     7
370
     5
100
AcDbSpline
210
0.0
220
0.0
230
1.0
 70
     8
 71
     3
 72
    11
 73
     7
 74
     0
 42
0.0000000001
 43
0.0000000001
 40
0.0
 40
0.0
 40
0.0
 40
0.0
 40
1.0
 40
1.0
 40
1.0
 40
2.0
 40
2.0
 40
2.0
 40
2.0
 10
6.749392205457259
 20
-15.79617604839963
 30
0.0
 10
6.720139792007014
 20
-15.80474875493329
 30
0.0
 10
6.703375577245676
 20
-15.83541207319705
 30
0.0
 10
6.71194828377938
 20
-15.86466448664732
 30
0.0
 10
6.716727112029539
 20
-15.88097115236984
 30
0.0
 10
6.728750753632892
 20
-15.89416763607492
 30
0.0
 10
6.744543528457761
 20
-15.90043922357414
 30
0.0
  0
SPLINE
  5
163
330
70
100
AcDbEntity
  8
Layer 1
 62
     7
370
     5
100
AcDbSpline
210
0.0
220
0.0
230
1.0
 70
     8
 71
     3
 72
     8
 73
     4
 74
     0
 42
0.0000000001
 43
0.0000000001
 40
0.0
 40
0.0
 40
0.0
 40
0.0
 40
1.0
 40
1.0
 40
1.0
 40
1.0
 10
6.611784300206156
 20
-18.31308821284081
 30
0.0
 10
6.845914344001029
 20
-18.49065312279524
 30
0.0
 10
7.169620116250269
 20
-18.49065312279524
 30
0.0
 10
7.403750160045142
 20
-18.31308821284081
 30
0.0
  0
SPLINE
  5
164
330
70
100
AcDbEntity
  8
Layer 1
 62
     7
370
     5
100
AcDbSpline
210
0.0
220
0.0
230
1.0
 70
     8
 71
     3
 72
    11
 73
     7
 74
     0
 42
0.0000000001
 43
0.0000000001
 40
0.0
 40
0.0
 40
0.0
 40
0.0
 40
1.0
 40
1.0
 40
1.0
 40
2.0
 40
2.0
 40
2.0
 40
2.0
 10
7.403750160045015
 20
-18.31308821284084
 30
0.0
 10
7.433287314714662
 20
-18.30555485475848
 30
0.0
 10
7.451124916235888
 20
-18.27550326652289
 30
0.0
 10
7.443591558153457
 20
-18.24596611185325
 30
0.0
 10
7.438841967294061
 20
-18.22734368632963
 30
0.0
 10
7.424747451450937
 20
-18.21253265140197
 30
0.0
 10
7.406383221158421
 20
-18.20686622470791
 30
0.0
  0
SPLINE
  5
165
330
70
100
AcDbEntity
  8
Layer 1
 62
     7
370
     5
100
AcDbSpline
210
0.0
220
0.0
230
1.0
 70
     8
 71
     3
 72
    17
 73
    13
 74
     0
 42
0.0000000001
 43
0.0000000001
 40
0.0
 40
0.0
 40
0.0
 40
0.0
 40
1.0
 40
1.0
 40
1.0
 40
2.0
 40
2.0
 40
2.0
 40
3.0
 40
3.0
 40
3.0
 40
4.0
 40
4.0
 40
4.0
 40
4.0
 10
7.222339972033384
 20
-15.57842044355248
 30
0.0
 10
7.431411855220617
 20
-15.45991519046747
 30
0.0
 10
7.504830615136799
 20
-15.1943614529059
 30
0.0
 10
7.386325362051782
 20
-14.98528956971864
 30
0.0
 10
7.267820108966715
 20
-14.77621768653138
 30
0.0
 10
7.002266371405122
 20
-14.70279892661521
 30
0.0
 10
6.793194488217901
 20
-14.82130417970029
 30
0.0
 10
6.58412260503068
 20
-14.93980943278529
 30
0.0
 10
6.510703845114524
 20
-15.2053631703469
 30
0.0
 10
6.629209098199528
 20
-15.41443505353413
 30
0.0
 10
6.668030154846089
 20
-15.48292477199905
 30
0.0
 10
6.724704901425361
 20
-15.53959949661281
 30
0.0
 10
6.793194634936171
 20
-15.5784205267147
 30
0.0
  0
SPLINE
  5
166
330
70
100
AcDbEntity
  8
Layer 1
 62
     7
370
     5
100
AcDbSpline
210
0.0
220
0.0
230
1.0
 70
     8
 71
     3
 72
    11
 73
     7
 74
     0
 42
0.0000000001
 43
0.0000000001
 40
0.0
 40
0.0
 40
0.0
 40
0.0
 40
1.0
 40
1.0
 40
1.0
 40
2.0
 40
2.0
 40
2.0
 40
2.0
 10
7.270990931793536
 20
-15.90043922357414
 30
0.0
 10
7.299321479961134
 20
-15.88918866667675
 30
0.0
 10
7.313167548618239
 20
-15.85710184124562
 30
0.0
 10
7.301916991720885
 20
-15.82877129307798
 30
0.0
 10
7.295645404221645
 20
-15.81297851825318
 30
0.0
 10
7.282448920516533
 20
-15.80095487664981
 30
0.0
 10
7.266142254794039
 20
-15.79617604839963
 30
0.0
  0
SPLINE
  5
167
330
70
100
AcDbEntity
  8
Layer 1
 62
     7
370
     5
100
AcDbSpline
210
0.0
220
0.0
230
1.0
 70
     8
 71
     3
 72
     8
 73
     4
 74
     0
 42
0.0000000001
 43
0.0000000001
 40
0.0
 40
0.0
 40
0.0
 40
0.0
 40
1.0
 40
1.0
 40
1.0
 40
1.0
 10
14.73799545737291
 20
-18.31308821284081
 30
0.0
 10
14.97212550116779
 20
-18.49065312279524
 30
0.0
 10
15.295831273417
 20
-18.49065312279524
 30
0.0
 10
15.52996131721188
 20
-18.31308821284081
 30
0.0
  0
SPLINE
  5
168
330
70
100
AcDbEntity
  8
Layer 1
 62
     7
370
     5
100
AcDbSpline
210
0.0
220
0.0
230
1.0
 70
     8
 71
     3
 72
     8
 73
     4
 74
     0
 42
0.0000000001
 43
0.0000000001
 40
0.0
 40
0.0
 40
0.0
 40
0.0
 40
1.0
 40
1.0
 40
1.0
 40
1.0
 10
7.407590416122767
 20
-9.853238010862797
 30
0.0
 10
7.454680882189714
 20
-9.699768957569428
 30
0.0
 10
7.454680882189714
 20
-9.535706702251243
 30
0.0
 10
7.407590416122767
 20
-9.382237648957824
 30
0.0
  0
SPLINE
  5
169
330
70
100
AcDbEntity
  8
Layer 1
 62
     7
370
     5
100
AcDbSpline
210
0.0
220
0.0
230
1.0
 70
     8
 71
     3
 72
     8
 73
     4
 74
     0
 42
0.0000000001
 43
0.0000000001
 40
0.0
 40
0.0
 40
0.0
 40
0.0
 40
1.0
 40
1.0
 40
1.0
 40
1.0
 10
6.70250395352784
 20
-9.332069208384886
 30
0.0
 10
6.736257653753909
 20
-9.276243169113259
 30
0.0
 10
6.755853350708384
 20
-9.213012459878452
 30
0.0
 10
6.759584925206442
 20
-9.147882326365055
 30
0.0
  0
SPLINE
  5
16A
330
70
100
AcDbEntity
  8
Layer 1
 62
     7
370
     5
100
AcDbSpline
210
0.0
220
0.0
230
1.0
 70
     8
 71
     3
 72
    11
 73
     7
 74
     0
 42
0.0000000001
 43
0.0000000001
 40
0.0
 40
0.0
 40
0.0
 40
0.0
 40
1.0
 40
1.0
 40
1.0
 40
2.0
 40
2.0
 40
2.0
 40
2.0
 10
6.759896844601989
 20
-9.008061389169142
 30
0.0
 10
6.732185299286318
 20
-9.008061389169142
 30
0.0
 10
6.709720653200456
 20
-9.030526035255054
 30
0.0
 10
6.709720653200456
 20
-9.0582375805707
 30
0.0
 10
6.709720653200456
 20
-9.076116385881782
 30
0.0
 10
6.7192340721294
 20
-9.092644568200537
 30
0.0
 10
6.734693865431065
 20
-9.101624906190913
 30
0.0
  0
SPLINE
  5
16B
330
70
100
AcDbEntity
  8
Layer 1
 62
     7
370
     5
100
AcDbSpline
210
0.0
220
0.0
230
1.0
 70
     8
 71
     3
 72
     8
 73
     4
 74
     0
 42
0.0000000001
 43
0.0000000001
 40
0.0
 40
0.0
 40
0.0
 40
0.0
 40
1.0
 40
1.0
 40
1.0
 40
1.0
 10
6.607944044128493
 20
-9.382237648957824
 30
0.0
 10
6.560853578061596
 20
-9.535706702251243
 30
0.0
 10
6.560853578061596
 20
-9.699768957569428
 30
0.0
 10
6.607944044128493
 20
-9.853238010862797
 30
0.0
  0
SPLINE
  5
16C
330
70
100
AcDbEntity
  8
Layer 1
 62
     7
370
     5
100
AcDbSpline
210
0.0
220
0.0
230
1.0
 70
     8
 71
     3
 72
     8
 73
     4
 74
     0
 42
0.0000000001
 43
0.0000000001
 40
0.0
 40
0.0
 40
0.0
 40
0.0
 40
1.0
 40
1.0
 40
1.0
 40
1.0
 10
6.707813514965247
 20
-9.959768751345158
 30
0.0
 10
6.897910213243486
 20
-10.04863234125031
 30
0.0
 10
7.117624247007799
 20
-10.04863234125031
 30
0.0
 10
7.30772094528605
 20
-9.959768751345158
 30
0.0
  0
SPLINE
  5
16D
330
70
100
AcDbEntity
  8
Layer 1
 62
     7
370
     5
100
AcDbSpline
210
0.0
220
0.0
230
1.0
 70
     8
 71
     3
 72
     8
 73
     4
 74
     0
 42
0.0000000001
 43
0.0000000001
 40
0.0
 40
0.0
 40
0.0
 40
0.0
 40
1.0
 40
1.0
 40
1.0
 40
1.0
 10
7.357604375453799
 20
-9.354960236750937
 30
0.0
 10
7.338213348928067
 20
-9.329144864583213
 30
0.0
 10
7.316024451194884
 20
-9.30555515465989
 30
0.0
 10
7.291442987356263
 20
-9.284621999488484
 30
0.0
  0
SPLINE
  5
16E
330
70
100
AcDbEntity
  8
Layer 1
 62
     7
370
     5
100
AcDbSpline
210
0.0
220
0.0
230
1.0
 70
     8
 71
     3
 72
     8
 73
     4
 74
     0
 42
0.0000000001
 43
0.0000000001
 40
0.0
 40
0.0
 40
0.0
 40
0.0
 40
1.0
 40
1.0
 40
1.0
 40
1.0
 10
7.436578253140636
 20
-9.704681479815361
 30
0.0
 10
7.44821207448265
 20
-9.647302811716093
 30
0.0
 10
7.44821207448265
 20
-9.588172848104578
 30
0.0
 10
7.436578253140636
 20
-9.530794180005285
 30
0.0
  0
SPLINE
  5
16F
330
70
100
AcDbEntity
  8
Layer 1
 62
     7
370
     5
100
AcDbSpline
210
0.0
220
0.0
230
1.0
 70
     8
 71
     3
 72
     8
 73
     4
 74
     0
 42
0.0000000001
 43
0.0000000001
 40
0.0
 40
0.0
 40
0.0
 40
0.0
 40
1.0
 40
1.0
 40
1.0
 40
1.0
 10
7.329980206599012
 20
-9.913739332457426
 30
0.0
 10
7.339806604326516
 20
-9.903042789255652
 30
0.0
 10
7.349094265420969
 20
-9.891863568985046
 30
0.0
 10
7.357808687993193
 20
-9.88024320031622
 30
0.0
  0
SPLINE
  5
170
330
70
100
AcDbEntity
  8
Layer 1
 62
     7
370
     5
100
AcDbSpline
210
0.0
220
0.0
230
1.0
 70
     8
 71
     3
 72
     8
 73
     4
 74
     0
 42
0.0000000001
 43
0.0000000001
 40
0.0
 40
0.0
 40
0.0
 40
0.0
 40
1.0
 40
1.0
 40
1.0
 40
1.0
 10
6.772864021125327
 20
-9.986870020486144
 30
0.0
 10
6.91618655085598
 20
-10.0780756184137
 30
0.0
 10
7.099347909395342
 20
-10.0780756184137
 30
0.0
 10
7.242670439125983
 20
-9.986870020486144
 30
0.0
  0
SPLINE
  5
171
330
70
100
AcDbEntity
  8
Layer 1
 62
     7
370
     5
100
AcDbSpline
210
0.0
220
0.0
230
1.0
 70
     8
 71
     3
 72
     8
 73
     4
 74
     0
 42
0.0000000001
 43
0.0000000001
 40
0.0
 40
0.0
 40
0.0
 40
0.0
 40
1.0
 40
1.0
 40
1.0
 40
1.0
 10
6.657725772258104
 20
-9.88024320031622
 30
0.0
 10
6.666440194830329
 20
-9.891863568985046
 30
0.0
 10
6.675727855924769
 20
-9.903042789255652
 30
0.0
 10
6.68555425365226
 20
-9.913739332457426
 30
0.0
  0
SPLINE
  5
172
330
70
100
AcDbEntity
  8
Layer 1
 62
     7
370
     5
100
AcDbSpline
210
0.0
220
0.0
230
1.0
 70
     8
 71
     3
 72
     8
 73
     4
 74
     0
 42
0.0000000001
 43
0.0000000001
 40
0.0
 40
0.0
 40
0.0
 40
0.0
 40
1.0
 40
1.0
 40
1.0
 40
1.0
 10
6.578956207110636
 20
-9.530794180005285
 30
0.0
 10
6.567322385768648
 20
-9.588172848104578
 30
0.0
 10
6.567322385768648
 20
-9.647302811716093
 30
0.0
 10
6.578956207110636
 20
-9.704681479815361
 30
0.0
  0
SPLINE
  5
173
330
70
100
AcDbEntity
  8
Layer 1
 62
     7
370
     5
100
AcDbSpline
210
0.0
220
0.0
230
1.0
 70
     8
 71
     3
 72
     8
 73
     4
 74
     0
 42
0.0000000001
 43
0.0000000001
 40
0.0
 40
0.0
 40
0.0
 40
0.0
 40
1.0
 40
1.0
 40
1.0
 40
1.0
 10
6.724091472895034
 20
-9.284621999488484
 30
0.0
 10
6.699507466715695
 20
-9.305557319673853
 30
0.0
 10
6.677316529420623
 20
-9.329149737445225
 30
0.0
 10
6.65792408670557
 20
-9.354968222231009
 30
0.0
  0
SPLINE
  5
174
330
70
100
AcDbEntity
  8
Layer 1
 62
     7
370
     5
100
AcDbSpline
210
0.0
220
0.0
230
1.0
 70
     8
 71
     3
 72
     8
 73
     4
 74
     0
 42
0.0000000001
 43
0.0000000001
 40
0.0
 40
0.0
 40
0.0
 40
0.0
 40
1.0
 40
1.0
 40
1.0
 40
1.0
 10
7.255949535044869
 20
-9.147882326365055
 30
0.0
 10
7.259681109542914
 20
-9.213012459878452
 30
0.0
 10
7.279276806497389
 20
-9.276243169113259
 30
0.0
 10
7.313030506723457
 20
-9.332069208384886
 30
0.0
  0
SPLINE
  5
175
330
70
100
AcDbEntity
  8
Layer 1
 62
     7
370
     5
100
AcDbSpline
210
0.0
220
0.0
230
1.0
 70
     8
 71
     3
 72
    11
 73
     7
 74
     0
 42
0.0000000001
 43
0.0000000001
 40
0.0
 40
0.0
 40
0.0
 40
0.0
 40
1.0
 40
1.0
 40
1.0
 40
2.0
 40
2.0
 40
2.0
 40
2.0
 10
7.28084059482022
 20
-9.101624906190913
 30
0.0
 10
7.304802753096232
 20
-9.087705685144504
 30
0.0
 10
7.312944162315917
 20
-9.056996759675762
 30
0.0
 10
7.299024941269522
 20
-9.033034601399776
 30
0.0
 10
7.290044603279144
 20
-9.01757480809811
 30
0.0
 10
7.27351642096039
 20
-9.008061389169142
 30
0.0
 10
7.255637615649308
 20
-9.008061389169142
 30
0.0
  0
SPLINE
  5
176
330
70
100
AcDbEntity
  8
Layer 1
 62
     7
370
     5
100
AcDbSpline
210
0.0
220
0.0
230
1.0
 70
     8
 71
     3
 72
    80
 73
    76
 74
     0
 42
0.0000000001
 43
0.0000000001
 40
0.0
 40
0.0
 40
0.0
 40
0.0
 40
1.0
 40
1.0
 40
1.0
 40
2.0
 40
2.0
 40
2.0
 40
3.0
 40
3.0
 40
3.0
 40
4.0
 40
4.0
 40
4.0
 40
5.0
 40
5.0
 40
5.0
 40
6.0
 40
6.0
 40
6.0
 40
7.0
 40
7.0
 40
7.0
 40
8.0
 40
8.0
 40
8.0
 40
9.0
 40
9.0
 40
9.0
 40
10.0
 40
10.0
 40
10.0
 40
11.0
 40
11.0
 40
11.0
 40
12.0
 40
12.0
 40
12.0
 40
13.0
 40
13.0
 40
13.0
 40
14.0
 40
14.0
 40
14.0
 40
15.0
 40
15.0
 40
15.0
 40
16.0
 40
16.0
 40
16.0
 40
17.0
 40
17.0
 40
17.0
 40
18.0
 40
18.0
 40
18.0
 40
19.0
 40
19.0
 40
19.0
 40
20.0
 40
20.0
 40
20.0
 40
21.0
 40
21.0
 40
21.0
 40
22.0
 40
22.0
 40
22.0
 40
23.0
 40
23.0
 40
23.0
 40
24.0
 40
24.0
 40
24.0
 40
25.0
 40
25.0
 40
25.0
 40
25.0
 10
7.248898802314442
 20
-15.93090013481211
 30
0.0
 10
7.247774745941897
 20
-15.94895371423068
 30
0.0
 10
7.246740055909222
 20
-15.967012936077
 30
0.0
 10
7.24578075870099
 20
-15.98507609706454
 30
0.0
 10
7.244766313064271
 20
-16.00417767965233
 30
0.0
 10
7.243836177839082
 20
-16.02328366730952
 30
0.0
 10
7.242978873289555
 20
-16.04239291156255
 30
0.0
 10
7.242077862508216
 20
-16.06247636394151
 30
0.0
 10
7.241257297653368
 20
-16.08256341342945
 30
0.0
 10
7.240507794353257
 20
-16.10265308186113
 30
0.0
 10
7.239724351209815
 20
-16.12365247303794
 30
0.0
 10
7.239018551114137
 20
-16.14465472571661
 30
0.0
 10
7.238382170042768
 20
-16.16565911223695
 30
0.0
 10
7.237034574557696
 20
-16.2101378337392
 30
0.0
 10
7.235998267584338
 20
-16.25462612380571
 30
0.0
 10
7.235225878366488
 20
-16.29911876904748
 30
0.0
 10
7.234403816949085
 20
-16.34647272759947
 30
0.0
 10
7.233880709783735
 20
-16.39383161949952
 30
0.0
 10
7.233627184242802
 20
-16.44119191331788
 30
0.0
 10
7.233361124393113
 20
-16.49089370118733
 30
0.0
 10
7.233391961354388
 20
-16.54059703302346
 30
0.0
 10
7.233703273586039
 20
-16.59029857697098
 30
0.0
 10
7.234025995536385
 20
-16.64182170252835
 30
0.0
 10
7.234650128569405
 20
-16.69334290674189
 30
0.0
 10
7.235571332244362
 20
-16.74485879146265
 30
0.0
 10
7.236515822439375
 20
-16.79767691337027
 30
0.0
 10
7.237772592021656
 20
-16.85048944344976
 30
0.0
 10
7.239348546106283
 20
-16.90329258913311
 30
0.0
 10
7.240947902387788
 20
-16.95687983736348
 30
0.0
 10
7.242875993042237
 20
-17.01045742042033
 30
0.0
 10
7.245152101149629
 20
-17.06402000109996
 30
0.0
 10
7.24629579705202
 20
-17.09093405840874
 30
0.0
 10
7.247527362095852
 20
-17.11784432784434
 30
0.0
 10
7.248850377177695
 20
-17.14475007235288
 30
0.0
 10
7.250173486274901
 20
-17.17165772882236
 30
0.0
 10
7.251588058407731
 20
-17.19856085972166
 30
0.0
 10
7.253099366075401
 20
-17.22545878301856
 30
0.0
 10
7.256102611149647
 20
-17.27890988194261
 30
0.0
 10
7.259487854860177
 20
-17.33234041658268
 30
0.0
 10
7.263330927714719
 20
-17.38573763569168
 30
0.0
 10
7.265225507986062
 20
-17.41206170543912
 30
0.0
 10
7.267231356754197
 20
-17.43837767834715
 30
0.0
 10
7.269361199064897
 20
-17.46468368688983
 30
0.0
 10
7.271459903932016
 20
-17.49060511209866
 30
0.0
 10
7.273679003371044
 20
-17.51651686216249
 30
0.0
 10
7.276033066745892
 20
-17.54241639079896
 30
0.0
 10
7.278343075876186
 20
-17.56783123232799
 30
0.0
 10
7.280783044744288
 20
-17.59323430557613
 30
0.0
 10
7.283370482714985
 20
-17.61862242443157
 30
0.0
 10
7.285898422408017
 20
-17.6434267421053
 30
0.0
 10
7.288567127061102
 20
-17.66821678523297
 30
0.0
 10
7.291397398895039
 20
-17.69298846497433
 30
0.0
 10
7.294149789315319
 20
-17.71707849519566
 30
0.0
 10
7.297054977473053
 20
-17.74115115874719
 30
0.0
 10
7.300137767140944
 20
-17.76520118918903
 30
0.0
 10
7.303120849057942
 20
-17.78847336103447
 30
0.0
 10
7.306270229816377
 20
-17.81172434015512
 30
0.0
 10
7.309615539441526
 20
-17.83494727421387
 30
0.0
 10
7.31283524758775
 20
-17.85729829051625
 30
0.0
 10
7.316236448282526
 20
-17.87962332815684
 30
0.0
 10
7.319854667732593
 20
-17.90191339718292
 30
0.0
 10
7.323316550091097
 20
-17.92324035034208
 30
0.0
 10
7.326977102348955
 20
-17.94453529147035
 30
0.0
 10
7.330879104033126
 20
-17.96578623519159
 30
0.0
 10
7.334588228256329
 20
-17.98598673649917
 30
0.0
 10
7.338515521976419
 20
-18.00614748251602
 30
0.0
 10
7.342712800127085
 20
-18.02625246494805
 30
0.0
 10
7.346673660913753
 20
-18.045225007075
 30
0.0
 10
7.350874948223463
 20
-18.06414789061702
 30
0.0
 10
7.355379708144659
 20
-18.08299876401947
 30
0.0
 10
7.359596050667201
 20
-18.10064270964689
 30
0.0
 10
7.364078250110183
 20
-18.11822357085351
 30
0.0
 10
7.368903779850344
 20
-18.13571180876018
 30
0.0
 10
7.373378685061488
 20
-18.15192934572633
 30
0.0
 10
7.378148840211919
 20
-18.16806723046289
 30
0.0
 10
7.383308967262096
 20
-18.18407827681994
 30
0.0
  0
SPLINE
  5
177
330
70
100
AcDbEntity
  8
Layer 1
 62
     7
370
     5
100
AcDbSpline
210
0.0
220
0.0
230
1.0
 70
     8
 71
     3
 72
    80
 73
    76
 74
     0
 42
0.0000000001
 43
0.0000000001
 40
0.0
 40
0.0
 40
0.0
 40
0.0
 40
1.0
 40
1.0
 40
1.0
 40
2.0
 40
2.0
 40
2.0
 40
3.0
 40
3.0
 40
3.0
 40
4.0
 40
4.0
 40
4.0
 40
5.0
 40
5.0
 40
5.0
 40
6.0
 40
6.0
 40
6.0
 40
7.0
 40
7.0
 40
7.0
 40
8.0
 40
8.0
 40
8.0
 40
9.0
 40
9.0
 40
9.0
 40
10.0
 40
10.0
 40
10.0
 40
11.0
 40
11.0
 40
11.0
 40
12.0
 40
12.0
 40
12.0
 40
13.0
 40
13.0
 40
13.0
 40
14.0
 40
14.0
 40
14.0
 40
15.0
 40
15.0
 40
15.0
 40
16.0
 40
16.0
 40
16.0
 40
17.0
 40
17.0
 40
17.0
 40
18.0
 40
18.0
 40
18.0
 40
19.0
 40
19.0
 40
19.0
 40
20.0
 40
20.0
 40
20.0
 40
21.0
 40
21.0
 40
21.0
 40
22.0
 40
22.0
 40
22.0
 40
23.0
 40
23.0
 40
23.0
 40
24.0
 40
24.0
 40
24.0
 40
25.0
 40
25.0
 40
25.0
 40
25.0
 10
6.766635657936856
 20
-15.93090013481211
 30
0.0
 10
6.767759714309388
 20
-15.94895371423068
 30
0.0
 10
6.768794404342075
 20
-15.967012936077
 30
0.0
 10
6.769753701550294
 20
-15.98507609706454
 30
0.0
 10
6.770768147187027
 20
-16.00417767965233
 30
0.0
 10
6.771698282412216
 20
-16.02328366730952
 30
0.0
 10
6.772555586961743
 20
-16.04239291156255
 30
0.0
 10
6.773456597743043
 20
-16.06247636394151
 30
0.0
 10
6.77427716259793
 20
-16.08256341342945
 30
0.0
 10
6.77502666589804
 20
-16.10265308186113
 30
0.0
 10
6.77581010904147
 20
-16.12365247303794
 30
0.0
 10
6.776515909137174
 20
-16.14465472571661
 30
0.0
 10
6.777152290208505
 20
-16.16565911223695
 30
0.0
 10
6.778499885693614
 20
-16.2101378337392
 30
0.0
 10
6.779536192666922
 20
-16.25462612380571
 30
0.0
 10
6.780308581884835
 20
-16.29911876904748
 30
0.0
 10
6.781130643302212
 20
-16.34647272759947
 30
0.0
 10
6.781653750467575
 20
-16.39383161949952
 30
0.0
 10
6.781907276008496
 20
-16.44119191331788
 30
0.0
 10
6.782173335858171
 20
-16.49089370118733
 30
0.0
 10
6.782142498896897
 20
-16.54059703302346
 30
0.0
 10
6.781831186681162
 20
-16.59029857697098
 30
0.0
 10
6.781508464747313
 20
-16.64182170252835
 30
0.0
 10
6.780884331747844
 20
-16.69334290674189
 30
0.0
 10
6.779963128073707
 20
-16.74485879146265
 30
0.0
 10
6.779018637879529
 20
-16.79767691337027
 30
0.0
 10
6.777761868263685
 20
-16.85048944344976
 30
0.0
 10
6.776185914162169
 20
-16.90329258913311
 30
0.0
 10
6.774586557863496
 20
-16.95687983736348
 30
0.0
 10
6.772658467209061
 20
-17.01045742042033
 30
0.0
 10
6.770382359101631
 20
-17.06402000109996
 30
0.0
 10
6.769238663199264
 20
-17.09093405840874
 30
0.0
 10
6.768007098155445
 20
-17.11784432784434
 30
0.0
 10
6.766684083086147
 20
-17.14475007235288
 30
0.0
 10
6.765360974001559
 20
-17.17165772882236
 30
0.0
 10
6.763946401893892
 20
-17.19856085972166
 30
0.0
 10
6.76243509424296
 20
-17.22545878301856
 30
0.0
 10
6.759431849201986
 20
-17.27890988194261
 30
0.0
 10
6.756046605491468
 20
-17.33234041658268
 30
0.0
 10
6.752203532602973
 20
-17.38573763569168
 30
0.0
 10
6.750308952314867
 20
-17.41206170543912
 30
0.0
 10
6.748303103521733
 20
-17.43837767834715
 30
0.0
 10
6.746173261198627
 20
-17.46468368688983
 30
0.0
 10
6.744074556319282
 20
-17.49060511209866
 30
0.0
 10
6.741855456880266
 20
-17.51651686216249
 30
0.0
 10
6.739501393505406
 20
-17.54241639079896
 30
0.0
 10
6.737191384375099
 20
-17.56783123232799
 30
0.0
 10
6.734751415506984
 20
-17.59323430557613
 30
0.0
 10
6.732163977553631
 20
-17.61862242443157
 30
0.0
 10
6.729636037877575
 20
-17.6434267421053
 30
0.0
 10
6.726967333257978
 20
-17.66821678523297
 30
0.0
 10
6.724137061440538
 20
-17.69298846497433
 30
0.0
 10
6.721384671036325
 20
-17.71707849519566
 30
0.0
 10
6.718479482878592
 20
-17.74115115874719
 30
0.0
 10
6.715396693210701
 20
-17.76520118918903
 30
0.0
 10
6.71241361129369
 20
-17.78847336103447
 30
0.0
 10
6.709264230535268
 20
-17.81172434015512
 30
0.0
 10
6.705918920892372
 20
-17.83494727421387
 30
0.0
 10
6.702699212729081
 20
-17.85729829051625
 30
0.0
 10
6.699298012000831
 20
-17.87962332815684
 30
0.0
 10
6.695679792552255
 20
-17.90191339718292
 30
0.0
 10
6.692217910195203
 20
-17.92324035034208
 30
0.0
 10
6.688557357970845
 20
-17.94453529147035
 30
0.0
 10
6.684655356284944
 20
-17.96578623519159
 30
0.0
 10
6.680946232060072
 20
-17.98598673649917
 30
0.0
 10
6.677018938306483
 20
-18.00614748251602
 30
0.0
 10
6.672821660139574
 20
-18.02625246494805
 30
0.0
 10
6.668860799337506
 20
-18.045225007075
 30
0.0
 10
6.66465951202786
 20
-18.06414789061702
 30
0.0
 10
6.660154752125132
 20
-18.08299876401947
 30
0.0
 10
6.655938409619907
 20
-18.10064270964689
 30
0.0
 10
6.651456210210388
 20
-18.11822357085351
 30
0.0
 10
6.646630680459363
 20
-18.13571180876018
 30
0.0
 10
6.642155775238115
 20
-18.15192934572633
 30
0.0
 10
6.637385620039392
 20
-18.16806723046289
 30
0.0
 10
6.632225492989201
 20
-18.18407827681994
 30
0.0
  0
ENDSEC
  0
SECTION
  2
OBJECTS
  0
DICTIONARY
  5
C
330
0
100
AcDbDictionary
281
     1
  3
ACAD_COLOR
350
63
  3
ACAD_DETAILVIEWSTYLE
350
6A
  3
ACAD_GROUP
350
D
  3
ACAD_LAYOUT
350
62
  3
ACAD_MATERIAL
350
10
  3
ACAD_MLEADERSTYLE
350
66
  3
ACAD_MLINESTYLE
350
5F
  3
ACAD_PLOTSETTINGS
350
61
  3
ACAD_PLOTSTYLENAME
350
E
  3
ACAD_SCALELIST
350
42
  3
ACAD_SECTIONVIEWSTYLE
350
68
  3
ACAD_TABLESTYLE
350
64
  3
ACAD_VISUALSTYLE
350
29
  3
ACDB_RECOMPOSE_DATA
350
185
  3
AcDbVariableDictionary
350
178
  0
DICTIONARY
  5
63
102
{ACAD_REACTORS
330
C
102
}
330
C
100
AcDbDictionary
281
     1
  0
DICTIONARY
  5
6A
102
{ACAD_REACTORS
330
C
102
}
330
C
100
AcDbDictionary
281
     1
  3
Imperial24
350
6B
  0
DICTIONARY
  5
D
102
{ACAD_REACTORS
330
C
102
}
330
C
100
AcDbDictionary
281
     1
  0
DICTIONARY
  5
62
102
{ACAD_REACTORS
330
C
102
}
330
C
100
AcDbDictionary
281
     1
  3
Layout1
350
6F
  3
Layout2
350
77
  3
Model
350
73
  0
DICTIONARY
  5
10
102
{ACAD_REACTORS
330
C
102
}
330
C
100
AcDbDictionary
281
     1
  3
ByBlock
350
19
  3
ByLayer
350
11
  3
Global
350
21
  0
DICTIONARY
  5
66
102
{ACAD_REACTORS
330
C
102
}
330
C
100
AcDbDictionary
281
     1
  3
Standard
350
67
  0
DICTIONARY
  5
5F
102
{ACAD_REACTORS
330
C
102
}
330
C
100
AcDbDictionary
281
     1
  3
Standard
350
60
  0
DICTIONARY
  5
61
102
{ACAD_REACTORS
330
C
102
}
330
C
100
AcDbDictionary
281
     1
  0
ACDBDICTIONARYWDFLT
  5
E
102
{ACAD_REACTORS
330
C
102
}
330
C
100
AcDbDictionary
281
     1
  3
Normal
350
F
100
AcDbDictionaryWithDefault
340
F
  0
DICTIONARY
  5
42
102
{ACAD_REACTORS
330
C
102
}
330
C
100
AcDbDictionary
281
     1
  3
A0
350
43
  3
A1
350
44
  3
A2
350
45
  3
A3
350
46
  3
A4
350
47
  3
A5
350
48
  3
A6
350
49
  3
A7
350
4A
  3
A8
350
4B
  3
A9
350
4C
  3
B0
350
4D
  3
B1
350
4E
  3
B2
350
4F
  3
B3
350
50
  3
B4
350
51
  3
B5
350
52
  3
B6
350
53
  0
DICTIONARY
  5
68
102
{ACAD_REACTORS
330
C
102
}
330
C
100
AcDbDictionary
281
     1
  3
Imperial24
350
69
  0
DICTIONARY
  5
64
102
{ACAD_REACTORS
330
C
102
}
330
C
100
AcDbDictionary
281
     1
  3
Standard
350
65
  0
DICTIONARY
  5
29
102
{ACAD_REACTORS
330
C
102
}
330
C
100
AcDbDictionary
281
     1
  3
2dWireframe
350
2F
  3
Basic
350
2E
  3
Brighten
350
35
  3
ColorChange
350
39
  3
Conceptual
350
32
  3
Dim
350
34
  3
EdgeColorOff
350
41
  3
Facepattern
350
38
  3
Flat
350
2A
  3
FlatWithEdges
350
2B
  3
Gouraud
350
2C
  3
GouraudWithEdges
350
2D
  3
Hidden
350
31
  3
JitterOff
350
3F
  3
Linepattern
350
37
  3
OverhangOff
350
40
  3
Realistic
350
33
  3
Shaded
350
3E
  3
Shaded with edges
350
3D
  3
Shades of Gray
350
3A
  3
Sketchy
350
3B
  3
Thicken
350
36
  3
Wireframe
350
30
  3
X-Ray
350
3C
  0
XRECORD
  5
185
102
{ACAD_REACTORS
330
C
102
}
330
C
100
AcDbXrecord
280
     1
 90
        1
330
65
  0
DICTIONARY
  5
178
102
{ACAD_REACTORS
330
C
102
}
330
C
100
AcDbDictionary
281
     1
  3
CANNOSCALE
350
17E
  3
CMLEADERSTYLE
350
17A
  3
CTABLESTYLE
350
179
  3
CVIEWDETAILSTYLE
350
17B
  3
CVIEWSECTIONSTYLE
350
17C
  3
LAYEREVAL
350
180
  3
LAYERNOTIFY
350
181
  3
LIGHTINGUNITS
350
17F
  3
MSLTSCALE
350
17D
  3
XCLIPFRAME
350
182
  0
ACDBDETAILVIEWSTYLE
  5
6B
102
{ACAD_XDICTIONARY
360
1BF
102
}
102
{ACAD_REACTORS
330
6A
102
}
330
6A
100
AcDbModelDocViewStyle
 70
     0
  3
Imperial24
290
     0
100
AcDbDetailViewStyle
 70
     0
 71
     0
 90
        3
 71
     1
340
55
 62
   256
 40
0.24
340
0
 62
   256
 40
0.24
300

 40
0.36
280
     3
 71
     2
340
5D
 90
       25
 62
   256
 71
     3
340
55
 62
   256
 40
0.24
 90
        1
 40
0.75
 90
        1
300
%<\AcVar ViewType \f "%tc1">% %<\AcVar ViewDetailId>%\PSCALE %<\AcVar ViewScale \f "%sn">%
 71
     4
340
5D
 90
       25
 62
   256
340
5D
 90
       25
 62
   256
280
     0
  0
LAYOUT
  5
6F
102
{ACAD_REACTORS
330
62
102
}
330
62
100
AcDbPlotSettings
  1

  2

  4

  6

 40
0.0
 41
0.0
 42
0.0
 43
0.0
 44
0.0
 45
0.0
 46
0.0
 47
0.0
 48
0.0
 49
0.0
140
0.0
141
0.0
142
1.0
143
1.0
 70
   688
 72
     0
 73
     0
 74
     5
  7

 75
    16
147
1.0
 76
     0
 77
     2
 78
   300
148
0.0
149
0.0
100
AcDbLayout
  1
Layout1
 70
     1
 71
     1
 10
0.0
 20
0.0
 11
12.0
 21
9.0
 12
0.0
 22
0.0
 32
0.0
 14
0.0
 24
0.0
 34
0.0
 15
0.0
 25
0.0
 35
0.0
146
0.0
 13
0.0
 23
0.0
 33
0.0
 16
1.0
 26
0.0
 36
0.0
 17
0.0
 27
1.0
 37
0.0
 76
     0
330
6C
  0
LAYOUT
  5
77
102
{ACAD_REACTORS
330
62
102
}
330
62
100
AcDbPlotSettings
  1

  2

  4

  6

 40
0.0
 41
0.0
 42
0.0
 43
0.0
 44
0.0
 45
0.0
 46
0.0
 47
0.0
 48
0.0
 49
0.0
140
0.0
141
0.0
142
1.0
143
1.0
 70
   688
 72
     0
 73
     0
 74
     5
  7

 75
    16
147
1.0
 76
     0
 77
     2
 78
   300
148
0.0
149
0.0
100
AcDbLayout
  1
Layout2
 70
     1
 71
     2
 10
0.0
 20
0.0
 11
12.0
 21
9.0
 12
0.0
 22
0.0
 32
0.0
 14
0.0
 24
0.0
 34
0.0
 15
0.0
 25
0.0
 35
0.0
146
0.0
 13
0.0
 23
0.0
 33
0.0
 16
1.0
 26
0.0
 36
0.0
 17
0.0
 27
1.0
 37
0.0
 76
     0
330
74
  0
LAYOUT
  5
73
102
{ACAD_REACTORS
330
62
102
}
330
62
100
AcDbPlotSettings
  1

  2

  4

  6

 40
0.0
 41
0.0
 42
0.0
 43
0.0
 44
0.0
 45
0.0
 46
0.0
 47
0.0
 48
0.0
 49
0.0
140
0.0
141
0.0
142
1.0
143
1.0
 70
  1712
 72
     0
 73
     0
 74
     0
  7

 75
     0
147
1.0
 76
     0
 77
     2
 78
   300
148
0.0
149
0.0
100
AcDbLayout
  1
Model
 70
     1
 71
     0
 10
0.0
 20
0.0
 11
12.0
 21
9.0
 12
0.0
 22
0.0
 32
0.0
 14
0.0
 24
0.0
 34
0.0
 15
0.0
 25
0.0
 35
0.0
146
0.0
 13
0.0
 23
0.0
 33
0.0
 16
1.0
 26
0.0
 36
0.0
 17
0.0
 27
1.0
 37
0.0
 76
     0
330
70
  0
MATERIAL
  5
19
102
{ACAD_XDICTIONARY
360
1A
102
}
102
{ACAD_REACTORS
330
10
102
}
330
10
100
AcDbMaterial
  1
ByBlock
 72
     0
 43
0.0208333333333333
 43
0.0
 43
0.0
 43
0.0
 43
0.0
 43
0.0208333333333333
 43
0.0
 43
0.0
 43
0.0
 43
0.0
 43
1.0
 43
0.0
 43
0.0
 43
0.0
 43
0.0
 43
1.0
 77
     0
 47
0.0208333333333333
 47
0.0
 47
0.0
 47
0.0
 47
0.0
 47
0.0208333333333333
 47
0.0
 47
0.0
 47
0.0
 47
0.0
 47
1.0
 47
0.0
 47
0.0
 47
0.0
 47
0.0
 47
1.0
171
     0
 49
0.0208333333333333
 49
0.0
 49
0.0
 49
0.0
 49
0.0
 49
0.0208333333333333
 49
0.0
 49
0.0
 49
0.0
 49
0.0
 49
1.0
 49
0.0
 49
0.0
 49
0.0
 49
0.0
 49
1.0
175
     0
142
0.0208333333333333
142
0.0
142
0.0
142
0.0
142
0.0
142
0.0208333333333333
142
0.0
142
0.0
142
0.0
142
0.0
142
1.0
142
0.0
142
0.0
142
0.0
142
0.0
142
1.0
179
     0
144
0.0208333333333333
144
0.0
144
0.0
144
0.0
144
0.0
144
0.0208333333333333
144
0.0
144
0.0
144
0.0
144
0.0
144
1.0
144
0.0
144
0.0
144
0.0
144
0.0
144
1.0
147
0.0208333333333333
147
0.0
147
0.0
147
0.0
147
0.0
147
0.0208333333333333
147
0.0
147
0.0
147
0.0
147
0.0
147
1.0
147
0.0
147
0.0
147
0.0
147
0.0
147
1.0
  0
MATERIAL
  5
11
102
{ACAD_XDICTIONARY
360
12
102
}
102
{ACAD_REACTORS
330
10
102
}
330
10
100
AcDbMaterial
  1
ByLayer
 72
     0
 43
0.0208333333333333
 43
0.0
 43
0.0
 43
0.0
 43
0.0
 43
0.0208333333333333
 43
0.0
 43
0.0
 43
0.0
 43
0.0
 43
1.0
 43
0.0
 43
0.0
 43
0.0
 43
0.0
 43
1.0
 77
     0
 47
0.0208333333333333
 47
0.0
 47
0.0
 47
0.0
 47
0.0
 47
0.0208333333333333
 47
0.0
 47
0.0
 47
0.0
 47
0.0
 47
1.0
 47
0.0
 47
0.0
 47
0.0
 47
0.0
 47
1.0
171
     0
 49
0.0208333333333333
 49
0.0
 49
0.0
 49
0.0
 49
0.0
 49
0.0208333333333333
 49
0.0
 49
0.0
 49
0.0
 49
0.0
 49
1.0
 49
0.0
 49
0.0
 49
0.0
 49
0.0
 49
1.0
175
     0
142
0.0208333333333333
142
0.0
142
0.0
142
0.0
142
0.0
142
0.0208333333333333
142
0.0
142
0.0
142
0.0
142
0.0
142
1.0
142
0.0
142
0.0
142
0.0
142
0.0
142
1.0
179
     0
144
0.0208333333333333
144
0.0
144
0.0
144
0.0
144
0.0
144
0.0208333333333333
144
0.0
144
0.0
144
0.0
144
0.0
144
1.0
144
0.0
144
0.0
144
0.0
144
0.0
144
1.0
147
0.0208333333333333
147
0.0
147
0.0
147
0.0
147
0.0
147
0.0208333333333333
147
0.0
147
0.0
147
0.0
147
0.0
147
1.0
147
0.0
147
0.0
147
0.0
147
0.0
147
1.0
  0
MATERIAL
  5
21
102
{ACAD_XDICTIONARY
360
22
102
}
102
{ACAD_REACTORS
330
10
102
}
330
10
100
AcDbMaterial
  1
Global
 72
     0
 43
0.0208333333333333
 43
0.0
 43
0.0
 43
0.0
 43
0.0
 43
0.0208333333333333
 43
0.0
 43
0.0
 43
0.0
 43
0.0
 43
1.0
 43
0.0
 43
0.0
 43
0.0
 43
0.0
 43
1.0
 77
     0
 47
0.0208333333333333
 47
0.0
 47
0.0
 47
0.0
 47
0.0
 47
0.0208333333333333
 47
0.0
 47
0.0
 47
0.0
 47
0.0
 47
1.0
 47
0.0
 47
0.0
 47
0.0
 47
0.0
 47
1.0
171
     0
 49
0.0208333333333333
 49
0.0
 49
0.0
 49
0.0
 49
0.0
 49
0.0208333333333333
 49
0.0
 49
0.0
 49
0.0
 49
0.0
 49
1.0
 49
0.0
 49
0.0
 49
0.0
 49
0.0
 49
1.0
175
     0
142
0.0208333333333333
142
0.0
142
0.0
142
0.0
142
0.0
142
0.0208333333333333
142
0.0
142
0.0
142
0.0
142
0.0
142
1.0
142
0.0
142
0.0
142
0.0
142
0.0
142
1.0
179
     0
144
0.0208333333333333
144
0.0
144
0.0
144
0.0
144
0.0
144
0.0208333333333333
144
0.0
144
0.0
144
0.0
144
0.0
144
1.0
144
0.0
144
0.0
144
0.0
144
0.0
144
1.0
147
0.0208333333333333
147
0.0
147
0.0
147
0.0
147
0.0
147
0.0208333333333333
147
0.0
147
0.0
147
0.0
147
0.0
147
1.0
147
0.0
147
0.0
147
0.0
147
0.0
147
1.0
  0
MLEADERSTYLE
  5
67
102
{ACAD_XDICTIONARY
360
1BB
102
}
102
{ACAD_REACTORS
330
66
102
}
330
66
100
AcDbMLeaderStyle
170
     2
171
     1
172
     0
 90
        2
 40
0.0
 41
0.0
173
     1
 91
-1056964608
340
5B
 92
       -2
290
     1
 42
0.09
291
     1
 43
0.36
  3
Standard
 44
0.18
300

342
55
174
     1
178
     6
175
     1
176
     0
 93
-1056964608
 45
0.18
292
     0
297
     0
 46
0.18
 94
-1056964608
 47
1.0
 49
1.0
140
1.0
293
     1
141
0.0
294
     1
177
     0
142
1.0
295
     0
296
     0
143
0.125
1001
ACAD_MLEADERVER
1070
     2
  0
MLINESTYLE
  5
60
102
{ACAD_REACTORS
330
5F
102
}
330
5F
100
AcDbMlineStyle
  2
STANDARD
 70
     0
  3

 62
   256
 51
90.0
 52
90.0
 71
     2
 49
0.5
 62
   256
  6
BYLAYER
 49
-0.5
 62
   256
  6
BYLAYER
  0
ACDBPLACEHOLDER
  5
F
102
{ACAD_REACTORS
330
E
102
}
330
E
  0
SCALE
  5
43
102
{ACAD_REACTORS
330
42
102
}
330
42
100
AcDbScale
 70
     0
300
1:1
140
1.0
141
1.0
290
     1
  0
SCALE
  5
44
102
{ACAD_REACTORS
330
42
102
}
330
42
100
AcDbScale
 70
     0
300
1/128" = 1'-0"
140
0.0078125
141
12.0
290
     0
  0
SCALE
  5
45
102
{ACAD_REACTORS
330
42
102
}
330
42
100
AcDbScale
 70
     0
300
1/64" = 1'-0"
140
0.015625
141
12.0
290
     0
  0
SCALE
  5
46
102
{ACAD_REACTORS
330
42
102
}
330
42
100
AcDbScale
 70
     0
300
1/32" = 1'-0"
140
0.03125
141
12.0
290
     0
  0
SCALE
  5
47
102
{ACAD_REACTORS
330
42
102
}
330
42
100
AcDbScale
 70
     0
300
1/16" = 1'-0"
140
0.0625
141
12.0
290
     0
  0
SCALE
  5
48
102
{ACAD_REACTORS
330
42
102
}
330
42
100
AcDbScale
 70
     0
300
3/32" = 1'-0"
140
0.09375
141
12.0
290
     0
  0
SCALE
  5
49
102
{ACAD_REACTORS
330
42
102
}
330
42
100
AcDbScale
 70
     0
300
1/8" = 1'-0"
140
0.125
141
12.0
290
     0
  0
SCALE
  5
4A
102
{ACAD_REACTORS
330
42
102
}
330
42
100
AcDbScale
 70
     0
300
3/16" = 1'-0"
140
0.1875
141
12.0
290
     0
  0
SCALE
  5
4B
102
{ACAD_REACTORS
330
42
102
}
330
42
100
AcDbScale
 70
     0
300
1/4" = 1'-0"
140
0.25
141
12.0
290
     0
  0
SCALE
  5
4C
102
{ACAD_REACTORS
330
42
102
}
330
42
100
AcDbScale
 70
     0
300
3/8" = 1'-0"
140
0.375
141
12.0
290
     0
  0
SCALE
  5
4D
102
{ACAD_REACTORS
330
42
102
}
330
42
100
AcDbScale
 70
     0
300
1/2" = 1'-0"
140
0.5
141
12.0
290
     0
  0
SCALE
  5
4E
102
{ACAD_REACTORS
330
42
102
}
330
42
100
AcDbScale
 70
     0
300
3/4" = 1'-0"
140
0.75
141
12.0
290
     0
  0
SCALE
  5
4F
102
{ACAD_REACTORS
330
42
102
}
330
42
100
AcDbScale
 70
     0
300
1" = 1'-0"
140
1.0
141
12.0
290
     0
  0
SCALE
  5
50
102
{ACAD_REACTORS
330
42
102
}
330
42
100
AcDbScale
 70
     0
300
1-1/2" = 1'-0"
140
1.5
141
12.0
290
     0
  0
SCALE
  5
51
102
{ACAD_REACTORS
330
42
102
}
330
42
100
AcDbScale
 70
     0
300
3" = 1'-0"
140
3.0
141
12.0
290
     0
  0
SCALE
  5
52
102
{ACAD_REACTORS
330
42
102
}
330
42
100
AcDbScale
 70
     0
300
6" = 1'-0"
140
6.0
141
12.0
290
     0
  0
SCALE
  5
53
102
{ACAD_REACTORS
330
42
102
}
330
42
100
AcDbScale
 70
     0
300
1'-0" = 1'-0"
140
12.0
141
12.0
290
     0
  0
ACDBSECTIONVIEWSTYLE
  5
69
102
{ACAD_XDICTIONARY
360
1BD
102
}
102
{ACAD_REACTORS
330
68
102
}
330
68
100
AcDbModelDocViewStyle
 70
     0
  3
Imperial24
290
     0
100
AcDbSectionViewStyle
 70
     0
 71
     0
 90
       78
 71
     1
340
55
 62
   256
 40
0.24
340
0
340
0
 62
   256
 40
0.24
300
I, O, Q, S, X, Z
 40
0.48
 90
        3
 40
0.18
 90
        1
 71
     2
340
5D
 90
       25
 62
   256
340
5D
 90
       50
 62
   256
 40
0.24
 40
0.0
 40
0.24
 71
     3
340
55
 62
   256
 40
0.24
 90
        1
 40
0.75
 90
        1
300
%<\AcVar ViewType \f "%tc1">% %<\AcVar ViewSectionStartId>%-%<\AcVar ViewSectionEndId>%\PSCALE %<\AcVar ViewScale \f "%sn">%
 71
     4
 62
   256
 62
   257
300
ANSI31
 40
1.0
 90
        0
290
     0
290
     0
 90
        6
 40
0.0
 40
1.570796326794896
 40
0.2617993877991494
 40
1.308996938995747
 40
-0.2617993877991494
 40
1.832595714594046
  0
TABLESTYLE
  5
65
102
{ACAD_XDICTIONARY
360
183
102
}
102
{ACAD_REACTORS
330
64
102
}
330
64
100
AcDbTableStyle
  3
Standard
 70
     0
 71
     0
 40
0.06
 41
0.06
280
     0
281
     0
  7
Standard
140
0.18
170
     2
 62
     0
 63
     7
283
     0
274
    -2
284
     1
 64
     0
275
    -2
285
     1
 65
     0
276
    -2
286
     1
 66
     0
277
    -2
287
     1
 67
     0
278
    -2
288
     1
 68
     0
279
    -2
289
     1
 69
     0
  7
Standard
140
0.25
170
     5
 62
     0
 63
     7
283
     0
274
    -2
284
     1
 64
     0
275
    -2
285
     1
 65
     0
276
    -2
286
     1
 66
     0
277
    -2
287
     1
 67
     0
278
    -2
288
     1
 68
     0
279
    -2
289
     1
 69
     0
  7
Standard
140
0.18
170
     5
 62
     0
 63
     7
283
     0
274
    -2
284
     1
 64
     0
275
    -2
285
     1
 65
     0
276
    -2
286
     1
 66
     0
277
    -2
287
     1
 67
     0
278
    -2
288
     1
 68
     0
279
    -2
289
     1
 69
     0
  0
VISUALSTYLE
  5
2F
102
{ACAD_XDICTIONARY
360
193
102
}
102
{ACAD_REACTORS
330
29
102
}
330
29
100
AcDbVisualStyle
  2
2dWireframe
 70
     4
 71
     0
 72
     2
 73
     0
 90
        0
 40
-0.6
 41
-30.0
 62
     5
 63
     7
421
 16777215
 74
     1
 91
        4
 64
     7
 65
   257
 75
     1
175
     1
 42
1.0
 92
        0
 66
   257
 43
1.0
 76
     1
 77
     6
 78
     2
 67
     7
 79
     5
170
     0
171
     0
290
     0
174
     0
 93
        1
 44
0.0
173
     0
291
     0
 45
0.0
1001
ACAD
1000
AcDbSavedByObjectVersion
1070
     0
  0
VISUALSTYLE
  5
2E
102
{ACAD_XDICTIONARY
360
191
102
}
102
{ACAD_REACTORS
330
29
102
}
330
29
100
AcDbVisualStyle
  2
Basic
 70
     7
 71
     1
 72
     0
 73
     1
 90
        0
 40
-0.6
 41
-30.0
 62
     5
 63
     7
421
 16777215
 74
     0
 91
        4
 64
     7
 65
   257
 75
     1
175
     1
 42
1.0
 92
        8
 66
     7
 43
1.0
 76
     1
 77
     6
 78
     2
 67
     7
 79
     5
170
     0
171
     0
290
     0
174
     0
 93
        1
 44
0.0
173
     0
291
     1
 45
0.0
1001
ACAD
1000
AcDbSavedByObjectVersion
1070
     0
  0
VISUALSTYLE
  5
35
102
{ACAD_XDICTIONARY
360
19F
102
}
102
{ACAD_REACTORS
330
29
102
}
330
29
100
AcDbVisualStyle
  2
Brighten
 70
    12
 71
     2
 72
     2
 73
     0
 90
        0
 40
-0.6
 41
-30.0
 62
     5
 63
     7
421
 16777215
 74
     1
 91
        4
 64
     7
 65
   257
 75
     1
175
     1
 42
1.0
 92
        8
 66
     7
 43
1.0
 76
     1
 77
     6
 78
     2
 67
     7
 79
     5
170
     0
171
     0
290
     0
174
     0
 93
        1
 44
50.0
173
     0
291
     1
 45
0.0
1001
ACAD
1000
AcDbSavedByObjectVersion
1070
     0
  0
VISUALSTYLE
  5
39
102
{ACAD_XDICTIONARY
360
1A7
102
}
102
{ACAD_REACTORS
330
29
102
}
330
29
100
AcDbVisualStyle
  2
ColorChange
 70
    16
 71
     2
 72
     2
 73
     3
 90
        0
 40
-0.6
 41
-30.0
 62
     5
 63
     8
421
  8421504
 74
     1
 91
        4
 64
     7
 65
   257
 75
     1
175
     1
 42
1.0
 92
        8
 66
     8
424
  8421504
 43
1.0
 76
     1
 77
     6
 78
     2
 67
     7
 79
     5
170
     0
171
     0
290
     0
174
     0
 93
        1
 44
0.0
173
     0
291
     1
 45
0.0
1001
ACAD
1000
AcDbSavedByObjectVersion
1070
     0
  0
VISUALSTYLE
  5
32
102
{ACAD_XDICTIONARY
360
199
102
}
102
{ACAD_REACTORS
330
29
102
}
330
29
100
AcDbVisualStyle
  2
Conceptual
 70
     9
 71
     3
 72
     2
 73
     0
 90
        0
 40
-0.6
 41
-30.0
 62
     5
 63
     7
421
 16777215
 74
     2
 91
        2
 64
     7
 65
   257
 75
     1
175
     1
 42
179.0
 92
        8
 66
     7
 43
1.0
 76
     1
 77
     6
 78
     2
 67
     7
 79
     3
170
     0
171
     0
290
     0
174
     0
 93
        1
 44
0.0
173
     0
291
     0
 45
0.0
1001
ACAD
1000
AcDbSavedByObjectVersion
1070
     0
  0
VISUALSTYLE
  5
34
102
{ACAD_XDICTIONARY
360
19D
102
}
102
{ACAD_REACTORS
330
29
102
}
330
29
100
AcDbVisualStyle
  2
Dim
 70
    11
 71
     2
 72
     2
 73
     0
 90
        0
 40
-0.6
 41
-30.0
 62
     5
 63
     7
421
 16777215
 74
     1
 91
        4
 64
     7
 65
   257
 75
     1
175
     1
 42
1.0
 92
        8
 66
     7
 43
1.0
 76
     1
 77
     6
 78
     2
 67
     7
 79
     5
170
     0
171
     0
290
     0
174
     0
 93
        1
 44
-50.0
173
     0
291
     1
 45
0.0
1001
ACAD
1000
AcDbSavedByObjectVersion
1070
     0
  0
VISUALSTYLE
  5
41
102
{ACAD_XDICTIONARY
360
1B7
102
}
102
{ACAD_REACTORS
330
29
102
}
330
29
100
AcDbVisualStyle
  2
EdgeColorOff
 70
    22
 71
     2
 72
     2
 73
     0
 90
        0
 40
-0.6
 41
-30.0
 62
     5
 63
     7
421
 16777215
 74
     1
 91
        4
 64
     7
 65
   257
 75
     1
175
     1
 42
1.0
 92
        8
 66
     7
 43
1.0
 76
     1
 77
     6
 78
     2
 67
     7
 79
     5
170
     0
171
     0
290
     0
174
     0
 93
        1
 44
0.0
173
     0
291
     1
 45
0.0
1001
ACAD
1000
AcDbSavedByObjectVersion
1070
     0
  0
VISUALSTYLE
  5
38
102
{ACAD_XDICTIONARY
360
1A5
102
}
102
{ACAD_REACTORS
330
29
102
}
330
29
100
AcDbVisualStyle
  2
Facepattern
 70
    15
 71
     2
 72
     2
 73
     0
 90
        0
 40
-0.6
 41
-30.0
 62
     5
 63
     7
421
 16777215
 74
     1
 91
        4
 64
     7
 65
   257
 75
     1
175
     1
 42
1.0
 92
        8
 66
     7
 43
1.0
 76
     1
 77
     6
 78
     2
 67
     7
 79
     5
170
     0
171
     0
290
     0
174
     0
 93
        1
 44
0.0
173
     0
291
     1
 45
0.0
1001
ACAD
1000
AcDbSavedByObjectVersion
1070
     0
  0
VISUALSTYLE
  5
2A
102
{ACAD_XDICTIONARY
360
189
102
}
102
{ACAD_REACTORS
330
29
102
}
330
29
100
AcDbVisualStyle
  2
Flat
 70
     0
 71
     2
 72
     1
 73
     1
 90
        2
 40
-0.6
 41
30.0
 62
     5
 63
     7
421
 16777215
 74
     0
 91
        0
 64
     7
 65
   257
 75
     1
175
     1
 42
1.0
 92
        8
 66
     7
 43
1.0
 76
     1
 77
     6
 78
     2
 67
     7
 79
     5
170
     0
171
     0
290
     0
174
     0
 93
       13
 44
0.0
173
     0
291
     1
 45
0.0
1001
ACAD
1000
AcDbSavedByObjectVersion
1070
     0
  0
VISUALSTYLE
  5
2B
102
{ACAD_XDICTIONARY
360
18B
102
}
102
{ACAD_REACTORS
330
29
102
}
330
29
100
AcDbVisualStyle
  2
FlatWithEdges
 70
     1
 71
     2
 72
     1
 73
     1
 90
        2
 40
-0.6
 41
30.0
 62
     5
 63
     7
421
 16777215
 74
     1
 91
        0
 64
     7
 65
   257
 75
     1
175
     1
 42
1.0
 92
        0
 66
   257
 43
1.0
 76
     1
 77
     6
 78
     2
 67
     7
 79
     5
170
     0
171
     0
290
     0
174
     0
 93
       13
 44
0.0
173
     0
291
     1
 45
0.0
1001
ACAD
1000
AcDbSavedByObjectVersion
1070
     0
  0
VISUALSTYLE
  5
2C
102
{ACAD_XDICTIONARY
360
18D
102
}
102
{ACAD_REACTORS
330
29
102
}
330
29
100
AcDbVisualStyle
  2
Gouraud
 70
     2
 71
     2
 72
     2
 73
     1
 90
        2
 40
-0.6
 41
30.0
 62
     5
 63
     7
421
 16777215
 74
     0
 91
        0
 64
     7
 65
   257
 75
     1
175
     1
 42
1.0
 92
        0
 66
     7
 43
1.0
 76
     1
 77
     6
 78
     2
 67
     7
 79
     5
170
     0
171
     0
290
     0
174
     0
 93
       13
 44
0.0
173
     0
291
     1
 45
0.0
1001
ACAD
1000
AcDbSavedByObjectVersion
1070
     0
  0
VISUALSTYLE
  5
2D
102
{ACAD_XDICTIONARY
360
18F
102
}
102
{ACAD_REACTORS
330
29
102
}
330
29
100
AcDbVisualStyle
  2
GouraudWithEdges
 70
     3
 71
     2
 72
     2
 73
     1
 90
        2
 40
-0.6
 41
30.0
 62
     5
 63
     7
421
 16777215
 74
     1
 91
        0
 64
     7
 65
   257
 75
     1
175
     1
 42
1.0
 92
        0
 66
   257
 43
1.0
 76
     1
 77
     6
 78
     2
 67
     7
 79
     5
170
     0
171
     0
290
     0
174
     0
 93
       13
 44
0.0
173
     0
291
     1
 45
0.0
1001
ACAD
1000
AcDbSavedByObjectVersion
1070
     0
  0
VISUALSTYLE
  5
31
102
{ACAD_XDICTIONARY
360
197
102
}
102
{ACAD_REACTORS
330
29
102
}
330
29
100
AcDbVisualStyle
  2
Hidden
 70
     6
 71
     1
 72
     2
 73
     2
 90
        0
 40
-0.6
 41
-30.0
 62
     5
 63
     7
421
 16777215
 74
     2
 91
        2
 64
     7
 65
   257
 75
     2
175
     1
 42
40.0
 92
        0
 66
   257
 43
1.0
 76
     1
 77
     6
 78
     2
 67
     7
 79
     3
170
     0
171
     0
290
     0
174
     0
 93
        1
 44
0.0
173
     0
291
     0
 45
0.0
1001
ACAD
1000
AcDbSavedByObjectVersion
1070
     0
  0
VISUALSTYLE
  5
3F
102
{ACAD_XDICTIONARY
360
1B3
102
}
102
{ACAD_REACTORS
330
29
102
}
330
29
100
AcDbVisualStyle
  2
JitterOff
 70
    20
 71
     2
 72
     2
 73
     0
 90
        0
 40
-0.6
 41
-30.0
 62
     5
 63
     7
421
 16777215
 74
     1
 91
        4
 64
     7
 65
   257
 75
     1
175
     1
 42
1.0
 92
       10
 66
     7
 43
1.0
 76
     1
 77
     6
 78
     2
 67
     7
 79
     5
170
     0
171
     0
290
     0
174
     0
 93
        1
 44
0.0
173
     0
291
     1
 45
0.0
1001
ACAD
1000
AcDbSavedByObjectVersion
1070
     0
  0
VISUALSTYLE
  5
37
102
{ACAD_XDICTIONARY
360
1A3
102
}
102
{ACAD_REACTORS
330
29
102
}
330
29
100
AcDbVisualStyle
  2
Linepattern
 70
    14
 71
     2
 72
     2
 73
     0
 90
        0
 40
-0.6
 41
-30.0
 62
     5
 63
     7
421
 16777215
 74
     1
 91
        4
 64
     7
 65
   257
 75
     7
175
     7
 42
1.0
 92
        8
 66
     7
 43
1.0
 76
     1
 77
     6
 78
     2
 67
     7
 79
     5
170
     0
171
     0
290
     0
174
     0
 93
        1
 44
0.0
173
     0
291
     1
 45
0.0
1001
ACAD
1000
AcDbSavedByObjectVersion
1070
     0
  0
VISUALSTYLE
  5
40
102
{ACAD_XDICTIONARY
360
1B5
102
}
102
{ACAD_REACTORS
330
29
102
}
330
29
100
AcDbVisualStyle
  2
OverhangOff
 70
    21
 71
     2
 72
     2
 73
     0
 90
        0
 40
-0.6
 41
-30.0
 62
     5
 63
     7
421
 16777215
 74
     1
 91
        4
 64
     7
 65
   257
 75
     1
175
     1
 42
1.0
 92
        9
 66
     7
 43
1.0
 76
     1
 77
     6
 78
     2
 67
     7
 79
     5
170
     0
171
     0
290
     0
174
     0
 93
        1
 44
0.0
173
     0
291
     1
 45
0.0
1001
ACAD
1000
AcDbSavedByObjectVersion
1070
     0
  0
VISUALSTYLE
  5
33
102
{ACAD_XDICTIONARY
360
19B
102
}
102
{ACAD_REACTORS
330
29
102
}
330
29
100
AcDbVisualStyle
  2
Realistic
 70
     8
 71
     2
 72
     3
 73
     0
 90
        2
 40
-0.6
 41
30.0
 62
     5
 63
     7
421
 16777215
 74
     0
 91
        0
 64
     7
 65
   257
 75
     1
175
     1
 42
1.0
 92
        8
 66
   257
 43
1.0
 76
     1
 77
     6
 78
     2
 67
     7
 79
     3
170
     0
171
     0
290
     0
174
     0
 93
       13
 44
0.0
173
     0
291
     0
 45
0.0
1001
ACAD
1000
AcDbSavedByObjectVersion
1070
     0
  0
VISUALSTYLE
  5
3E
102
{ACAD_XDICTIONARY
360
1B1
102
}
102
{ACAD_REACTORS
330
29
102
}
330
29
100
AcDbVisualStyle
  2
Shaded
 70
    27
 71
     2
 72
     2
 73
     1
 90
        2
 40
-0.6
 41
30.0
 62
     5
 63
     7
421
 16777215
 74
     0
 91
        4
 64
     7
 65
   257
 75
     1
175
     1
 42
1.0
 92
        8
 66
   257
 43
1.0
 76
     1
 77
     6
 78
     2
 67
     8
425
  7895160
 79
     3
170
     0
171
     0
290
     0
174
     0
 93
        5
 44
0.0
173
     0
291
     0
 45
0.0
1001
ACAD
1000
AcDbSavedByObjectVersion
1070
     0
  0
VISUALSTYLE
  5
3D
102
{ACAD_XDICTIONARY
360
1AF
102
}
102
{ACAD_REACTORS
330
29
102
}
330
29
100
AcDbVisualStyle
  2
Shaded with edges
 70
    26
 71
     2
 72
     2
 73
     1
 90
        2
 40
-0.6
 41
30.0
 62
     5
 63
     7
421
 16777215
 74
     1
 91
        2
 64
     7
 65
   257
 75
     2
175
     1
 42
1.0
 92
        8
 66
   257
 43
1.0
 76
     1
 77
     6
 78
     2
 67
     7
 79
     3
170
     0
171
     0
290
     0
174
     0
 93
        5
 44
0.0
173
     0
291
     0
 45
0.0
1001
ACAD
1000
AcDbSavedByObjectVersion
1070
     0
  0
VISUALSTYLE
  5
3A
102
{ACAD_XDICTIONARY
360
1A9
102
}
102
{ACAD_REACTORS
330
29
102
}
330
29
100
AcDbVisualStyle
  2
Shades of Gray
 70
    23
 71
     2
 72
     2
 73
     3
 90
        0
 40
-0.6
 41
-30.0
 62
     5
 63
     7
421
 16777215
 74
     2
 91
        2
 64
     7
 65
     7
 75
     1
175
     1
 42
40.0
 92
        8
 66
     7
 43
1.0
 76
     1
 77
     6
 78
     2
 67
     7
 79
     3
170
     0
171
     0
290
     0
174
     0
 93
        1
 44
0.0
173
     0
291
     0
 45
0.0
1001
ACAD
1000
AcDbSavedByObjectVersion
1070
     0
  0
VISUALSTYLE
  5
3B
102
{ACAD_XDICTIONARY
360
1AB
102
}
102
{ACAD_REACTORS
330
29
102
}
330
29
100
AcDbVisualStyle
  2
Sketchy
 70
    24
 71
     1
 72
     2
 73
     2
 90
        0
 40
-0.6
 41
-30.0
 62
     5
 63
     7
421
 16777215
 74
     2
 91
        2
 64
     7
 65
     7
 75
     1
175
     1
 42
40.0
 92
       11
 66
     7
 43
1.0
 76
     1
 77
     6
 78
     2
 67
     7
 79
     6
170
     0
171
     0
290
     0
174
     0
 93
        1
 44
0.0
173
     0
291
     0
 45
0.0
1001
ACAD
1000
AcDbSavedByObjectVersion
1070
     0
  0
VISUALSTYLE
  5
36
102
{ACAD_XDICTIONARY
360
1A1
102
}
102
{ACAD_REACTORS
330
29
102
}
330
29
100
AcDbVisualStyle
  2
Thicken
 70
    13
 71
     2
 72
     2
 73
     0
 90
        0
 40
-0.6
 41
-30.0
 62
     5
 63
     7
421
 16777215
 74
     1
 91
        4
 64
     7
 65
   257
 75
     1
175
     1
 42
1.0
 92
       12
 66
     7
 43
1.0
 76
     1
 77
     6
 78
     2
 67
     7
 79
     5
170
     0
171
     0
290
     0
174
     0
 93
        1
 44
0.0
173
     0
291
     1
 45
0.0
1001
ACAD
1000
AcDbSavedByObjectVersion
1070
     0
  0
VISUALSTYLE
  5
30
102
{ACAD_XDICTIONARY
360
195
102
}
102
{ACAD_REACTORS
330
29
102
}
330
29
100
AcDbVisualStyle
  2
Wireframe
 70
     5
 71
     0
 72
     2
 73
     0
 90
        0
 40
-0.6
 41
-30.0
 62
     5
 63
     7
421
 16777215
 74
     1
 91
        4
 64
     7
 65
   257
 75
     1
175
     1
 42
1.0
 92
        0
 66
   257
 43
1.0
 76
     1
 77
     6
 78
     2
 67
     7
 79
     3
170
     0
171
     0
290
     0
174
     0
 93
        1
 44
0.0
173
     0
291
     0
 45
0.0
1001
ACAD
1000
AcDbSavedByObjectVersion
1070
     0
  0
VISUALSTYLE
  5
3C
102
{ACAD_XDICTIONARY
360
1AD
102
}
102
{ACAD_REACTORS
330
29
102
}
330
29
100
AcDbVisualStyle
  2
X-Ray
 70
    25
 71
     2
 72
     2
 73
     1
 90
        1
 40
0.5
 41
-30.0
 62
     5
 63
     7
421
 16777215
 74
     1
 91
        0
 64
     7
 65
   257
 75
     1
175
     1
 42
1.0
 92
        8
 66
     7
 43
1.0
 76
     1
 77
     6
 78
     2
 67
     7
 79
     3
170
     0
171
     0
290
     0
174
     0
 93
       13
 44
0.0
173
     0
291
     0
 45
0.0
1001
ACAD
1000
AcDbSavedByObjectVersion
1070
     0
  0
DICTIONARYVAR
  5
17E
102
{ACAD_REACTORS
330
178
102
}
330
178
100
DictionaryVariables
280
     0
  1
1:1
  0
DICTIONARYVAR
  5
17A
102
{ACAD_REACTORS
330
178
102
}
330
178
100
DictionaryVariables
280
     0
  1
STANDARD
  0
DICTIONARYVAR
  5
179
102
{ACAD_REACTORS
330
178
102
}
330
178
100
DictionaryVariables
280
     0
  1
STANDARD
  0
DICTIONARYVAR
  5
17B
102
{ACAD_REACTORS
330
178
102
}
330
178
100
DictionaryVariables
280
     0
  1
Imperial24
  0
DICTIONARYVAR
  5
17C
102
{ACAD_REACTORS
330
178
102
}
330
178
100
DictionaryVariables
280
     0
  1
Imperial24
  0
DICTIONARYVAR
  5
180
102
{ACAD_REACTORS
330
178
102
}
330
178
100
DictionaryVariables
280
     0
  1
0
  0
DICTIONARYVAR
  5
181
102
{ACAD_REACTORS
330
178
102
}
330
178
100
DictionaryVariables
280
     0
  1
0
  0
DICTIONARYVAR
  5
17F
102
{ACAD_REACTORS
330
178
102
}
330
178
100
DictionaryVariables
280
     0
  1
2
  0
DICTIONARYVAR
  5
17D
102
{ACAD_REACTORS
330
178
102
}
330
178
100
DictionaryVariables
280
     0
  1
1
  0
DICTIONARYVAR
  5
182
102
{ACAD_REACTORS
330
178
102
}
330
178
100
DictionaryVariables
280
     0
  1
2
  0
DICTIONARY
  5
1BF
330
6B
100
AcDbDictionary
280
     1
281
     1
  3
ACAD_XREC_ROUNDTRIP
360
1C0
  0
DICTIONARY
  5
1A
330
19
100
AcDbDictionary
280
     1
281
     1
  3
ACAD_XREC_ROUNDTRIP
360
187
  3
BUMPTILE
360
1C
  3
DIFFUSETILE
360
1B
  3
OPACITYTILE
360
1F
  3
REFLECTIONTILE
360
1E
  3
REFRACTIONTILE
360
20
  3
SPECULARTILE
360
1D
  0
DICTIONARY
  5
12
330
11
100
AcDbDictionary
280
     1
281
     1
  3
ACAD_XREC_ROUNDTRIP
360
186
  3
BUMPTILE
360
14
  3
DIFFUSETILE
360
13
  3
OPACITYTILE
360
17
  3
REFLECTIONTILE
360
16
  3
REFRACTIONTILE
360
18
  3
SPECULARTILE
360
15
  0
DICTIONARY
  5
22
330
21
100
AcDbDictionary
280
     1
281
     1
  3
ACAD_XREC_ROUNDTRIP
360
188
  3
BUMPTILE
360
24
  3
DIFFUSETILE
360
23
  3
OPACITYTILE
360
27
  3
REFLECTIONTILE
360
26
  3
REFRACTIONTILE
360
28
  3
SPECULARTILE
360
25
  0
DICTIONARY
  5
1BB
330
67
100
AcDbDictionary
280
     1
281
     1
  3
ACAD_XREC_ROUNDTRIP
360
1BC
  0
DICTIONARY
  5
1BD
330
69
100
AcDbDictionary
280
     1
281
     1
  3
ACAD_XREC_ROUNDTRIP
360
1BE
  0
DICTIONARY
  5
183
330
65
100
AcDbDictionary
280
     1
281
     1
  3
ACAD_ROUNDTRIP_2008_TABLESTYLE_CELLSTYLEMAP
360
184
  3
ACAD_XREC_ROUNDTRIP
360
1B9
  0
DICTIONARY
  5
193
330
2F
100
AcDbDictionary
280
     1
281
     1
  3
ACAD_XREC_ROUNDTRIP
360
194
  0
DICTIONARY
  5
191
330
2E
100
AcDbDictionary
280
     1
281
     1
  3
ACAD_XREC_ROUNDTRIP
360
192
  0
DICTIONARY
  5
19F
330
35
100
AcDbDictionary
280
     1
281
     1
  3
ACAD_XREC_ROUNDTRIP
360
1A0
  0
DICTIONARY
  5
1A7
330
39
100
AcDbDictionary
280
     1
281
     1
  3
ACAD_XREC_ROUNDTRIP
360
1A8
  0
DICTIONARY
  5
199
330
32
100
AcDbDictionary
280
     1
281
     1
  3
ACAD_XREC_ROUNDTRIP
360
19A
  0
DICTIONARY
  5
19D
330
34
100
AcDbDictionary
280
     1
281
     1
  3
ACAD_XREC_ROUNDTRIP
360
19E
  0
DICTIONARY
  5
1B7
330
41
100
AcDbDictionary
280
     1
281
     1
  3
ACAD_XREC_ROUNDTRIP
360
1B8
  0
DICTIONARY
  5
1A5
330
38
100
AcDbDictionary
280
     1
281
     1
  3
ACAD_XREC_ROUNDTRIP
360
1A6
  0
DICTIONARY
  5
189
330
2A
100
AcDbDictionary
280
     1
281
     1
  3
ACAD_XREC_ROUNDTRIP
360
18A
  0
DICTIONARY
  5
18B
330
2B
100
AcDbDictionary
280
     1
281
     1
  3
ACAD_XREC_ROUNDTRIP
360
18C
  0
DICTIONARY
  5
18D
330
2C
100
AcDbDictionary
280
     1
281
     1
  3
ACAD_XREC_ROUNDTRIP
360
18E
  0
DICTIONARY
  5
18F
330
2D
100
AcDbDictionary
280
     1
281
     1
  3
ACAD_XREC_ROUNDTRIP
360
190
  0
DICTIONARY
  5
197
330
31
100
AcDbDictionary
280
     1
281
     1
  3
ACAD_XREC_ROUNDTRIP
360
198
  0
DICTIONARY
  5
1B3
330
3F
100
AcDbDictionary
280
     1
281
     1
  3
ACAD_XREC_ROUNDTRIP
360
1B4
  0
DICTIONARY
  5
1A3
330
37
100
AcDbDictionary
280
     1
281
     1
  3
ACAD_XREC_ROUNDTRIP
360
1A4
  0
DICTIONARY
  5
1B5
330
40
100
AcDbDictionary
280
     1
281
     1
  3
ACAD_XREC_ROUNDTRIP
360
1B6
  0
DICTIONARY
  5
19B
330
33
100
AcDbDictionary
280
     1
281
     1
  3
ACAD_XREC_ROUNDTRIP
360
19C
  0
DICTIONARY
  5
1B1
330
3E
100
AcDbDictionary
280
     1
281
     1
  3
ACAD_XREC_ROUNDTRIP
360
1B2
  0
DICTIONARY
  5
1AF
330
3D
100
AcDbDictionary
280
     1
281
     1
  3
ACAD_XREC_ROUNDTRIP
360
1B0
  0
DICTIONARY
  5
1A9
330
3A
100
AcDbDictionary
280
     1
281
     1
  3
ACAD_XREC_ROUNDTRIP
360
1AA
  0
DICTIONARY
  5
1AB
330
3B
100
AcDbDictionary
280
     1
281
     1
  3
ACAD_XREC_ROUNDTRIP
360
1AC
  0
DICTIONARY
  5
1A1
330
36
100
AcDbDictionary
280
     1
281
     1
  3
ACAD_XREC_ROUNDTRIP
360
1A2
  0
DICTIONARY
  5
195
330
30
100
AcDbDictionary
280
     1
281
     1
  3
ACAD_XREC_ROUNDTRIP
360
196
  0
DICTIONARY
  5
1AD
330
3C
100
AcDbDictionary
280
     1
281
     1
  3
ACAD_XREC_ROUNDTRIP
360
1AE
  0
XRECORD
  5
1C0
102
{ACAD_REACTORS
330
1BF
102
}
330
1BF
100
AcDbXrecord
280
     1
102
DISPLAYNAME
  1
Imperial24
102
FLAGS
 90
        0
  0
XRECORD
  5
187
102
{ACAD_REACTORS
330
1A
102
}
330
1A
100
AcDbXrecord
280
     1
102
MATERIAL
148
0.0
149
0.0
149
0.0
 93
        0
 94
      127
282
     0
 72
     0
 77
     0
171
     0
175
     0
179
     0
273
     0
  0
XRECORD
  5
1C
102
{ACAD_REACTORS
330
1A
102
}
330
1A
100
AcDbXrecord
280
     1
270
     1
271
     1
  0
XRECORD
  5
1B
102
{ACAD_REACTORS
330
1A
102
}
330
1A
100
AcDbXrecord
280
     1
270
     1
271
     1
  0
XRECORD
  5
1F
102
{ACAD_REACTORS
330
1A
102
}
330
1A
100
AcDbXrecord
280
     1
270
     1
271
     1
  0
XRECORD
  5
1E
102
{ACAD_REACTORS
330
1A
102
}
330
1A
100
AcDbXrecord
280
     1
270
     1
271
     1
  0
XRECORD
  5
20
102
{ACAD_REACTORS
330
1A
102
}
330
1A
100
AcDbXrecord
280
     1
270
     1
271
     1
  0
XRECORD
  5
1D
102
{ACAD_REACTORS
330
1A
102
}
330
1A
100
AcDbXrecord
280
     1
270
     1
271
     1
  0
XRECORD
  5
186
102
{ACAD_REACTORS
330
12
102
}
330
12
100
AcDbXrecord
280
     1
102
MATERIAL
148
0.0
149
0.0
149
0.0
 93
        0
 94
      127
282
     0
 72
     0
 77
     0
171
     0
175
     0
179
     0
273
     0
  0
XRECORD
  5
14
102
{ACAD_REACTORS
330
12
102
}
330
12
100
AcDbXrecord
280
     1
270
     1
271
     1
  0
XRECORD
  5
13
102
{ACAD_REACTORS
330
12
102
}
330
12
100
AcDbXrecord
280
     1
270
     1
271
     1
  0
XRECORD
  5
17
102
{ACAD_REACTORS
330
12
102
}
330
12
100
AcDbXrecord
280
     1
270
     1
271
     1
  0
XRECORD
  5
16
102
{ACAD_REACTORS
330
12
102
}
330
12
100
AcDbXrecord
280
     1
270
     1
271
     1
  0
XRECORD
  5
18
102
{ACAD_REACTORS
330
12
102
}
330
12
100
AcDbXrecord
280
     1
270
     1
271
     1
  0
XRECORD
  5
15
102
{ACAD_REACTORS
330
12
102
}
330
12
100
AcDbXrecord
280
     1
270
     1
271
     1
  0
XRECORD
  5
188
102
{ACAD_REACTORS
330
22
102
}
330
22
100
AcDbXrecord
280
     1
102
MATERIAL
148
0.0
149
0.0
149
0.0
 93
        0
 94
      127
282
     0
 72
     0
 77
     0
171
     0
175
     0
179
     0
273
     0
  0
XRECORD
  5
24
102
{ACAD_REACTORS
330
22
102
}
330
22
100
AcDbXrecord
280
     1
270
     1
271
     1
  0
XRECORD
  5
23
102
{ACAD_REACTORS
330
22
102
}
330
22
100
AcDbXrecord
280
     1
270
     1
271
     1
  0
XRECORD
  5
27
102
{ACAD_REACTORS
330
22
102
}
330
22
100
AcDbXrecord
280
     1
270
     1
271
     1
  0
XRECORD
  5
26
102
{ACAD_REACTORS
330
22
102
}
330
22
100
AcDbXrecord
280
     1
270
     1
271
     1
  0
XRECORD
  5
28
102
{ACAD_REACTORS
330
22
102
}
330
22
100
AcDbXrecord
280
     1
270
     1
271
     1
  0
XRECORD
  5
25
102
{ACAD_REACTORS
330
22
102
}
330
22
100
AcDbXrecord
280
     1
270
     1
271
     1
  0
XRECORD
  5
1BC
102
{ACAD_REACTORS
330
1BB
102
}
330
1BB
100
AcDbXrecord
280
     1
102
ACAD_ROUNDTRIP_2012_MLEADER_STYLE
298
     1
  0
XRECORD
  5
1BE
102
{ACAD_REACTORS
330
1BD
102
}
330
1BD
100
AcDbXrecord
280
     1
102
DISPLAYNAME
  1
Imperial24
102
FLAGS
 90
        0
  0
CELLSTYLEMAP
  5
184
102
{ACAD_REACTORS
330
183
102
}
330
183
100
AcDbCellStyleMap
 90
        3
300
CELLSTYLE
  1
TABLEFORMAT_BEGIN
 90
        5
170
     1
 91
        0
 92
    32768
 62
   257
 93
        1
300
CONTENTFORMAT
  1
CONTENTFORMAT_BEGIN
 90
        0
 91
        0
 92
      512
 93
        0
300

 40
0.0
140
1.0
 94
        5
 62
     0
340
55
144
0.25
309
CONTENTFORMAT_END
171
     0
 94
        0
309
TABLEFORMAT_END
  1
CELLSTYLE_BEGIN
 90
        1
 91
        1
300
_TITLE
309
CELLSTYLE_END
300
CELLSTYLE
  1
TABLEFORMAT_BEGIN
 90
        5
170
     1
 91
        0
 92
        0
 62
   257
 93
        1
300
CONTENTFORMAT
  1
CONTENTFORMAT_BEGIN
 90
        0
 91
        0
 92
      512
 93
        0
300

 40
0.0
140
1.0
 94
        5
 62
     0
340
55
144
0.18
309
CONTENTFORMAT_END
171
     0
 94
        0
309
TABLEFORMAT_END
  1
CELLSTYLE_BEGIN
 90
        2
 91
        1
300
_HEADER
309
CELLSTYLE_END
300
CELLSTYLE
  1
TABLEFORMAT_BEGIN
 90
        5
170
     1
 91
        0
 92
        0
 62
   257
 93
        1
300
CONTENTFORMAT
  1
CONTENTFORMAT_BEGIN
 90
        0
 91
        0
 92
      512
 93
        0
300

 40
0.0
140
1.0
 94
        2
 62
     0
340
55
144
0.18
309
CONTENTFORMAT_END
171
     0
 94
        0
309
TABLEFORMAT_END
  1
CELLSTYLE_BEGIN
 90
        3
 91
        2
300
_DATA
309
CELLSTYLE_END
  0
XRECORD
  5
1B9
102
{ACAD_REACTORS
330
183
102
}
330
183
100
AcDbXrecord
280
     1
102
ACAD_ROUNDTRIP_PRE2007_TABLESTYLE
 90
      512
 91
        0
  1

 92
      512
 93
        0
  2

 94
      512
 95
        0
  3

  0
XRECORD
  5
194
102
{ACAD_REACTORS
330
193
102
}
330
193
100
AcDbXrecord
280
     1
102
RTVSPost2010Prop28
280
     1
102
RTVSPost2010PropOp28
 70
     1
102
RTVSPost2010Prop29
280
     1
102
RTVSPost2010PropOp29
 70
     1
102
RTVSPost2010Prop30
280
     0
102
RTVSPost2010PropOp30
 70
     1
102
RTVSPost2010Prop31
280
     0
102
RTVSPost2010PropOp31
 70
     1
102
RTVSPost2010Prop32
280
     0
102
RTVSPost2010PropOp32
 70
     1
102
RTVSPost2010Prop33
280
     0
102
RTVSPost2010PropOp33
 70
     1
102
RTVSPost2010Prop34
280
     0
102
RTVSPost2010PropOp34
 70
     1
102
RTVSPost2010Prop35
280
     0
102
RTVSPost2010PropOp35
 70
     1
102
RTVSPost2010Prop36
280
     0
102
RTVSPost2010PropOp36
 70
     1
102
RTVSPost2010Prop37
 90
       50
102
RTVSPost2010PropOp37
 70
     1
102
RTVSPost2010Prop38
140
0.0
102
RTVSPost2010PropOp38
 70
     1
102
RTVSPost2010Prop39
140
1.0
102
RTVSPost2010PropOp39
 70
     1
102
RTVSPost2010Prop40
 90
        0
102
RTVSPost2010PropOp40
 70
     1
102
RTVSPost2010Prop41ColorIndex
 90
       18
102
RTVSPost2010Prop41ColorRGB
 90
        0
102
RTVSPost2010PropOp41
 70
     1
102
RTVSPost2010Prop42
 90
       50
102
RTVSPost2010PropOp42
 70
     1
102
RTVSPost2010Prop43
 90
        3
102
RTVSPost2010PropOp43
 70
     1
102
RTVSPost2010Prop44ColorIndex
 90
        5
102
RTVSPost2010Prop44ColorRGB
 90
      255
102
RTVSPost2010PropOp44
 70
     1
102
RTVSPost2010Prop45
280
     0
102
RTVSPost2010PropOp45
 70
     1
102
RTVSPost2010Prop46
 90
       50
102
RTVSPost2010PropOp46
 70
     1
102
RTVSPost2010Prop47
 90
       50
102
RTVSPost2010PropOp47
 70
     1
102
RTVSPost2010Prop48
 90
       50
102
RTVSPost2010PropOp48
 70
     1
102
RTVSPost2010Prop49
280
     0
102
RTVSPost2010PropOp49
 70
     1
102
RTVSPost2010Prop50
 90
       50
102
RTVSPost2010PropOp50
 70
     1
102
RTVSPost2010Prop51ColorIndex
 90
      256
102
RTVSPost2010Prop51ColorRGB
 90
-16777216
102
RTVSPost2010PropOp51
 70
     0
102
RTVSPost2010Prop52
140
1.0
102
RTVSPost2010PropOp52
 70
     0
102
RTVSPost2010Prop53
 90
        2
102
RTVSPost2010PropOp53
 70
     1
102
RTVSPost2010Prop54
  1
strokes_ogs.tif
102
RTVSPost2010PropOp54
 70
     1
102
RTVSPost2010Prop55
280
     0
102
RTVSPost2010PropOp55
 70
     1
102
RTVSPost2010Prop56
140
1.0
102
RTVSPost2010PropOp56
 70
     1
102
RTVSPost2010Prop57
140
1.0
102
RTVSPost2010PropOp57
 70
     1
102
RTVSPropertyOp0
 70
     1
102
RTVSPropertyOp1
 70
     1
102
RTVSPropertyOp2
 70
     1
102
RTVSPropertyOp3
 70
     1
102
RTVSPropertyOp4
 70
     1
102
RTVSPropertyOp5
 70
     1
102
RTVSPropertyOp6
 70
     1
102
RTVSPropertyOp7
 70
     1
102
RTVSPropertyOp8
 70
     1
102
RTVSPropertyOp9
 70
     1
102
RTVSPropertyOp10
 70
     1
102
RTVSPropertyOp11
 70
     1
102
RTVSPropertyOp12
 70
     1
102
RTVSPropertyOp13
 70
     1
102
RTVSPropertyOp14
 70
     1
102
RTVSPropertyOp15
 70
     1
102
RTVSPropertyOp16
 70
     1
102
RTVSPropertyOp17
 70
     1
102
RTVSPropertyOp18
 70
     1
102
RTVSPropertyOp19
 70
     1
102
RTVSPropertyOp20
 70
     1
102
RTVSPropertyOp21
 70
     1
102
RTVSPropertyOp22
 70
     1
102
RTVSPropertyOp23
 70
     1
102
RTVSPropertyOp24
 70
     1
102
RTVSPropertyOp25
 70
     1
102
RTVSPropertyOp26
 70
     1
102
RTVSPropertyOp27
 70
     1
102
RTVSPropertyOp28
 70
     1
102
RTVSPropertyOp29
 70
     1
102
RTVSPropertyOp30
 70
     1
102
RTVSPropertyOp31
 70
     1
102
RTVSPropertyOp32
 70
     1
102
RTVSPropertyOp33
 70
     1
102
RTVSPropertyOp34
 70
     1
102
RTVSPropertyOp35
 70
     1
102
RTVSPropertyOp36
 70
     1
102
RTVSPropertyOp37
 70
     1
102
RTVSPropertyOp38
 70
     1
102
RTVSPropertyOp39
 70
     1
102
RTVSPropertyOp40
 70
     1
102
RTVSPropertyOp41
 70
     1
102
RTVSPropertyOp42
 70
     1
102
RTVSPropertyOp43
 70
     1
102
RTVSPropertyOp44
 70
     1
102
RTVSPropertyOp45
 70
     1
102
RTVSPropertyOp46
 70
     1
102
RTVSPropertyOp47
 70
     1
102
RTVSPropertyOp48
 70
     1
102
RTVSPropertyOp49
 70
     1
102
RTVSPropertyOp50
 70
     1
102
RTVSPropertyOp51
 70
     0
102
RTVSPropertyOp52
 70
     0
102
RTVSPropertyOp53
 70
     1
102
RTVSPropertyOp54
 70
     1
102
RTVSPropertyOp55
 70
     1
102
RTVSPropertyOp56
 70
     1
102
RTVSPropertyOp57
 70
     1
102
RTVSPropertyOp58
 70
     1
102
RTVSPropertyOp59
 70
     1
102
RTVSPropertyOp60
 70
     1
102
RTVSPropertyOp61
 70
     1
102
RTVSPropertyOp62
 70
     1
  0
XRECORD
  5
192
102
{ACAD_REACTORS
330
191
102
}
330
191
100
AcDbXrecord
280
     1
102
RTVSPost2010Prop28
280
     0
102
RTVSPost2010PropOp28
 70
     1
102
RTVSPost2010Prop29
280
     1
102
RTVSPost2010PropOp29
 70
     1
102
RTVSPost2010Prop30
280
     1
102
RTVSPost2010PropOp30
 70
     1
102
RTVSPost2010Prop31
280
     0
102
RTVSPost2010PropOp31
 70
     1
102
RTVSPost2010Prop32
280
     0
102
RTVSPost2010PropOp32
 70
     1
102
RTVSPost2010Prop33
280
     0
102
RTVSPost2010PropOp33
 70
     1
102
RTVSPost2010Prop34
280
     0
102
RTVSPost2010PropOp34
 70
     1
102
RTVSPost2010Prop35
280
     0
102
RTVSPost2010PropOp35
 70
     1
102
RTVSPost2010Prop36
280
     0
102
RTVSPost2010PropOp36
 70
     1
102
RTVSPost2010Prop37
 90
       50
102
RTVSPost2010PropOp37
 70
     1
102
RTVSPost2010Prop38
140
0.0
102
RTVSPost2010PropOp38
 70
     1
102
RTVSPost2010Prop39
140
1.0
102
RTVSPost2010PropOp39
 70
     1
102
RTVSPost2010Prop40
 90
        0
102
RTVSPost2010PropOp40
 70
     1
102
RTVSPost2010Prop41ColorIndex
 90
       18
102
RTVSPost2010Prop41ColorRGB
 90
        0
102
RTVSPost2010PropOp41
 70
     1
102
RTVSPost2010Prop42
 90
       50
102
RTVSPost2010PropOp42
 70
     1
102
RTVSPost2010Prop43
 90
        3
102
RTVSPost2010PropOp43
 70
     1
102
RTVSPost2010Prop44ColorIndex
 90
        5
102
RTVSPost2010Prop44ColorRGB
 90
      255
102
RTVSPost2010PropOp44
 70
     1
102
RTVSPost2010Prop45
280
     0
102
RTVSPost2010PropOp45
 70
     1
102
RTVSPost2010Prop46
 90
       50
102
RTVSPost2010PropOp46
 70
     1
102
RTVSPost2010Prop47
 90
       50
102
RTVSPost2010PropOp47
 70
     1
102
RTVSPost2010Prop48
 90
       50
102
RTVSPost2010PropOp48
 70
     1
102
RTVSPost2010Prop49
280
     0
102
RTVSPost2010PropOp49
 70
     1
102
RTVSPost2010Prop50
 90
       50
102
RTVSPost2010PropOp50
 70
     1
102
RTVSPost2010Prop51ColorIndex
 90
      256
102
RTVSPost2010Prop51ColorRGB
 90
-16777216
102
RTVSPost2010PropOp51
 70
     0
102
RTVSPost2010Prop52
140
1.0
102
RTVSPost2010PropOp52
 70
     0
102
RTVSPost2010Prop53
 90
        2
102
RTVSPost2010PropOp53
 70
     1
102
RTVSPost2010Prop54
  1
strokes_ogs.tif
102
RTVSPost2010PropOp54
 70
     1
102
RTVSPost2010Prop55
280
     0
102
RTVSPost2010PropOp55
 70
     1
102
RTVSPost2010Prop56
140
1.0
102
RTVSPost2010PropOp56
 70
     1
102
RTVSPost2010Prop57
140
1.0
102
RTVSPost2010PropOp57
 70
     1
102
RTVSPropertyOp0
 70
     1
102
RTVSPropertyOp1
 70
     1
102
RTVSPropertyOp2
 70
     1
102
RTVSPropertyOp3
 70
     1
102
RTVSPropertyOp4
 70
     1
102
RTVSPropertyOp5
 70
     1
102
RTVSPropertyOp6
 70
     1
102
RTVSPropertyOp7
 70
     1
102
RTVSPropertyOp8
 70
     1
102
RTVSPropertyOp9
 70
     1
102
RTVSPropertyOp10
 70
     1
102
RTVSPropertyOp11
 70
     1
102
RTVSPropertyOp12
 70
     1
102
RTVSPropertyOp13
 70
     1
102
RTVSPropertyOp14
 70
     1
102
RTVSPropertyOp15
 70
     1
102
RTVSPropertyOp16
 70
     1
102
RTVSPropertyOp17
 70
     1
102
RTVSPropertyOp18
 70
     1
102
RTVSPropertyOp19
 70
     1
102
RTVSPropertyOp20
 70
     1
102
RTVSPropertyOp21
 70
     1
102
RTVSPropertyOp22
 70
     1
102
RTVSPropertyOp23
 70
     1
102
RTVSPropertyOp24
 70
     1
102
RTVSPropertyOp25
 70
     1
102
RTVSPropertyOp26
 70
     1
102
RTVSPropertyOp27
 70
     1
102
RTVSPropertyOp28
 70
     1
102
RTVSPropertyOp29
 70
     1
102
RTVSPropertyOp30
 70
     1
102
RTVSPropertyOp31
 70
     1
102
RTVSPropertyOp32
 70
     1
102
RTVSPropertyOp33
 70
     1
102
RTVSPropertyOp34
 70
     1
102
RTVSPropertyOp35
 70
     1
102
RTVSPropertyOp36
 70
     1
102
RTVSPropertyOp37
 70
     1
102
RTVSPropertyOp38
 70
     1
102
RTVSPropertyOp39
 70
     1
102
RTVSPropertyOp40
 70
     1
102
RTVSPropertyOp41
 70
     1
102
RTVSPropertyOp42
 70
     1
102
RTVSPropertyOp43
 70
     1
102
RTVSPropertyOp44
 70
     1
102
RTVSPropertyOp45
 70
     1
102
RTVSPropertyOp46
 70
     1
102
RTVSPropertyOp47
 70
     1
102
RTVSPropertyOp48
 70
     1
102
RTVSPropertyOp49
 70
     1
102
RTVSPropertyOp50
 70
     1
102
RTVSPropertyOp51
 70
     0
102
RTVSPropertyOp52
 70
     0
102
RTVSPropertyOp53
 70
     1
102
RTVSPropertyOp54
 70
     1
102
RTVSPropertyOp55
 70
     1
102
RTVSPropertyOp56
 70
     1
102
RTVSPropertyOp57
 70
     1
102
RTVSPropertyOp58
 70
     1
102
RTVSPropertyOp59
 70
     1
102
RTVSPropertyOp60
 70
     1
102
RTVSPropertyOp61
 70
     1
102
RTVSPropertyOp62
 70
     1
  0
XRECORD
  5
1A0
102
{ACAD_REACTORS
330
19F
102
}
330
19F
100
AcDbXrecord
280
     1
102
RTVSPost2010Prop28
280
     0
102
RTVSPost2010PropOp28
 70
     1
102
RTVSPost2010Prop29
280
     1
102
RTVSPost2010PropOp29
 70
     1
102
RTVSPost2010Prop30
280
     1
102
RTVSPost2010PropOp30
 70
     1
102
RTVSPost2010Prop31
280
     0
102
RTVSPost2010PropOp31
 70
     1
102
RTVSPost2010Prop32
280
     0
102
RTVSPost2010PropOp32
 70
     1
102
RTVSPost2010Prop33
280
     0
102
RTVSPost2010PropOp33
 70
     1
102
RTVSPost2010Prop34
280
     0
102
RTVSPost2010PropOp34
 70
     1
102
RTVSPost2010Prop35
280
     0
102
RTVSPost2010PropOp35
 70
     1
102
RTVSPost2010Prop36
280
     0
102
RTVSPost2010PropOp36
 70
     1
102
RTVSPost2010Prop37
 90
       50
102
RTVSPost2010PropOp37
 70
     1
102
RTVSPost2010Prop38
140
0.0
102
RTVSPost2010PropOp38
 70
     1
102
RTVSPost2010Prop39
140
1.0
102
RTVSPost2010PropOp39
 70
     1
102
RTVSPost2010Prop40
 90
        0
102
RTVSPost2010PropOp40
 70
     1
102
RTVSPost2010Prop41ColorIndex
 90
       18
102
RTVSPost2010Prop41ColorRGB
 90
        0
102
RTVSPost2010PropOp41
 70
     1
102
RTVSPost2010Prop42
 90
       50
102
RTVSPost2010PropOp42
 70
     1
102
RTVSPost2010Prop43
 90
        3
102
RTVSPost2010PropOp43
 70
     1
102
RTVSPost2010Prop44ColorIndex
 90
        5
102
RTVSPost2010Prop44ColorRGB
 90
      255
102
RTVSPost2010PropOp44
 70
     1
102
RTVSPost2010Prop45
280
     0
102
RTVSPost2010PropOp45
 70
     1
102
RTVSPost2010Prop46
 90
       50
102
RTVSPost2010PropOp46
 70
     1
102
RTVSPost2010Prop47
 90
       50
102
RTVSPost2010PropOp47
 70
     1
102
RTVSPost2010Prop48
 90
       50
102
RTVSPost2010PropOp48
 70
     1
102
RTVSPost2010Prop49
280
     0
102
RTVSPost2010PropOp49
 70
     1
102
RTVSPost2010Prop50
 90
       50
102
RTVSPost2010PropOp50
 70
     1
102
RTVSPost2010Prop51ColorIndex
 90
      256
102
RTVSPost2010Prop51ColorRGB
 90
-16777216
102
RTVSPost2010PropOp51
 70
     0
102
RTVSPost2010Prop52
140
1.0
102
RTVSPost2010PropOp52
 70
     0
102
RTVSPost2010Prop53
 90
        2
102
RTVSPost2010PropOp53
 70
     1
102
RTVSPost2010Prop54
  1
strokes_ogs.tif
102
RTVSPost2010PropOp54
 70
     1
102
RTVSPost2010Prop55
280
     0
102
RTVSPost2010PropOp55
 70
     1
102
RTVSPost2010Prop56
140
1.0
102
RTVSPost2010PropOp56
 70
     1
102
RTVSPost2010Prop57
140
1.0
102
RTVSPost2010PropOp57
 70
     1
102
RTVSPropertyOp0
 70
     1
102
RTVSPropertyOp1
 70
     1
102
RTVSPropertyOp2
 70
     1
102
RTVSPropertyOp3
 70
     1
102
RTVSPropertyOp4
 70
     1
102
RTVSPropertyOp5
 70
     1
102
RTVSPropertyOp6
 70
     1
102
RTVSPropertyOp7
 70
     1
102
RTVSPropertyOp8
 70
     1
102
RTVSPropertyOp9
 70
     1
102
RTVSPropertyOp10
 70
     1
102
RTVSPropertyOp11
 70
     1
102
RTVSPropertyOp12
 70
     1
102
RTVSPropertyOp13
 70
     1
102
RTVSPropertyOp14
 70
     1
102
RTVSPropertyOp15
 70
     1
102
RTVSPropertyOp16
 70
     1
102
RTVSPropertyOp17
 70
     1
102
RTVSPropertyOp18
 70
     1
102
RTVSPropertyOp19
 70
     1
102
RTVSPropertyOp20
 70
     1
102
RTVSPropertyOp21
 70
     1
102
RTVSPropertyOp22
 70
     1
102
RTVSPropertyOp23
 70
     1
102
RTVSPropertyOp24
 70
     1
102
RTVSPropertyOp25
 70
     1
102
RTVSPropertyOp26
 70
     1
102
RTVSPropertyOp27
 70
     1
102
RTVSPropertyOp28
 70
     1
102
RTVSPropertyOp29
 70
     1
102
RTVSPropertyOp30
 70
     1
102
RTVSPropertyOp31
 70
     1
102
RTVSPropertyOp32
 70
     1
102
RTVSPropertyOp33
 70
     1
102
RTVSPropertyOp34
 70
     1
102
RTVSPropertyOp35
 70
     1
102
RTVSPropertyOp36
 70
     1
102
RTVSPropertyOp37
 70
     1
102
RTVSPropertyOp38
 70
     1
102
RTVSPropertyOp39
 70
     1
102
RTVSPropertyOp40
 70
     1
102
RTVSPropertyOp41
 70
     1
102
RTVSPropertyOp42
 70
     1
102
RTVSPropertyOp43
 70
     1
102
RTVSPropertyOp44
 70
     1
102
RTVSPropertyOp45
 70
     1
102
RTVSPropertyOp46
 70
     1
102
RTVSPropertyOp47
 70
     1
102
RTVSPropertyOp48
 70
     1
102
RTVSPropertyOp49
 70
     1
102
RTVSPropertyOp50
 70
     1
102
RTVSPropertyOp51
 70
     0
102
RTVSPropertyOp52
 70
     0
102
RTVSPropertyOp53
 70
     1
102
RTVSPropertyOp54
 70
     1
102
RTVSPropertyOp55
 70
     1
102
RTVSPropertyOp56
 70
     1
102
RTVSPropertyOp57
 70
     1
102
RTVSPropertyOp58
 70
     1
102
RTVSPropertyOp59
 70
     1
102
RTVSPropertyOp60
 70
     1
102
RTVSPropertyOp61
 70
     1
102
RTVSPropertyOp62
 70
     1
  0
XRECORD
  5
1A8
102
{ACAD_REACTORS
330
1A7
102
}
330
1A7
100
AcDbXrecord
280
     1
102
RTVSPost2010Prop28
280
     0
102
RTVSPost2010PropOp28
 70
     1
102
RTVSPost2010Prop29
280
     1
102
RTVSPost2010PropOp29
 70
     1
102
RTVSPost2010Prop30
280
     1
102
RTVSPost2010PropOp30
 70
     1
102
RTVSPost2010Prop31
280
     0
102
RTVSPost2010PropOp31
 70
     1
102
RTVSPost2010Prop32
280
     0
102
RTVSPost2010PropOp32
 70
     1
102
RTVSPost2010Prop33
280
     0
102
RTVSPost2010PropOp33
 70
     1
102
RTVSPost2010Prop34
280
     0
102
RTVSPost2010PropOp34
 70
     1
102
RTVSPost2010Prop35
280
     0
102
RTVSPost2010PropOp35
 70
     1
102
RTVSPost2010Prop36
280
     0
102
RTVSPost2010PropOp36
 70
     1
102
RTVSPost2010Prop37
 90
       50
102
RTVSPost2010PropOp37
 70
     1
102
RTVSPost2010Prop38
140
0.0
102
RTVSPost2010PropOp38
 70
     1
102
RTVSPost2010Prop39
140
1.0
102
RTVSPost2010PropOp39
 70
     1
102
RTVSPost2010Prop40
 90
        0
102
RTVSPost2010PropOp40
 70
     1
102
RTVSPost2010Prop41ColorIndex
 90
       18
102
RTVSPost2010Prop41ColorRGB
 90
        0
102
RTVSPost2010PropOp41
 70
     1
102
RTVSPost2010Prop42
 90
       50
102
RTVSPost2010PropOp42
 70
     1
102
RTVSPost2010Prop43
 90
        3
102
RTVSPost2010PropOp43
 70
     1
102
RTVSPost2010Prop44ColorIndex
 90
        5
102
RTVSPost2010Prop44ColorRGB
 90
      255
102
RTVSPost2010PropOp44
 70
     1
102
RTVSPost2010Prop45
280
     0
102
RTVSPost2010PropOp45
 70
     1
102
RTVSPost2010Prop46
 90
       50
102
RTVSPost2010PropOp46
 70
     1
102
RTVSPost2010Prop47
 90
       50
102
RTVSPost2010PropOp47
 70
     1
102
RTVSPost2010Prop48
 90
       50
102
RTVSPost2010PropOp48
 70
     1
102
RTVSPost2010Prop49
280
     0
102
RTVSPost2010PropOp49
 70
     1
102
RTVSPost2010Prop50
 90
       50
102
RTVSPost2010PropOp50
 70
     1
102
RTVSPost2010Prop51ColorIndex
 90
      256
102
RTVSPost2010Prop51ColorRGB
 90
-16777216
102
RTVSPost2010PropOp51
 70
     0
102
RTVSPost2010Prop52
140
1.0
102
RTVSPost2010PropOp52
 70
     0
102
RTVSPost2010Prop53
 90
        2
102
RTVSPost2010PropOp53
 70
     1
102
RTVSPost2010Prop54
  1
strokes_ogs.tif
102
RTVSPost2010PropOp54
 70
     1
102
RTVSPost2010Prop55
280
     0
102
RTVSPost2010PropOp55
 70
     1
102
RTVSPost2010Prop56
140
1.0
102
RTVSPost2010PropOp56
 70
     1
102
RTVSPost2010Prop57
140
1.0
102
RTVSPost2010PropOp57
 70
     1
102
RTVSPropertyOp0
 70
     1
102
RTVSPropertyOp1
 70
     1
102
RTVSPropertyOp2
 70
     1
102
RTVSPropertyOp3
 70
     1
102
RTVSPropertyOp4
 70
     1
102
RTVSPropertyOp5
 70
     1
102
RTVSPropertyOp6
 70
     1
102
RTVSPropertyOp7
 70
     1
102
RTVSPropertyOp8
 70
     1
102
RTVSPropertyOp9
 70
     1
102
RTVSPropertyOp10
 70
     1
102
RTVSPropertyOp11
 70
     1
102
RTVSPropertyOp12
 70
     1
102
RTVSPropertyOp13
 70
     1
102
RTVSPropertyOp14
 70
     1
102
RTVSPropertyOp15
 70
     1
102
RTVSPropertyOp16
 70
     1
102
RTVSPropertyOp17
 70
     1
102
RTVSPropertyOp18
 70
     1
102
RTVSPropertyOp19
 70
     1
102
RTVSPropertyOp20
 70
     1
102
RTVSPropertyOp21
 70
     1
102
RTVSPropertyOp22
 70
     1
102
RTVSPropertyOp23
 70
     1
102
RTVSPropertyOp24
 70
     1
102
RTVSPropertyOp25
 70
     1
102
RTVSPropertyOp26
 70
     1
102
RTVSPropertyOp27
 70
     1
102
RTVSPropertyOp28
 70
     1
102
RTVSPropertyOp29
 70
     1
102
RTVSPropertyOp30
 70
     1
102
RTVSPropertyOp31
 70
     1
102
RTVSPropertyOp32
 70
     1
102
RTVSPropertyOp33
 70
     1
102
RTVSPropertyOp34
 70
     1
102
RTVSPropertyOp35
 70
     1
102
RTVSPropertyOp36
 70
     1
102
RTVSPropertyOp37
 70
     1
102
RTVSPropertyOp38
 70
     1
102
RTVSPropertyOp39
 70
     1
102
RTVSPropertyOp40
 70
     1
102
RTVSPropertyOp41
 70
     1
102
RTVSPropertyOp42
 70
     1
102
RTVSPropertyOp43
 70
     1
102
RTVSPropertyOp44
 70
     1
102
RTVSPropertyOp45
 70
     1
102
RTVSPropertyOp46
 70
     1
102
RTVSPropertyOp47
 70
     1
102
RTVSPropertyOp48
 70
     1
102
RTVSPropertyOp49
 70
     1
102
RTVSPropertyOp50
 70
     1
102
RTVSPropertyOp51
 70
     0
102
RTVSPropertyOp52
 70
     0
102
RTVSPropertyOp53
 70
     1
102
RTVSPropertyOp54
 70
     1
102
RTVSPropertyOp55
 70
     1
102
RTVSPropertyOp56
 70
     1
102
RTVSPropertyOp57
 70
     1
102
RTVSPropertyOp58
 70
     1
102
RTVSPropertyOp59
 70
     1
102
RTVSPropertyOp60
 70
     1
102
RTVSPropertyOp61
 70
     1
102
RTVSPropertyOp62
 70
     1
  0
XRECORD
  5
19A
102
{ACAD_REACTORS
330
199
102
}
330
199
100
AcDbXrecord
280
     1
102
RTVSPost2010Prop28
280
     0
102
RTVSPost2010PropOp28
 70
     1
102
RTVSPost2010Prop29
280
     1
102
RTVSPost2010PropOp29
 70
     1
102
RTVSPost2010Prop30
280
     1
102
RTVSPost2010PropOp30
 70
     1
102
RTVSPost2010Prop31
280
     0
102
RTVSPost2010PropOp31
 70
     1
102
RTVSPost2010Prop32
280
     0
102
RTVSPost2010PropOp32
 70
     1
102
RTVSPost2010Prop33
280
     0
102
RTVSPost2010PropOp33
 70
     1
102
RTVSPost2010Prop34
280
     0
102
RTVSPost2010PropOp34
 70
     1
102
RTVSPost2010Prop35
280
     0
102
RTVSPost2010PropOp35
 70
     1
102
RTVSPost2010Prop36
280
     0
102
RTVSPost2010PropOp36
 70
     1
102
RTVSPost2010Prop37
 90
       50
102
RTVSPost2010PropOp37
 70
     1
102
RTVSPost2010Prop38
140
0.0
102
RTVSPost2010PropOp38
 70
     1
102
RTVSPost2010Prop39
140
1.0
102
RTVSPost2010PropOp39
 70
     1
102
RTVSPost2010Prop40
 90
        0
102
RTVSPost2010PropOp40
 70
     1
102
RTVSPost2010Prop41ColorIndex
 90
       18
102
RTVSPost2010Prop41ColorRGB
 90
        0
102
RTVSPost2010PropOp41
 70
     1
102
RTVSPost2010Prop42
 90
       50
102
RTVSPost2010PropOp42
 70
     1
102
RTVSPost2010Prop43
 90
        3
102
RTVSPost2010PropOp43
 70
     1
102
RTVSPost2010Prop44ColorIndex
 90
        5
102
RTVSPost2010Prop44ColorRGB
 90
      255
102
RTVSPost2010PropOp44
 70
     1
102
RTVSPost2010Prop45
280
     0
102
RTVSPost2010PropOp45
 70
     1
102
RTVSPost2010Prop46
 90
       50
102
RTVSPost2010PropOp46
 70
     1
102
RTVSPost2010Prop47
 90
       50
102
RTVSPost2010PropOp47
 70
     1
102
RTVSPost2010Prop48
 90
       50
102
RTVSPost2010PropOp48
 70
     1
102
RTVSPost2010Prop49
280
     0
102
RTVSPost2010PropOp49
 70
     1
102
RTVSPost2010Prop50
 90
       50
102
RTVSPost2010PropOp50
 70
     1
102
RTVSPost2010Prop51ColorIndex
 90
      256
102
RTVSPost2010Prop51ColorRGB
 90
-16777216
102
RTVSPost2010PropOp51
 70
     0
102
RTVSPost2010Prop52
140
1.0
102
RTVSPost2010PropOp52
 70
     0
102
RTVSPost2010Prop53
 90
        2
102
RTVSPost2010PropOp53
 70
     1
102
RTVSPost2010Prop54
  1
strokes_ogs.tif
102
RTVSPost2010PropOp54
 70
     1
102
RTVSPost2010Prop55
280
     0
102
RTVSPost2010PropOp55
 70
     1
102
RTVSPost2010Prop56
140
1.0
102
RTVSPost2010PropOp56
 70
     1
102
RTVSPost2010Prop57
140
1.0
102
RTVSPost2010PropOp57
 70
     1
102
RTVSPropertyOp0
 70
     1
102
RTVSPropertyOp1
 70
     1
102
RTVSPropertyOp2
 70
     1
102
RTVSPropertyOp3
 70
     1
102
RTVSPropertyOp4
 70
     1
102
RTVSPropertyOp5
 70
     1
102
RTVSPropertyOp6
 70
     1
102
RTVSPropertyOp7
 70
     1
102
RTVSPropertyOp8
 70
     1
102
RTVSPropertyOp9
 70
     1
102
RTVSPropertyOp10
 70
     1
102
RTVSPropertyOp11
 70
     1
102
RTVSPropertyOp12
 70
     1
102
RTVSPropertyOp13
 70
     1
102
RTVSPropertyOp14
 70
     1
102
RTVSPropertyOp15
 70
     1
102
RTVSPropertyOp16
 70
     1
102
RTVSPropertyOp17
 70
     1
102
RTVSPropertyOp18
 70
     1
102
RTVSPropertyOp19
 70
     1
102
RTVSPropertyOp20
 70
     1
102
RTVSPropertyOp21
 70
     1
102
RTVSPropertyOp22
 70
     1
102
RTVSPropertyOp23
 70
     1
102
RTVSPropertyOp24
 70
     1
102
RTVSPropertyOp25
 70
     1
102
RTVSPropertyOp26
 70
     1
102
RTVSPropertyOp27
 70
     1
102
RTVSPropertyOp28
 70
     1
102
RTVSPropertyOp29
 70
     1
102
RTVSPropertyOp30
 70
     1
102
RTVSPropertyOp31
 70
     1
102
RTVSPropertyOp32
 70
     1
102
RTVSPropertyOp33
 70
     1
102
RTVSPropertyOp34
 70
     1
102
RTVSPropertyOp35
 70
     1
102
RTVSPropertyOp36
 70
     1
102
RTVSPropertyOp37
 70
     1
102
RTVSPropertyOp38
 70
     1
102
RTVSPropertyOp39
 70
     1
102
RTVSPropertyOp40
 70
     1
102
RTVSPropertyOp41
 70
     1
102
RTVSPropertyOp42
 70
     1
102
RTVSPropertyOp43
 70
     1
102
RTVSPropertyOp44
 70
     1
102
RTVSPropertyOp45
 70
     1
102
RTVSPropertyOp46
 70
     1
102
RTVSPropertyOp47
 70
     1
102
RTVSPropertyOp48
 70
     1
102
RTVSPropertyOp49
 70
     1
102
RTVSPropertyOp50
 70
     1
102
RTVSPropertyOp51
 70
     0
102
RTVSPropertyOp52
 70
     0
102
RTVSPropertyOp53
 70
     1
102
RTVSPropertyOp54
 70
     1
102
RTVSPropertyOp55
 70
     1
102
RTVSPropertyOp56
 70
     1
102
RTVSPropertyOp57
 70
     1
102
RTVSPropertyOp58
 70
     1
102
RTVSPropertyOp59
 70
     1
102
RTVSPropertyOp60
 70
     1
102
RTVSPropertyOp61
 70
     1
102
RTVSPropertyOp62
 70
     1
  0
XRECORD
  5
19E
102
{ACAD_REACTORS
330
19D
102
}
330
19D
100
AcDbXrecord
280
     1
102
RTVSPost2010Prop28
280
     0
102
RTVSPost2010PropOp28
 70
     1
102
RTVSPost2010Prop29
280
     1
102
RTVSPost2010PropOp29
 70
     1
102
RTVSPost2010Prop30
280
     1
102
RTVSPost2010PropOp30
 70
     1
102
RTVSPost2010Prop31
280
     0
102
RTVSPost2010PropOp31
 70
     1
102
RTVSPost2010Prop32
280
     0
102
RTVSPost2010PropOp32
 70
     1
102
RTVSPost2010Prop33
280
     0
102
RTVSPost2010PropOp33
 70
     1
102
RTVSPost2010Prop34
280
     0
102
RTVSPost2010PropOp34
 70
     1
102
RTVSPost2010Prop35
280
     0
102
RTVSPost2010PropOp35
 70
     1
102
RTVSPost2010Prop36
280
     0
102
RTVSPost2010PropOp36
 70
     1
102
RTVSPost2010Prop37
 90
       50
102
RTVSPost2010PropOp37
 70
     1
102
RTVSPost2010Prop38
140
0.0
102
RTVSPost2010PropOp38
 70
     1
102
RTVSPost2010Prop39
140
1.0
102
RTVSPost2010PropOp39
 70
     1
102
RTVSPost2010Prop40
 90
        0
102
RTVSPost2010PropOp40
 70
     1
102
RTVSPost2010Prop41ColorIndex
 90
       18
102
RTVSPost2010Prop41ColorRGB
 90
        0
102
RTVSPost2010PropOp41
 70
     1
102
RTVSPost2010Prop42
 90
       50
102
RTVSPost2010PropOp42
 70
     1
102
RTVSPost2010Prop43
 90
        3
102
RTVSPost2010PropOp43
 70
     1
102
RTVSPost2010Prop44ColorIndex
 90
        5
102
RTVSPost2010Prop44ColorRGB
 90
      255
102
RTVSPost2010PropOp44
 70
     1
102
RTVSPost2010Prop45
280
     0
102
RTVSPost2010PropOp45
 70
     1
102
RTVSPost2010Prop46
 90
       50
102
RTVSPost2010PropOp46
 70
     1
102
RTVSPost2010Prop47
 90
       50
102
RTVSPost2010PropOp47
 70
     1
102
RTVSPost2010Prop48
 90
       50
102
RTVSPost2010PropOp48
 70
     1
102
RTVSPost2010Prop49
280
     0
102
RTVSPost2010PropOp49
 70
     1
102
RTVSPost2010Prop50
 90
       50
102
RTVSPost2010PropOp50
 70
     1
102
RTVSPost2010Prop51ColorIndex
 90
      256
102
RTVSPost2010Prop51ColorRGB
 90
-16777216
102
RTVSPost2010PropOp51
 70
     0
102
RTVSPost2010Prop52
140
1.0
102
RTVSPost2010PropOp52
 70
     0
102
RTVSPost2010Prop53
 90
        2
102
RTVSPost2010PropOp53
 70
     1
102
RTVSPost2010Prop54
  1
strokes_ogs.tif
102
RTVSPost2010PropOp54
 70
     1
102
RTVSPost2010Prop55
280
     0
102
RTVSPost2010PropOp55
 70
     1
102
RTVSPost2010Prop56
140
1.0
102
RTVSPost2010PropOp56
 70
     1
102
RTVSPost2010Prop57
140
1.0
102
RTVSPost2010PropOp57
 70
     1
102
RTVSPropertyOp0
 70
     1
102
RTVSPropertyOp1
 70
     1
102
RTVSPropertyOp2
 70
     1
102
RTVSPropertyOp3
 70
     1
102
RTVSPropertyOp4
 70
     1
102
RTVSPropertyOp5
 70
     1
102
RTVSPropertyOp6
 70
     1
102
RTVSPropertyOp7
 70
     1
102
RTVSPropertyOp8
 70
     1
102
RTVSPropertyOp9
 70
     1
102
RTVSPropertyOp10
 70
     1
102
RTVSPropertyOp11
 70
     1
102
RTVSPropertyOp12
 70
     1
102
RTVSPropertyOp13
 70
     1
102
RTVSPropertyOp14
 70
     1
102
RTVSPropertyOp15
 70
     1
102
RTVSPropertyOp16
 70
     1
102
RTVSPropertyOp17
 70
     1
102
RTVSPropertyOp18
 70
     1
102
RTVSPropertyOp19
 70
     1
102
RTVSPropertyOp20
 70
     1
102
RTVSPropertyOp21
 70
     1
102
RTVSPropertyOp22
 70
     1
102
RTVSPropertyOp23
 70
     1
102
RTVSPropertyOp24
 70
     1
102
RTVSPropertyOp25
 70
     1
102
RTVSPropertyOp26
 70
     1
102
RTVSPropertyOp27
 70
     1
102
RTVSPropertyOp28
 70
     1
102
RTVSPropertyOp29
 70
     1
102
RTVSPropertyOp30
 70
     1
102
RTVSPropertyOp31
 70
     1
102
RTVSPropertyOp32
 70
     1
102
RTVSPropertyOp33
 70
     1
102
RTVSPropertyOp34
 70
     1
102
RTVSPropertyOp35
 70
     1
102
RTVSPropertyOp36
 70
     1
102
RTVSPropertyOp37
 70
     1
102
RTVSPropertyOp38
 70
     1
102
RTVSPropertyOp39
 70
     1
102
RTVSPropertyOp40
 70
     1
102
RTVSPropertyOp41
 70
     1
102
RTVSPropertyOp42
 70
     1
102
RTVSPropertyOp43
 70
     1
102
RTVSPropertyOp44
 70
     1
102
RTVSPropertyOp45
 70
     1
102
RTVSPropertyOp46
 70
     1
102
RTVSPropertyOp47
 70
     1
102
RTVSPropertyOp48
 70
     1
102
RTVSPropertyOp49
 70
     1
102
RTVSPropertyOp50
 70
     1
102
RTVSPropertyOp51
 70
     0
102
RTVSPropertyOp52
 70
     0
102
RTVSPropertyOp53
 70
     1
102
RTVSPropertyOp54
 70
     1
102
RTVSPropertyOp55
 70
     1
102
RTVSPropertyOp56
 70
     1
102
RTVSPropertyOp57
 70
     1
102
RTVSPropertyOp58
 70
     1
102
RTVSPropertyOp59
 70
     1
102
RTVSPropertyOp60
 70
     1
102
RTVSPropertyOp61
 70
     1
102
RTVSPropertyOp62
 70
     1
  0
XRECORD
  5
1B8
102
{ACAD_REACTORS
330
1B7
102
}
330
1B7
100
AcDbXrecord
280
     1
102
RTVSPost2010Prop28
280
     0
102
RTVSPost2010PropOp28
 70
     0
102
RTVSPost2010Prop29
280
     1
102
RTVSPost2010PropOp29
 70
     0
102
RTVSPost2010Prop30
280
     1
102
RTVSPost2010PropOp30
 70
     0
102
RTVSPost2010Prop31
280
     0
102
RTVSPost2010PropOp31
 70
     0
102
RTVSPost2010Prop32
280
     0
102
RTVSPost2010PropOp32
 70
     0
102
RTVSPost2010Prop33
280
     0
102
RTVSPost2010PropOp33
 70
     0
102
RTVSPost2010Prop34
280
     0
102
RTVSPost2010PropOp34
 70
     0
102
RTVSPost2010Prop35
280
     0
102
RTVSPost2010PropOp35
 70
     0
102
RTVSPost2010Prop36
280
     0
102
RTVSPost2010PropOp36
 70
     0
102
RTVSPost2010Prop37
 90
       50
102
RTVSPost2010PropOp37
 70
     0
102
RTVSPost2010Prop38
140
0.0
102
RTVSPost2010PropOp38
 70
     0
102
RTVSPost2010Prop39
140
1.0
102
RTVSPost2010PropOp39
 70
     0
102
RTVSPost2010Prop40
 90
        0
102
RTVSPost2010PropOp40
 70
     0
102
RTVSPost2010Prop41ColorIndex
 90
       18
102
RTVSPost2010Prop41ColorRGB
 90
        0
102
RTVSPost2010PropOp41
 70
     0
102
RTVSPost2010Prop42
 90
       50
102
RTVSPost2010PropOp42
 70
     0
102
RTVSPost2010Prop43
 90
        3
102
RTVSPost2010PropOp43
 70
     0
102
RTVSPost2010Prop44ColorIndex
 90
        5
102
RTVSPost2010Prop44ColorRGB
 90
      255
102
RTVSPost2010PropOp44
 70
     0
102
RTVSPost2010Prop45
280
     0
102
RTVSPost2010PropOp45
 70
     0
102
RTVSPost2010Prop46
 90
       50
102
RTVSPost2010PropOp46
 70
     0
102
RTVSPost2010Prop47
 90
       50
102
RTVSPost2010PropOp47
 70
     0
102
RTVSPost2010Prop48
 90
       50
102
RTVSPost2010PropOp48
 70
     0
102
RTVSPost2010Prop49
280
     0
102
RTVSPost2010PropOp49
 70
     0
102
RTVSPost2010Prop50
 90
       50
102
RTVSPost2010PropOp50
 70
     0
102
RTVSPost2010Prop51ColorIndex
 90
      256
102
RTVSPost2010Prop51ColorRGB
 90
-16777216
102
RTVSPost2010PropOp51
 70
     0
102
RTVSPost2010Prop52
140
1.0
102
RTVSPost2010PropOp52
 70
     0
102
RTVSPost2010Prop53
 90
        2
102
RTVSPost2010PropOp53
 70
     0
102
RTVSPost2010Prop54
  1
strokes_ogs.tif
102
RTVSPost2010PropOp54
 70
     0
102
RTVSPost2010Prop55
280
     0
102
RTVSPost2010PropOp55
 70
     0
102
RTVSPost2010Prop56
140
1.0
102
RTVSPost2010PropOp56
 70
     0
102
RTVSPost2010Prop57
140
1.0
102
RTVSPost2010PropOp57
 70
     0
102
RTVSPropertyOp0
 70
     0
102
RTVSPropertyOp1
 70
     0
102
RTVSPropertyOp2
 70
     0
102
RTVSPropertyOp3
 70
     0
102
RTVSPropertyOp4
 70
     0
102
RTVSPropertyOp5
 70
     0
102
RTVSPropertyOp6
 70
     0
102
RTVSPropertyOp7
 70
     0
102
RTVSPropertyOp8
 70
     0
102
RTVSPropertyOp9
 70
     0
102
RTVSPropertyOp10
 70
     0
102
RTVSPropertyOp11
 70
     0
102
RTVSPropertyOp12
 70
     0
102
RTVSPropertyOp13
 70
     0
102
RTVSPropertyOp14
 70
     2
102
RTVSPropertyOp15
 70
     0
102
RTVSPropertyOp16
 70
     0
102
RTVSPropertyOp17
 70
     0
102
RTVSPropertyOp18
 70
     0
102
RTVSPropertyOp19
 70
     0
102
RTVSPropertyOp20
 70
     0
102
RTVSPropertyOp21
 70
     0
102
RTVSPropertyOp22
 70
     0
102
RTVSPropertyOp23
 70
     0
102
RTVSPropertyOp24
 70
     0
102
RTVSPropertyOp25
 70
     0
102
RTVSPropertyOp26
 70
     0
102
RTVSPropertyOp27
 70
     0
102
RTVSPropertyOp28
 70
     0
102
RTVSPropertyOp29
 70
     0
102
RTVSPropertyOp30
 70
     0
102
RTVSPropertyOp31
 70
     0
102
RTVSPropertyOp32
 70
     0
102
RTVSPropertyOp33
 70
     0
102
RTVSPropertyOp34
 70
     0
102
RTVSPropertyOp35
 70
     0
102
RTVSPropertyOp36
 70
     0
102
RTVSPropertyOp37
 70
     0
102
RTVSPropertyOp38
 70
     0
102
RTVSPropertyOp39
 70
     0
102
RTVSPropertyOp40
 70
     0
102
RTVSPropertyOp41
 70
     0
102
RTVSPropertyOp42
 70
     0
102
RTVSPropertyOp43
 70
     0
102
RTVSPropertyOp44
 70
     0
102
RTVSPropertyOp45
 70
     0
102
RTVSPropertyOp46
 70
     0
102
RTVSPropertyOp47
 70
     0
102
RTVSPropertyOp48
 70
     0
102
RTVSPropertyOp49
 70
     0
102
RTVSPropertyOp50
 70
     0
102
RTVSPropertyOp51
 70
     0
102
RTVSPropertyOp52
 70
     0
102
RTVSPropertyOp53
 70
     0
102
RTVSPropertyOp54
 70
     0
102
RTVSPropertyOp55
 70
     0
102
RTVSPropertyOp56
 70
     0
102
RTVSPropertyOp57
 70
     0
102
RTVSPropertyOp58
 70
     0
102
RTVSPropertyOp59
 70
     0
102
RTVSPropertyOp60
 70
     0
102
RTVSPropertyOp61
 70
     0
102
RTVSPropertyOp62
 70
     0
  0
XRECORD
  5
1A6
102
{ACAD_REACTORS
330
1A5
102
}
330
1A5
100
AcDbXrecord
280
     1
102
RTVSPost2010Prop28
280
     0
102
RTVSPost2010PropOp28
 70
     1
102
RTVSPost2010Prop29
280
     1
102
RTVSPost2010PropOp29
 70
     1
102
RTVSPost2010Prop30
280
     1
102
RTVSPost2010PropOp30
 70
     1
102
RTVSPost2010Prop31
280
     0
102
RTVSPost2010PropOp31
 70
     1
102
RTVSPost2010Prop32
280
     0
102
RTVSPost2010PropOp32
 70
     1
102
RTVSPost2010Prop33
280
     0
102
RTVSPost2010PropOp33
 70
     1
102
RTVSPost2010Prop34
280
     0
102
RTVSPost2010PropOp34
 70
     1
102
RTVSPost2010Prop35
280
     0
102
RTVSPost2010PropOp35
 70
     1
102
RTVSPost2010Prop36
280
     0
102
RTVSPost2010PropOp36
 70
     1
102
RTVSPost2010Prop37
 90
       50
102
RTVSPost2010PropOp37
 70
     1
102
RTVSPost2010Prop38
140
0.0
102
RTVSPost2010PropOp38
 70
     1
102
RTVSPost2010Prop39
140
1.0
102
RTVSPost2010PropOp39
 70
     1
102
RTVSPost2010Prop40
 90
        0
102
RTVSPost2010PropOp40
 70
     1
102
RTVSPost2010Prop41ColorIndex
 90
       18
102
RTVSPost2010Prop41ColorRGB
 90
        0
102
RTVSPost2010PropOp41
 70
     1
102
RTVSPost2010Prop42
 90
       50
102
RTVSPost2010PropOp42
 70
     1
102
RTVSPost2010Prop43
 90
        3
102
RTVSPost2010PropOp43
 70
     1
102
RTVSPost2010Prop44ColorIndex
 90
        5
102
RTVSPost2010Prop44ColorRGB
 90
      255
102
RTVSPost2010PropOp44
 70
     1
102
RTVSPost2010Prop45
280
     0
102
RTVSPost2010PropOp45
 70
     1
102
RTVSPost2010Prop46
 90
       50
102
RTVSPost2010PropOp46
 70
     1
102
RTVSPost2010Prop47
 90
       50
102
RTVSPost2010PropOp47
 70
     1
102
RTVSPost2010Prop48
 90
       50
102
RTVSPost2010PropOp48
 70
     1
102
RTVSPost2010Prop49
280
     0
102
RTVSPost2010PropOp49
 70
     1
102
RTVSPost2010Prop50
 90
       50
102
RTVSPost2010PropOp50
 70
     1
102
RTVSPost2010Prop51ColorIndex
 90
      256
102
RTVSPost2010Prop51ColorRGB
 90
-16777216
102
RTVSPost2010PropOp51
 70
     0
102
RTVSPost2010Prop52
140
1.0
102
RTVSPost2010PropOp52
 70
     0
102
RTVSPost2010Prop53
 90
        2
102
RTVSPost2010PropOp53
 70
     1
102
RTVSPost2010Prop54
  1
strokes_ogs.tif
102
RTVSPost2010PropOp54
 70
     1
102
RTVSPost2010Prop55
280
     0
102
RTVSPost2010PropOp55
 70
     1
102
RTVSPost2010Prop56
140
1.0
102
RTVSPost2010PropOp56
 70
     1
102
RTVSPost2010Prop57
140
1.0
102
RTVSPost2010PropOp57
 70
     1
102
RTVSPropertyOp0
 70
     1
102
RTVSPropertyOp1
 70
     1
102
RTVSPropertyOp2
 70
     1
102
RTVSPropertyOp3
 70
     1
102
RTVSPropertyOp4
 70
     1
102
RTVSPropertyOp5
 70
     1
102
RTVSPropertyOp6
 70
     1
102
RTVSPropertyOp7
 70
     1
102
RTVSPropertyOp8
 70
     1
102
RTVSPropertyOp9
 70
     1
102
RTVSPropertyOp10
 70
     1
102
RTVSPropertyOp11
 70
     1
102
RTVSPropertyOp12
 70
     1
102
RTVSPropertyOp13
 70
     1
102
RTVSPropertyOp14
 70
     1
102
RTVSPropertyOp15
 70
     1
102
RTVSPropertyOp16
 70
     1
102
RTVSPropertyOp17
 70
     1
102
RTVSPropertyOp18
 70
     1
102
RTVSPropertyOp19
 70
     1
102
RTVSPropertyOp20
 70
     1
102
RTVSPropertyOp21
 70
     1
102
RTVSPropertyOp22
 70
     1
102
RTVSPropertyOp23
 70
     1
102
RTVSPropertyOp24
 70
     1
102
RTVSPropertyOp25
 70
     1
102
RTVSPropertyOp26
 70
     1
102
RTVSPropertyOp27
 70
     1
102
RTVSPropertyOp28
 70
     1
102
RTVSPropertyOp29
 70
     1
102
RTVSPropertyOp30
 70
     1
102
RTVSPropertyOp31
 70
     1
102
RTVSPropertyOp32
 70
     1
102
RTVSPropertyOp33
 70
     1
102
RTVSPropertyOp34
 70
     1
102
RTVSPropertyOp35
 70
     1
102
RTVSPropertyOp36
 70
     1
102
RTVSPropertyOp37
 70
     1
102
RTVSPropertyOp38
 70
     1
102
RTVSPropertyOp39
 70
     1
102
RTVSPropertyOp40
 70
     1
102
RTVSPropertyOp41
 70
     1
102
RTVSPropertyOp42
 70
     1
102
RTVSPropertyOp43
 70
     1
102
RTVSPropertyOp44
 70
     1
102
RTVSPropertyOp45
 70
     1
102
RTVSPropertyOp46
 70
     1
102
RTVSPropertyOp47
 70
     1
102
RTVSPropertyOp48
 70
     1
102
RTVSPropertyOp49
 70
     1
102
RTVSPropertyOp50
 70
     1
102
RTVSPropertyOp51
 70
     0
102
RTVSPropertyOp52
 70
     0
102
RTVSPropertyOp53
 70
     1
102
RTVSPropertyOp54
 70
     1
102
RTVSPropertyOp55
 70
     1
102
RTVSPropertyOp56
 70
     1
102
RTVSPropertyOp57
 70
     1
102
RTVSPropertyOp58
 70
     1
102
RTVSPropertyOp59
 70
     1
102
RTVSPropertyOp60
 70
     1
102
RTVSPropertyOp61
 70
     1
102
RTVSPropertyOp62
 70
     1
  0
XRECORD
  5
18A
102
{ACAD_REACTORS
330
189
102
}
330
189
100
AcDbXrecord
280
     1
102
RTVSPost2010Prop28
280
     0
102
RTVSPost2010PropOp28
 70
     1
102
RTVSPost2010Prop29
280
     1
102
RTVSPost2010PropOp29
 70
     1
102
RTVSPost2010Prop30
280
     1
102
RTVSPost2010PropOp30
 70
     1
102
RTVSPost2010Prop31
280
     0
102
RTVSPost2010PropOp31
 70
     1
102
RTVSPost2010Prop32
280
     0
102
RTVSPost2010PropOp32
 70
     1
102
RTVSPost2010Prop33
280
     0
102
RTVSPost2010PropOp33
 70
     1
102
RTVSPost2010Prop34
280
     0
102
RTVSPost2010PropOp34
 70
     1
102
RTVSPost2010Prop35
280
     0
102
RTVSPost2010PropOp35
 70
     1
102
RTVSPost2010Prop36
280
     0
102
RTVSPost2010PropOp36
 70
     1
102
RTVSPost2010Prop37
 90
       50
102
RTVSPost2010PropOp37
 70
     1
102
RTVSPost2010Prop38
140
0.0
102
RTVSPost2010PropOp38
 70
     1
102
RTVSPost2010Prop39
140
1.0
102
RTVSPost2010PropOp39
 70
     1
102
RTVSPost2010Prop40
 90
        0
102
RTVSPost2010PropOp40
 70
     1
102
RTVSPost2010Prop41ColorIndex
 90
       18
102
RTVSPost2010Prop41ColorRGB
 90
        0
102
RTVSPost2010PropOp41
 70
     1
102
RTVSPost2010Prop42
 90
       50
102
RTVSPost2010PropOp42
 70
     1
102
RTVSPost2010Prop43
 90
        3
102
RTVSPost2010PropOp43
 70
     1
102
RTVSPost2010Prop44ColorIndex
 90
        5
102
RTVSPost2010Prop44ColorRGB
 90
      255
102
RTVSPost2010PropOp44
 70
     1
102
RTVSPost2010Prop45
280
     0
102
RTVSPost2010PropOp45
 70
     1
102
RTVSPost2010Prop46
 90
       50
102
RTVSPost2010PropOp46
 70
     1
102
RTVSPost2010Prop47
 90
       50
102
RTVSPost2010PropOp47
 70
     1
102
RTVSPost2010Prop48
 90
       50
102
RTVSPost2010PropOp48
 70
     1
102
RTVSPost2010Prop49
280
     0
102
RTVSPost2010PropOp49
 70
     1
102
RTVSPost2010Prop50
 90
       50
102
RTVSPost2010PropOp50
 70
     1
102
RTVSPost2010Prop51ColorIndex
 90
      256
102
RTVSPost2010Prop51ColorRGB
 90
-16777216
102
RTVSPost2010PropOp51
 70
     0
102
RTVSPost2010Prop52
140
1.0
102
RTVSPost2010PropOp52
 70
     0
102
RTVSPost2010Prop53
 90
        2
102
RTVSPost2010PropOp53
 70
     1
102
RTVSPost2010Prop54
  1
strokes_ogs.tif
102
RTVSPost2010PropOp54
 70
     1
102
RTVSPost2010Prop55
280
     0
102
RTVSPost2010PropOp55
 70
     1
102
RTVSPost2010Prop56
140
1.0
102
RTVSPost2010PropOp56
 70
     1
102
RTVSPost2010Prop57
140
1.0
102
RTVSPost2010PropOp57
 70
     1
102
RTVSPropertyOp0
 70
     1
102
RTVSPropertyOp1
 70
     1
102
RTVSPropertyOp2
 70
     1
102
RTVSPropertyOp3
 70
     1
102
RTVSPropertyOp4
 70
     1
102
RTVSPropertyOp5
 70
     1
102
RTVSPropertyOp6
 70
     1
102
RTVSPropertyOp7
 70
     1
102
RTVSPropertyOp8
 70
     1
102
RTVSPropertyOp9
 70
     1
102
RTVSPropertyOp10
 70
     1
102
RTVSPropertyOp11
 70
     1
102
RTVSPropertyOp12
 70
     1
102
RTVSPropertyOp13
 70
     1
102
RTVSPropertyOp14
 70
     1
102
RTVSPropertyOp15
 70
     1
102
RTVSPropertyOp16
 70
     1
102
RTVSPropertyOp17
 70
     1
102
RTVSPropertyOp18
 70
     1
102
RTVSPropertyOp19
 70
     1
102
RTVSPropertyOp20
 70
     1
102
RTVSPropertyOp21
 70
     1
102
RTVSPropertyOp22
 70
     1
102
RTVSPropertyOp23
 70
     1
102
RTVSPropertyOp24
 70
     1
102
RTVSPropertyOp25
 70
     1
102
RTVSPropertyOp26
 70
     1
102
RTVSPropertyOp27
 70
     1
102
RTVSPropertyOp28
 70
     1
102
RTVSPropertyOp29
 70
     1
102
RTVSPropertyOp30
 70
     1
102
RTVSPropertyOp31
 70
     1
102
RTVSPropertyOp32
 70
     1
102
RTVSPropertyOp33
 70
     1
102
RTVSPropertyOp34
 70
     1
102
RTVSPropertyOp35
 70
     1
102
RTVSPropertyOp36
 70
     1
102
RTVSPropertyOp37
 70
     1
102
RTVSPropertyOp38
 70
     1
102
RTVSPropertyOp39
 70
     1
102
RTVSPropertyOp40
 70
     1
102
RTVSPropertyOp41
 70
     1
102
RTVSPropertyOp42
 70
     1
102
RTVSPropertyOp43
 70
     1
102
RTVSPropertyOp44
 70
     1
102
RTVSPropertyOp45
 70
     1
102
RTVSPropertyOp46
 70
     1
102
RTVSPropertyOp47
 70
     1
102
RTVSPropertyOp48
 70
     1
102
RTVSPropertyOp49
 70
     1
102
RTVSPropertyOp50
 70
     1
102
RTVSPropertyOp51
 70
     0
102
RTVSPropertyOp52
 70
     0
102
RTVSPropertyOp53
 70
     1
102
RTVSPropertyOp54
 70
     1
102
RTVSPropertyOp55
 70
     1
102
RTVSPropertyOp56
 70
     1
102
RTVSPropertyOp57
 70
     1
102
RTVSPropertyOp58
 70
     1
102
RTVSPropertyOp59
 70
     1
102
RTVSPropertyOp60
 70
     1
102
RTVSPropertyOp61
 70
     1
102
RTVSPropertyOp62
 70
     1
  0
XRECORD
  5
18C
102
{ACAD_REACTORS
330
18B
102
}
330
18B
100
AcDbXrecord
280
     1
102
RTVSPost2010Prop28
280
     0
102
RTVSPost2010PropOp28
 70
     1
102
RTVSPost2010Prop29
280
     1
102
RTVSPost2010PropOp29
 70
     1
102
RTVSPost2010Prop30
280
     1
102
RTVSPost2010PropOp30
 70
     1
102
RTVSPost2010Prop31
280
     0
102
RTVSPost2010PropOp31
 70
     1
102
RTVSPost2010Prop32
280
     0
102
RTVSPost2010PropOp32
 70
     1
102
RTVSPost2010Prop33
280
     0
102
RTVSPost2010PropOp33
 70
     1
102
RTVSPost2010Prop34
280
     0
102
RTVSPost2010PropOp34
 70
     1
102
RTVSPost2010Prop35
280
     0
102
RTVSPost2010PropOp35
 70
     1
102
RTVSPost2010Prop36
280
     0
102
RTVSPost2010PropOp36
 70
     1
102
RTVSPost2010Prop37
 90
       50
102
RTVSPost2010PropOp37
 70
     1
102
RTVSPost2010Prop38
140
0.0
102
RTVSPost2010PropOp38
 70
     1
102
RTVSPost2010Prop39
140
1.0
102
RTVSPost2010PropOp39
 70
     1
102
RTVSPost2010Prop40
 90
        0
102
RTVSPost2010PropOp40
 70
     1
102
RTVSPost2010Prop41ColorIndex
 90
       18
102
RTVSPost2010Prop41ColorRGB
 90
        0
102
RTVSPost2010PropOp41
 70
     1
102
RTVSPost2010Prop42
 90
       50
102
RTVSPost2010PropOp42
 70
     1
102
RTVSPost2010Prop43
 90
        3
102
RTVSPost2010PropOp43
 70
     1
102
RTVSPost2010Prop44ColorIndex
 90
        5
102
RTVSPost2010Prop44ColorRGB
 90
      255
102
RTVSPost2010PropOp44
 70
     1
102
RTVSPost2010Prop45
280
     0
102
RTVSPost2010PropOp45
 70
     1
102
RTVSPost2010Prop46
 90
       50
102
RTVSPost2010PropOp46
 70
     1
102
RTVSPost2010Prop47
 90
       50
102
RTVSPost2010PropOp47
 70
     1
102
RTVSPost2010Prop48
 90
       50
102
RTVSPost2010PropOp48
 70
     1
102
RTVSPost2010Prop49
280
     0
102
RTVSPost2010PropOp49
 70
     1
102
RTVSPost2010Prop50
 90
       50
102
RTVSPost2010PropOp50
 70
     1
102
RTVSPost2010Prop51ColorIndex
 90
      256
102
RTVSPost2010Prop51ColorRGB
 90
-16777216
102
RTVSPost2010PropOp51
 70
     0
102
RTVSPost2010Prop52
140
1.0
102
RTVSPost2010PropOp52
 70
     0
102
RTVSPost2010Prop53
 90
        2
102
RTVSPost2010PropOp53
 70
     1
102
RTVSPost2010Prop54
  1
strokes_ogs.tif
102
RTVSPost2010PropOp54
 70
     1
102
RTVSPost2010Prop55
280
     0
102
RTVSPost2010PropOp55
 70
     1
102
RTVSPost2010Prop56
140
1.0
102
RTVSPost2010PropOp56
 70
     1
102
RTVSPost2010Prop57
140
1.0
102
RTVSPost2010PropOp57
 70
     1
102
RTVSPropertyOp0
 70
     1
102
RTVSPropertyOp1
 70
     1
102
RTVSPropertyOp2
 70
     1
102
RTVSPropertyOp3
 70
     1
102
RTVSPropertyOp4
 70
     1
102
RTVSPropertyOp5
 70
     1
102
RTVSPropertyOp6
 70
     1
102
RTVSPropertyOp7
 70
     1
102
RTVSPropertyOp8
 70
     1
102
RTVSPropertyOp9
 70
     1
102
RTVSPropertyOp10
 70
     1
102
RTVSPropertyOp11
 70
     1
102
RTVSPropertyOp12
 70
     1
102
RTVSPropertyOp13
 70
     1
102
RTVSPropertyOp14
 70
     1
102
RTVSPropertyOp15
 70
     1
102
RTVSPropertyOp16
 70
     1
102
RTVSPropertyOp17
 70
     1
102
RTVSPropertyOp18
 70
     1
102
RTVSPropertyOp19
 70
     1
102
RTVSPropertyOp20
 70
     1
102
RTVSPropertyOp21
 70
     1
102
RTVSPropertyOp22
 70
     1
102
RTVSPropertyOp23
 70
     1
102
RTVSPropertyOp24
 70
     1
102
RTVSPropertyOp25
 70
     1
102
RTVSPropertyOp26
 70
     1
102
RTVSPropertyOp27
 70
     1
102
RTVSPropertyOp28
 70
     1
102
RTVSPropertyOp29
 70
     1
102
RTVSPropertyOp30
 70
     1
102
RTVSPropertyOp31
 70
     1
102
RTVSPropertyOp32
 70
     1
102
RTVSPropertyOp33
 70
     1
102
RTVSPropertyOp34
 70
     1
102
RTVSPropertyOp35
 70
     1
102
RTVSPropertyOp36
 70
     1
102
RTVSPropertyOp37
 70
     1
102
RTVSPropertyOp38
 70
     1
102
RTVSPropertyOp39
 70
     1
102
RTVSPropertyOp40
 70
     1
102
RTVSPropertyOp41
 70
     1
102
RTVSPropertyOp42
 70
     1
102
RTVSPropertyOp43
 70
     1
102
RTVSPropertyOp44
 70
     1
102
RTVSPropertyOp45
 70
     1
102
RTVSPropertyOp46
 70
     1
102
RTVSPropertyOp47
 70
     1
102
RTVSPropertyOp48
 70
     1
102
RTVSPropertyOp49
 70
     1
102
RTVSPropertyOp50
 70
     1
102
RTVSPropertyOp51
 70
     0
102
RTVSPropertyOp52
 70
     0
102
RTVSPropertyOp53
 70
     1
102
RTVSPropertyOp54
 70
     1
102
RTVSPropertyOp55
 70
     1
102
RTVSPropertyOp56
 70
     1
102
RTVSPropertyOp57
 70
     1
102
RTVSPropertyOp58
 70
     1
102
RTVSPropertyOp59
 70
     1
102
RTVSPropertyOp60
 70
     1
102
RTVSPropertyOp61
 70
     1
102
RTVSPropertyOp62
 70
     1
  0
XRECORD
  5
18E
102
{ACAD_REACTORS
330
18D
102
}
330
18D
100
AcDbXrecord
280
     1
102
RTVSPost2010Prop28
280
     0
102
RTVSPost2010PropOp28
 70
     1
102
RTVSPost2010Prop29
280
     1
102
RTVSPost2010PropOp29
 70
     1
102
RTVSPost2010Prop30
280
     1
102
RTVSPost2010PropOp30
 70
     1
102
RTVSPost2010Prop31
280
     0
102
RTVSPost2010PropOp31
 70
     1
102
RTVSPost2010Prop32
280
     0
102
RTVSPost2010PropOp32
 70
     1
102
RTVSPost2010Prop33
280
     0
102
RTVSPost2010PropOp33
 70
     1
102
RTVSPost2010Prop34
280
     0
102
RTVSPost2010PropOp34
 70
     1
102
RTVSPost2010Prop35
280
     0
102
RTVSPost2010PropOp35
 70
     1
102
RTVSPost2010Prop36
280
     0
102
RTVSPost2010PropOp36
 70
     1
102
RTVSPost2010Prop37
 90
       50
102
RTVSPost2010PropOp37
 70
     1
102
RTVSPost2010Prop38
140
0.0
102
RTVSPost2010PropOp38
 70
     1
102
RTVSPost2010Prop39
140
1.0
102
RTVSPost2010PropOp39
 70
     1
102
RTVSPost2010Prop40
 90
        0
102
RTVSPost2010PropOp40
 70
     1
102
RTVSPost2010Prop41ColorIndex
 90
       18
102
RTVSPost2010Prop41ColorRGB
 90
        0
102
RTVSPost2010PropOp41
 70
     1
102
RTVSPost2010Prop42
 90
       50
102
RTVSPost2010PropOp42
 70
     1
102
RTVSPost2010Prop43
 90
        3
102
RTVSPost2010PropOp43
 70
     1
102
RTVSPost2010Prop44ColorIndex
 90
        5
102
RTVSPost2010Prop44ColorRGB
 90
      255
102
RTVSPost2010PropOp44
 70
     1
102
RTVSPost2010Prop45
280
     0
102
RTVSPost2010PropOp45
 70
     1
102
RTVSPost2010Prop46
 90
       50
102
RTVSPost2010PropOp46
 70
     1
102
RTVSPost2010Prop47
 90
       50
102
RTVSPost2010PropOp47
 70
     1
102
RTVSPost2010Prop48
 90
       50
102
RTVSPost2010PropOp48
 70
     1
102
RTVSPost2010Prop49
280
     0
102
RTVSPost2010PropOp49
 70
     1
102
RTVSPost2010Prop50
 90
       50
102
RTVSPost2010PropOp50
 70
     1
102
RTVSPost2010Prop51ColorIndex
 90
      256
102
RTVSPost2010Prop51ColorRGB
 90
-16777216
102
RTVSPost2010PropOp51
 70
     0
102
RTVSPost2010Prop52
140
1.0
102
RTVSPost2010PropOp52
 70
     0
102
RTVSPost2010Prop53
 90
        2
102
RTVSPost2010PropOp53
 70
     1
102
RTVSPost2010Prop54
  1
strokes_ogs.tif
102
RTVSPost2010PropOp54
 70
     1
102
RTVSPost2010Prop55
280
     0
102
RTVSPost2010PropOp55
 70
     1
102
RTVSPost2010Prop56
140
1.0
102
RTVSPost2010PropOp56
 70
     1
102
RTVSPost2010Prop57
140
1.0
102
RTVSPost2010PropOp57
 70
     1
102
RTVSPropertyOp0
 70
     1
102
RTVSPropertyOp1
 70
     1
102
RTVSPropertyOp2
 70
     1
102
RTVSPropertyOp3
 70
     1
102
RTVSPropertyOp4
 70
     1
102
RTVSPropertyOp5
 70
     1
102
RTVSPropertyOp6
 70
     1
102
RTVSPropertyOp7
 70
     1
102
RTVSPropertyOp8
 70
     1
102
RTVSPropertyOp9
 70
     1
102
RTVSPropertyOp10
 70
     1
102
RTVSPropertyOp11
 70
     1
102
RTVSPropertyOp12
 70
     1
102
RTVSPropertyOp13
 70
     1
102
RTVSPropertyOp14
 70
     1
102
RTVSPropertyOp15
 70
     1
102
RTVSPropertyOp16
 70
     1
102
RTVSPropertyOp17
 70
     1
102
RTVSPropertyOp18
 70
     1
102
RTVSPropertyOp19
 70
     1
102
RTVSPropertyOp20
 70
     1
102
RTVSPropertyOp21
 70
     1
102
RTVSPropertyOp22
 70
     1
102
RTVSPropertyOp23
 70
     1
102
RTVSPropertyOp24
 70
     1
102
RTVSPropertyOp25
 70
     1
102
RTVSPropertyOp26
 70
     1
102
RTVSPropertyOp27
 70
     1
102
RTVSPropertyOp28
 70
     1
102
RTVSPropertyOp29
 70
     1
102
RTVSPropertyOp30
 70
     1
102
RTVSPropertyOp31
 70
     1
102
RTVSPropertyOp32
 70
     1
102
RTVSPropertyOp33
 70
     1
102
RTVSPropertyOp34
 70
     1
102
RTVSPropertyOp35
 70
     1
102
RTVSPropertyOp36
 70
     1
102
RTVSPropertyOp37
 70
     1
102
RTVSPropertyOp38
 70
     1
102
RTVSPropertyOp39
 70
     1
102
RTVSPropertyOp40
 70
     1
102
RTVSPropertyOp41
 70
     1
102
RTVSPropertyOp42
 70
     1
102
RTVSPropertyOp43
 70
     1
102
RTVSPropertyOp44
 70
     1
102
RTVSPropertyOp45
 70
     1
102
RTVSPropertyOp46
 70
     1
102
RTVSPropertyOp47
 70
     1
102
RTVSPropertyOp48
 70
     1
102
RTVSPropertyOp49
 70
     1
102
RTVSPropertyOp50
 70
     1
102
RTVSPropertyOp51
 70
     0
102
RTVSPropertyOp52
 70
     0
102
RTVSPropertyOp53
 70
     1
102
RTVSPropertyOp54
 70
     1
102
RTVSPropertyOp55
 70
     1
102
RTVSPropertyOp56
 70
     1
102
RTVSPropertyOp57
 70
     1
102
RTVSPropertyOp58
 70
     1
102
RTVSPropertyOp59
 70
     1
102
RTVSPropertyOp60
 70
     1
102
RTVSPropertyOp61
 70
     1
102
RTVSPropertyOp62
 70
     1
  0
XRECORD
  5
190
102
{ACAD_REACTORS
330
18F
102
}
330
18F
100
AcDbXrecord
280
     1
102
RTVSPost2010Prop28
280
     0
102
RTVSPost2010PropOp28
 70
     1
102
RTVSPost2010Prop29
280
     1
102
RTVSPost2010PropOp29
 70
     1
102
RTVSPost2010Prop30
280
     1
102
RTVSPost2010PropOp30
 70
     1
102
RTVSPost2010Prop31
280
     0
102
RTVSPost2010PropOp31
 70
     1
102
RTVSPost2010Prop32
280
     0
102
RTVSPost2010PropOp32
 70
     1
102
RTVSPost2010Prop33
280
     0
102
RTVSPost2010PropOp33
 70
     1
102
RTVSPost2010Prop34
280
     0
102
RTVSPost2010PropOp34
 70
     1
102
RTVSPost2010Prop35
280
     0
102
RTVSPost2010PropOp35
 70
     1
102
RTVSPost2010Prop36
280
     0
102
RTVSPost2010PropOp36
 70
     1
102
RTVSPost2010Prop37
 90
       50
102
RTVSPost2010PropOp37
 70
     1
102
RTVSPost2010Prop38
140
0.0
102
RTVSPost2010PropOp38
 70
     1
102
RTVSPost2010Prop39
140
1.0
102
RTVSPost2010PropOp39
 70
     1
102
RTVSPost2010Prop40
 90
        0
102
RTVSPost2010PropOp40
 70
     1
102
RTVSPost2010Prop41ColorIndex
 90
       18
102
RTVSPost2010Prop41ColorRGB
 90
        0
102
RTVSPost2010PropOp41
 70
     1
102
RTVSPost2010Prop42
 90
       50
102
RTVSPost2010PropOp42
 70
     1
102
RTVSPost2010Prop43
 90
        3
102
RTVSPost2010PropOp43
 70
     1
102
RTVSPost2010Prop44ColorIndex
 90
        5
102
RTVSPost2010Prop44ColorRGB
 90
      255
102
RTVSPost2010PropOp44
 70
     1
102
RTVSPost2010Prop45
280
     0
102
RTVSPost2010PropOp45
 70
     1
102
RTVSPost2010Prop46
 90
       50
102
RTVSPost2010PropOp46
 70
     1
102
RTVSPost2010Prop47
 90
       50
102
RTVSPost2010PropOp47
 70
     1
102
RTVSPost2010Prop48
 90
       50
102
RTVSPost2010PropOp48
 70
     1
102
RTVSPost2010Prop49
280
     0
102
RTVSPost2010PropOp49
 70
     1
102
RTVSPost2010Prop50
 90
       50
102
RTVSPost2010PropOp50
 70
     1
102
RTVSPost2010Prop51ColorIndex
 90
      256
102
RTVSPost2010Prop51ColorRGB
 90
-16777216
102
RTVSPost2010PropOp51
 70
     0
102
RTVSPost2010Prop52
140
1.0
102
RTVSPost2010PropOp52
 70
     0
102
RTVSPost2010Prop53
 90
        2
102
RTVSPost2010PropOp53
 70
     1
102
RTVSPost2010Prop54
  1
strokes_ogs.tif
102
RTVSPost2010PropOp54
 70
     1
102
RTVSPost2010Prop55
280
     0
102
RTVSPost2010PropOp55
 70
     1
102
RTVSPost2010Prop56
140
1.0
102
RTVSPost2010PropOp56
 70
     1
102
RTVSPost2010Prop57
140
1.0
102
RTVSPost2010PropOp57
 70
     1
102
RTVSPropertyOp0
 70
     1
102
RTVSPropertyOp1
 70
     1
102
RTVSPropertyOp2
 70
     1
102
RTVSPropertyOp3
 70
     1
102
RTVSPropertyOp4
 70
     1
102
RTVSPropertyOp5
 70
     1
102
RTVSPropertyOp6
 70
     1
102
RTVSPropertyOp7
 70
     1
102
RTVSPropertyOp8
 70
     1
102
RTVSPropertyOp9
 70
     1
102
RTVSPropertyOp10
 70
     1
102
RTVSPropertyOp11
 70
     1
102
RTVSPropertyOp12
 70
     1
102
RTVSPropertyOp13
 70
     1
102
RTVSPropertyOp14
 70
     1
102
RTVSPropertyOp15
 70
     1
102
RTVSPropertyOp16
 70
     1
102
RTVSPropertyOp17
 70
     1
102
RTVSPropertyOp18
 70
     1
102
RTVSPropertyOp19
 70
     1
102
RTVSPropertyOp20
 70
     1
102
RTVSPropertyOp21
 70
     1
102
RTVSPropertyOp22
 70
     1
102
RTVSPropertyOp23
 70
     1
102
RTVSPropertyOp24
 70
     1
102
RTVSPropertyOp25
 70
     1
102
RTVSPropertyOp26
 70
     1
102
RTVSPropertyOp27
 70
     1
102
RTVSPropertyOp28
 70
     1
102
RTVSPropertyOp29
 70
     1
102
RTVSPropertyOp30
 70
     1
102
RTVSPropertyOp31
 70
     1
102
RTVSPropertyOp32
 70
     1
102
RTVSPropertyOp33
 70
     1
102
RTVSPropertyOp34
 70
     1
102
RTVSPropertyOp35
 70
     1
102
RTVSPropertyOp36
 70
     1
102
RTVSPropertyOp37
 70
     1
102
RTVSPropertyOp38
 70
     1
102
RTVSPropertyOp39
 70
     1
102
RTVSPropertyOp40
 70
     1
102
RTVSPropertyOp41
 70
     1
102
RTVSPropertyOp42
 70
     1
102
RTVSPropertyOp43
 70
     1
102
RTVSPropertyOp44
 70
     1
102
RTVSPropertyOp45
 70
     1
102
RTVSPropertyOp46
 70
     1
102
RTVSPropertyOp47
 70
     1
102
RTVSPropertyOp48
 70
     1
102
RTVSPropertyOp49
 70
     1
102
RTVSPropertyOp50
 70
     1
102
RTVSPropertyOp51
 70
     0
102
RTVSPropertyOp52
 70
     0
102
RTVSPropertyOp53
 70
     1
102
RTVSPropertyOp54
 70
     1
102
RTVSPropertyOp55
 70
     1
102
RTVSPropertyOp56
 70
     1
102
RTVSPropertyOp57
 70
     1
102
RTVSPropertyOp58
 70
     1
102
RTVSPropertyOp59
 70
     1
102
RTVSPropertyOp60
 70
     1
102
RTVSPropertyOp61
 70
     1
102
RTVSPropertyOp62
 70
     1
  0
XRECORD
  5
198
102
{ACAD_REACTORS
330
197
102
}
330
197
100
AcDbXrecord
280
     1
102
RTVSPost2010Prop28
280
     0
102
RTVSPost2010PropOp28
 70
     1
102
RTVSPost2010Prop29
280
     1
102
RTVSPost2010PropOp29
 70
     1
102
RTVSPost2010Prop30
280
     1
102
RTVSPost2010PropOp30
 70
     1
102
RTVSPost2010Prop31
280
     0
102
RTVSPost2010PropOp31
 70
     1
102
RTVSPost2010Prop32
280
     0
102
RTVSPost2010PropOp32
 70
     1
102
RTVSPost2010Prop33
280
     0
102
RTVSPost2010PropOp33
 70
     1
102
RTVSPost2010Prop34
280
     0
102
RTVSPost2010PropOp34
 70
     1
102
RTVSPost2010Prop35
280
     0
102
RTVSPost2010PropOp35
 70
     1
102
RTVSPost2010Prop36
280
     0
102
RTVSPost2010PropOp36
 70
     1
102
RTVSPost2010Prop37
 90
       50
102
RTVSPost2010PropOp37
 70
     1
102
RTVSPost2010Prop38
140
0.0
102
RTVSPost2010PropOp38
 70
     1
102
RTVSPost2010Prop39
140
1.0
102
RTVSPost2010PropOp39
 70
     1
102
RTVSPost2010Prop40
 90
        0
102
RTVSPost2010PropOp40
 70
     1
102
RTVSPost2010Prop41ColorIndex
 90
       18
102
RTVSPost2010Prop41ColorRGB
 90
        0
102
RTVSPost2010PropOp41
 70
     1
102
RTVSPost2010Prop42
 90
       50
102
RTVSPost2010PropOp42
 70
     1
102
RTVSPost2010Prop43
 90
        3
102
RTVSPost2010PropOp43
 70
     1
102
RTVSPost2010Prop44ColorIndex
 90
        5
102
RTVSPost2010Prop44ColorRGB
 90
      255
102
RTVSPost2010PropOp44
 70
     1
102
RTVSPost2010Prop45
280
     0
102
RTVSPost2010PropOp45
 70
     1
102
RTVSPost2010Prop46
 90
       50
102
RTVSPost2010PropOp46
 70
     1
102
RTVSPost2010Prop47
 90
       50
102
RTVSPost2010PropOp47
 70
     1
102
RTVSPost2010Prop48
 90
       50
102
RTVSPost2010PropOp48
 70
     1
102
RTVSPost2010Prop49
280
     0
102
RTVSPost2010PropOp49
 70
     1
102
RTVSPost2010Prop50
 90
       50
102
RTVSPost2010PropOp50
 70
     1
102
RTVSPost2010Prop51ColorIndex
 90
      256
102
RTVSPost2010Prop51ColorRGB
 90
-16777216
102
RTVSPost2010PropOp51
 70
     0
102
RTVSPost2010Prop52
140
1.0
102
RTVSPost2010PropOp52
 70
     0
102
RTVSPost2010Prop53
 90
        2
102
RTVSPost2010PropOp53
 70
     1
102
RTVSPost2010Prop54
  1
strokes_ogs.tif
102
RTVSPost2010PropOp54
 70
     1
102
RTVSPost2010Prop55
280
     0
102
RTVSPost2010PropOp55
 70
     1
102
RTVSPost2010Prop56
140
1.0
102
RTVSPost2010PropOp56
 70
     1
102
RTVSPost2010Prop57
140
1.0
102
RTVSPost2010PropOp57
 70
     1
102
RTVSPropertyOp0
 70
     1
102
RTVSPropertyOp1
 70
     1
102
RTVSPropertyOp2
 70
     1
102
RTVSPropertyOp3
 70
     1
102
RTVSPropertyOp4
 70
     1
102
RTVSPropertyOp5
 70
     1
102
RTVSPropertyOp6
 70
     1
102
RTVSPropertyOp7
 70
     1
102
RTVSPropertyOp8
 70
     1
102
RTVSPropertyOp9
 70
     1
102
RTVSPropertyOp10
 70
     1
102
RTVSPropertyOp11
 70
     1
102
RTVSPropertyOp12
 70
     1
102
RTVSPropertyOp13
 70
     1
102
RTVSPropertyOp14
 70
     1
102
RTVSPropertyOp15
 70
     1
102
RTVSPropertyOp16
 70
     1
102
RTVSPropertyOp17
 70
     1
102
RTVSPropertyOp18
 70
     1
102
RTVSPropertyOp19
 70
     1
102
RTVSPropertyOp20
 70
     1
102
RTVSPropertyOp21
 70
     1
102
RTVSPropertyOp22
 70
     1
102
RTVSPropertyOp23
 70
     1
102
RTVSPropertyOp24
 70
     1
102
RTVSPropertyOp25
 70
     1
102
RTVSPropertyOp26
 70
     1
102
RTVSPropertyOp27
 70
     1
102
RTVSPropertyOp28
 70
     1
102
RTVSPropertyOp29
 70
     1
102
RTVSPropertyOp30
 70
     1
102
RTVSPropertyOp31
 70
     1
102
RTVSPropertyOp32
 70
     1
102
RTVSPropertyOp33
 70
     1
102
RTVSPropertyOp34
 70
     1
102
RTVSPropertyOp35
 70
     1
102
RTVSPropertyOp36
 70
     1
102
RTVSPropertyOp37
 70
     1
102
RTVSPropertyOp38
 70
     1
102
RTVSPropertyOp39
 70
     1
102
RTVSPropertyOp40
 70
     1
102
RTVSPropertyOp41
 70
     1
102
RTVSPropertyOp42
 70
     1
102
RTVSPropertyOp43
 70
     1
102
RTVSPropertyOp44
 70
     1
102
RTVSPropertyOp45
 70
     1
102
RTVSPropertyOp46
 70
     1
102
RTVSPropertyOp47
 70
     1
102
RTVSPropertyOp48
 70
     1
102
RTVSPropertyOp49
 70
     1
102
RTVSPropertyOp50
 70
     1
102
RTVSPropertyOp51
 70
     0
102
RTVSPropertyOp52
 70
     0
102
RTVSPropertyOp53
 70
     1
102
RTVSPropertyOp54
 70
     1
102
RTVSPropertyOp55
 70
     1
102
RTVSPropertyOp56
 70
     1
102
RTVSPropertyOp57
 70
     1
102
RTVSPropertyOp58
 70
     1
102
RTVSPropertyOp59
 70
     1
102
RTVSPropertyOp60
 70
     1
102
RTVSPropertyOp61
 70
     1
102
RTVSPropertyOp62
 70
     1
  0
XRECORD
  5
1B4
102
{ACAD_REACTORS
330
1B3
102
}
330
1B3
100
AcDbXrecord
280
     1
102
RTVSPost2010Prop28
280
     0
102
RTVSPost2010PropOp28
 70
     0
102
RTVSPost2010Prop29
280
     1
102
RTVSPost2010PropOp29
 70
     0
102
RTVSPost2010Prop30
280
     1
102
RTVSPost2010PropOp30
 70
     0
102
RTVSPost2010Prop31
280
     0
102
RTVSPost2010PropOp31
 70
     0
102
RTVSPost2010Prop32
280
     0
102
RTVSPost2010PropOp32
 70
     0
102
RTVSPost2010Prop33
280
     0
102
RTVSPost2010PropOp33
 70
     0
102
RTVSPost2010Prop34
280
     0
102
RTVSPost2010PropOp34
 70
     0
102
RTVSPost2010Prop35
280
     0
102
RTVSPost2010PropOp35
 70
     0
102
RTVSPost2010Prop36
280
     0
102
RTVSPost2010PropOp36
 70
     0
102
RTVSPost2010Prop37
 90
       50
102
RTVSPost2010PropOp37
 70
     0
102
RTVSPost2010Prop38
140
0.0
102
RTVSPost2010PropOp38
 70
     0
102
RTVSPost2010Prop39
140
1.0
102
RTVSPost2010PropOp39
 70
     0
102
RTVSPost2010Prop40
 90
        0
102
RTVSPost2010PropOp40
 70
     0
102
RTVSPost2010Prop41ColorIndex
 90
       18
102
RTVSPost2010Prop41ColorRGB
 90
        0
102
RTVSPost2010PropOp41
 70
     0
102
RTVSPost2010Prop42
 90
       50
102
RTVSPost2010PropOp42
 70
     0
102
RTVSPost2010Prop43
 90
        3
102
RTVSPost2010PropOp43
 70
     0
102
RTVSPost2010Prop44ColorIndex
 90
        5
102
RTVSPost2010Prop44ColorRGB
 90
      255
102
RTVSPost2010PropOp44
 70
     0
102
RTVSPost2010Prop45
280
     0
102
RTVSPost2010PropOp45
 70
     0
102
RTVSPost2010Prop46
 90
       50
102
RTVSPost2010PropOp46
 70
     0
102
RTVSPost2010Prop47
 90
       50
102
RTVSPost2010PropOp47
 70
     0
102
RTVSPost2010Prop48
 90
       50
102
RTVSPost2010PropOp48
 70
     0
102
RTVSPost2010Prop49
280
     0
102
RTVSPost2010PropOp49
 70
     0
102
RTVSPost2010Prop50
 90
       50
102
RTVSPost2010PropOp50
 70
     0
102
RTVSPost2010Prop51ColorIndex
 90
      256
102
RTVSPost2010Prop51ColorRGB
 90
-16777216
102
RTVSPost2010PropOp51
 70
     0
102
RTVSPost2010Prop52
140
1.0
102
RTVSPost2010PropOp52
 70
     0
102
RTVSPost2010Prop53
 90
        2
102
RTVSPost2010PropOp53
 70
     0
102
RTVSPost2010Prop54
  1
strokes_ogs.tif
102
RTVSPost2010PropOp54
 70
     0
102
RTVSPost2010Prop55
280
     0
102
RTVSPost2010PropOp55
 70
     0
102
RTVSPost2010Prop56
140
1.0
102
RTVSPost2010PropOp56
 70
     0
102
RTVSPost2010Prop57
140
1.0
102
RTVSPost2010PropOp57
 70
     0
102
RTVSPropertyOp0
 70
     0
102
RTVSPropertyOp1
 70
     0
102
RTVSPropertyOp2
 70
     0
102
RTVSPropertyOp3
 70
     0
102
RTVSPropertyOp4
 70
     0
102
RTVSPropertyOp5
 70
     0
102
RTVSPropertyOp6
 70
     0
102
RTVSPropertyOp7
 70
     0
102
RTVSPropertyOp8
 70
     0
102
RTVSPropertyOp9
 70
     0
102
RTVSPropertyOp10
 70
     0
102
RTVSPropertyOp11
 70
     0
102
RTVSPropertyOp12
 70
     0
102
RTVSPropertyOp13
 70
     0
102
RTVSPropertyOp14
 70
     2
102
RTVSPropertyOp15
 70
     0
102
RTVSPropertyOp16
 70
     0
102
RTVSPropertyOp17
 70
     0
102
RTVSPropertyOp18
 70
     0
102
RTVSPropertyOp19
 70
     0
102
RTVSPropertyOp20
 70
     0
102
RTVSPropertyOp21
 70
     0
102
RTVSPropertyOp22
 70
     0
102
RTVSPropertyOp23
 70
     0
102
RTVSPropertyOp24
 70
     0
102
RTVSPropertyOp25
 70
     0
102
RTVSPropertyOp26
 70
     0
102
RTVSPropertyOp27
 70
     0
102
RTVSPropertyOp28
 70
     0
102
RTVSPropertyOp29
 70
     0
102
RTVSPropertyOp30
 70
     0
102
RTVSPropertyOp31
 70
     0
102
RTVSPropertyOp32
 70
     0
102
RTVSPropertyOp33
 70
     0
102
RTVSPropertyOp34
 70
     0
102
RTVSPropertyOp35
 70
     0
102
RTVSPropertyOp36
 70
     0
102
RTVSPropertyOp37
 70
     0
102
RTVSPropertyOp38
 70
     0
102
RTVSPropertyOp39
 70
     0
102
RTVSPropertyOp40
 70
     0
102
RTVSPropertyOp41
 70
     0
102
RTVSPropertyOp42
 70
     0
102
RTVSPropertyOp43
 70
     0
102
RTVSPropertyOp44
 70
     0
102
RTVSPropertyOp45
 70
     0
102
RTVSPropertyOp46
 70
     0
102
RTVSPropertyOp47
 70
     0
102
RTVSPropertyOp48
 70
     0
102
RTVSPropertyOp49
 70
     0
102
RTVSPropertyOp50
 70
     0
102
RTVSPropertyOp51
 70
     0
102
RTVSPropertyOp52
 70
     0
102
RTVSPropertyOp53
 70
     0
102
RTVSPropertyOp54
 70
     0
102
RTVSPropertyOp55
 70
     0
102
RTVSPropertyOp56
 70
     0
102
RTVSPropertyOp57
 70
     0
102
RTVSPropertyOp58
 70
     0
102
RTVSPropertyOp59
 70
     0
102
RTVSPropertyOp60
 70
     0
102
RTVSPropertyOp61
 70
     0
102
RTVSPropertyOp62
 70
     0
  0
XRECORD
  5
1A4
102
{ACAD_REACTORS
330
1A3
102
}
330
1A3
100
AcDbXrecord
280
     1
102
RTVSPost2010Prop28
280
     0
102
RTVSPost2010PropOp28
 70
     1
102
RTVSPost2010Prop29
280
     1
102
RTVSPost2010PropOp29
 70
     1
102
RTVSPost2010Prop30
280
     1
102
RTVSPost2010PropOp30
 70
     1
102
RTVSPost2010Prop31
280
     0
102
RTVSPost2010PropOp31
 70
     1
102
RTVSPost2010Prop32
280
     0
102
RTVSPost2010PropOp32
 70
     1
102
RTVSPost2010Prop33
280
     0
102
RTVSPost2010PropOp33
 70
     1
102
RTVSPost2010Prop34
280
     0
102
RTVSPost2010PropOp34
 70
     1
102
RTVSPost2010Prop35
280
     0
102
RTVSPost2010PropOp35
 70
     1
102
RTVSPost2010Prop36
280
     0
102
RTVSPost2010PropOp36
 70
     1
102
RTVSPost2010Prop37
 90
       50
102
RTVSPost2010PropOp37
 70
     1
102
RTVSPost2010Prop38
140
0.0
102
RTVSPost2010PropOp38
 70
     1
102
RTVSPost2010Prop39
140
1.0
102
RTVSPost2010PropOp39
 70
     1
102
RTVSPost2010Prop40
 90
        0
102
RTVSPost2010PropOp40
 70
     1
102
RTVSPost2010Prop41ColorIndex
 90
       18
102
RTVSPost2010Prop41ColorRGB
 90
        0
102
RTVSPost2010PropOp41
 70
     1
102
RTVSPost2010Prop42
 90
       50
102
RTVSPost2010PropOp42
 70
     1
102
RTVSPost2010Prop43
 90
        3
102
RTVSPost2010PropOp43
 70
     1
102
RTVSPost2010Prop44ColorIndex
 90
        5
102
RTVSPost2010Prop44ColorRGB
 90
      255
102
RTVSPost2010PropOp44
 70
     1
102
RTVSPost2010Prop45
280
     0
102
RTVSPost2010PropOp45
 70
     1
102
RTVSPost2010Prop46
 90
       50
102
RTVSPost2010PropOp46
 70
     1
102
RTVSPost2010Prop47
 90
       50
102
RTVSPost2010PropOp47
 70
     1
102
RTVSPost2010Prop48
 90
       50
102
RTVSPost2010PropOp48
 70
     1
102
RTVSPost2010Prop49
280
     0
102
RTVSPost2010PropOp49
 70
     1
102
RTVSPost2010Prop50
 90
       50
102
RTVSPost2010PropOp50
 70
     1
102
RTVSPost2010Prop51ColorIndex
 90
      256
102
RTVSPost2010Prop51ColorRGB
 90
-16777216
102
RTVSPost2010PropOp51
 70
     0
102
RTVSPost2010Prop52
140
1.0
102
RTVSPost2010PropOp52
 70
     0
102
RTVSPost2010Prop53
 90
        2
102
RTVSPost2010PropOp53
 70
     1
102
RTVSPost2010Prop54
  1
strokes_ogs.tif
102
RTVSPost2010PropOp54
 70
     1
102
RTVSPost2010Prop55
280
     0
102
RTVSPost2010PropOp55
 70
     1
102
RTVSPost2010Prop56
140
1.0
102
RTVSPost2010PropOp56
 70
     1
102
RTVSPost2010Prop57
140
1.0
102
RTVSPost2010PropOp57
 70
     1
102
RTVSPropertyOp0
 70
     1
102
RTVSPropertyOp1
 70
     1
102
RTVSPropertyOp2
 70
     1
102
RTVSPropertyOp3
 70
     1
102
RTVSPropertyOp4
 70
     1
102
RTVSPropertyOp5
 70
     1
102
RTVSPropertyOp6
 70
     1
102
RTVSPropertyOp7
 70
     1
102
RTVSPropertyOp8
 70
     1
102
RTVSPropertyOp9
 70
     1
102
RTVSPropertyOp10
 70
     1
102
RTVSPropertyOp11
 70
     1
102
RTVSPropertyOp12
 70
     1
102
RTVSPropertyOp13
 70
     1
102
RTVSPropertyOp14
 70
     1
102
RTVSPropertyOp15
 70
     1
102
RTVSPropertyOp16
 70
     1
102
RTVSPropertyOp17
 70
     1
102
RTVSPropertyOp18
 70
     1
102
RTVSPropertyOp19
 70
     1
102
RTVSPropertyOp20
 70
     1
102
RTVSPropertyOp21
 70
     1
102
RTVSPropertyOp22
 70
     1
102
RTVSPropertyOp23
 70
     1
102
RTVSPropertyOp24
 70
     1
102
RTVSPropertyOp25
 70
     1
102
RTVSPropertyOp26
 70
     1
102
RTVSPropertyOp27
 70
     1
102
RTVSPropertyOp28
 70
     1
102
RTVSPropertyOp29
 70
     1
102
RTVSPropertyOp30
 70
     1
102
RTVSPropertyOp31
 70
     1
102
RTVSPropertyOp32
 70
     1
102
RTVSPropertyOp33
 70
     1
102
RTVSPropertyOp34
 70
     1
102
RTVSPropertyOp35
 70
     1
102
RTVSPropertyOp36
 70
     1
102
RTVSPropertyOp37
 70
     1
102
RTVSPropertyOp38
 70
     1
102
RTVSPropertyOp39
 70
     1
102
RTVSPropertyOp40
 70
     1
102
RTVSPropertyOp41
 70
     1
102
RTVSPropertyOp42
 70
     1
102
RTVSPropertyOp43
 70
     1
102
RTVSPropertyOp44
 70
     1
102
RTVSPropertyOp45
 70
     1
102
RTVSPropertyOp46
 70
     1
102
RTVSPropertyOp47
 70
     1
102
RTVSPropertyOp48
 70
     1
102
RTVSPropertyOp49
 70
     1
102
RTVSPropertyOp50
 70
     1
102
RTVSPropertyOp51
 70
     0
102
RTVSPropertyOp52
 70
     0
102
RTVSPropertyOp53
 70
     1
102
RTVSPropertyOp54
 70
     1
102
RTVSPropertyOp55
 70
     1
102
RTVSPropertyOp56
 70
     1
102
RTVSPropertyOp57
 70
     1
102
RTVSPropertyOp58
 70
     1
102
RTVSPropertyOp59
 70
     1
102
RTVSPropertyOp60
 70
     1
102
RTVSPropertyOp61
 70
     1
102
RTVSPropertyOp62
 70
     1
  0
XRECORD
  5
1B6
102
{ACAD_REACTORS
330
1B5
102
}
330
1B5
100
AcDbXrecord
280
     1
102
RTVSPost2010Prop28
280
     0
102
RTVSPost2010PropOp28
 70
     0
102
RTVSPost2010Prop29
280
     1
102
RTVSPost2010PropOp29
 70
     0
102
RTVSPost2010Prop30
280
     1
102
RTVSPost2010PropOp30
 70
     0
102
RTVSPost2010Prop31
280
     0
102
RTVSPost2010PropOp31
 70
     0
102
RTVSPost2010Prop32
280
     0
102
RTVSPost2010PropOp32
 70
     0
102
RTVSPost2010Prop33
280
     0
102
RTVSPost2010PropOp33
 70
     0
102
RTVSPost2010Prop34
280
     0
102
RTVSPost2010PropOp34
 70
     0
102
RTVSPost2010Prop35
280
     0
102
RTVSPost2010PropOp35
 70
     0
102
RTVSPost2010Prop36
280
     0
102
RTVSPost2010PropOp36
 70
     0
102
RTVSPost2010Prop37
 90
       50
102
RTVSPost2010PropOp37
 70
     0
102
RTVSPost2010Prop38
140
0.0
102
RTVSPost2010PropOp38
 70
     0
102
RTVSPost2010Prop39
140
1.0
102
RTVSPost2010PropOp39
 70
     0
102
RTVSPost2010Prop40
 90
        0
102
RTVSPost2010PropOp40
 70
     0
102
RTVSPost2010Prop41ColorIndex
 90
       18
102
RTVSPost2010Prop41ColorRGB
 90
        0
102
RTVSPost2010PropOp41
 70
     0
102
RTVSPost2010Prop42
 90
       50
102
RTVSPost2010PropOp42
 70
     0
102
RTVSPost2010Prop43
 90
        3
102
RTVSPost2010PropOp43
 70
     0
102
RTVSPost2010Prop44ColorIndex
 90
        5
102
RTVSPost2010Prop44ColorRGB
 90
      255
102
RTVSPost2010PropOp44
 70
     0
102
RTVSPost2010Prop45
280
     0
102
RTVSPost2010PropOp45
 70
     0
102
RTVSPost2010Prop46
 90
       50
102
RTVSPost2010PropOp46
 70
     0
102
RTVSPost2010Prop47
 90
       50
102
RTVSPost2010PropOp47
 70
     0
102
RTVSPost2010Prop48
 90
       50
102
RTVSPost2010PropOp48
 70
     0
102
RTVSPost2010Prop49
280
     0
102
RTVSPost2010PropOp49
 70
     0
102
RTVSPost2010Prop50
 90
       50
102
RTVSPost2010PropOp50
 70
     0
102
RTVSPost2010Prop51ColorIndex
 90
      256
102
RTVSPost2010Prop51ColorRGB
 90
-16777216
102
RTVSPost2010PropOp51
 70
     0
102
RTVSPost2010Prop52
140
1.0
102
RTVSPost2010PropOp52
 70
     0
102
RTVSPost2010Prop53
 90
        2
102
RTVSPost2010PropOp53
 70
     0
102
RTVSPost2010Prop54
  1
strokes_ogs.tif
102
RTVSPost2010PropOp54
 70
     0
102
RTVSPost2010Prop55
280
     0
102
RTVSPost2010PropOp55
 70
     0
102
RTVSPost2010Prop56
140
1.0
102
RTVSPost2010PropOp56
 70
     0
102
RTVSPost2010Prop57
140
1.0
102
RTVSPost2010PropOp57
 70
     0
102
RTVSPropertyOp0
 70
     0
102
RTVSPropertyOp1
 70
     0
102
RTVSPropertyOp2
 70
     0
102
RTVSPropertyOp3
 70
     0
102
RTVSPropertyOp4
 70
     0
102
RTVSPropertyOp5
 70
     0
102
RTVSPropertyOp6
 70
     0
102
RTVSPropertyOp7
 70
     0
102
RTVSPropertyOp8
 70
     0
102
RTVSPropertyOp9
 70
     0
102
RTVSPropertyOp10
 70
     0
102
RTVSPropertyOp11
 70
     0
102
RTVSPropertyOp12
 70
     0
102
RTVSPropertyOp13
 70
     0
102
RTVSPropertyOp14
 70
     2
102
RTVSPropertyOp15
 70
     0
102
RTVSPropertyOp16
 70
     0
102
RTVSPropertyOp17
 70
     0
102
RTVSPropertyOp18
 70
     0
102
RTVSPropertyOp19
 70
     0
102
RTVSPropertyOp20
 70
     0
102
RTVSPropertyOp21
 70
     0
102
RTVSPropertyOp22
 70
     0
102
RTVSPropertyOp23
 70
     0
102
RTVSPropertyOp24
 70
     0
102
RTVSPropertyOp25
 70
     0
102
RTVSPropertyOp26
 70
     0
102
RTVSPropertyOp27
 70
     0
102
RTVSPropertyOp28
 70
     0
102
RTVSPropertyOp29
 70
     0
102
RTVSPropertyOp30
 70
     0
102
RTVSPropertyOp31
 70
     0
102
RTVSPropertyOp32
 70
     0
102
RTVSPropertyOp33
 70
     0
102
RTVSPropertyOp34
 70
     0
102
RTVSPropertyOp35
 70
     0
102
RTVSPropertyOp36
 70
     0
102
RTVSPropertyOp37
 70
     0
102
RTVSPropertyOp38
 70
     0
102
RTVSPropertyOp39
 70
     0
102
RTVSPropertyOp40
 70
     0
102
RTVSPropertyOp41
 70
     0
102
RTVSPropertyOp42
 70
     0
102
RTVSPropertyOp43
 70
     0
102
RTVSPropertyOp44
 70
     0
102
RTVSPropertyOp45
 70
     0
102
RTVSPropertyOp46
 70
     0
102
RTVSPropertyOp47
 70
     0
102
RTVSPropertyOp48
 70
     0
102
RTVSPropertyOp49
 70
     0
102
RTVSPropertyOp50
 70
     0
102
RTVSPropertyOp51
 70
     0
102
RTVSPropertyOp52
 70
     0
102
RTVSPropertyOp53
 70
     0
102
RTVSPropertyOp54
 70
     0
102
RTVSPropertyOp55
 70
     0
102
RTVSPropertyOp56
 70
     0
102
RTVSPropertyOp57
 70
     0
102
RTVSPropertyOp58
 70
     0
102
RTVSPropertyOp59
 70
     0
102
RTVSPropertyOp60
 70
     0
102
RTVSPropertyOp61
 70
     0
102
RTVSPropertyOp62
 70
     0
  0
XRECORD
  5
19C
102
{ACAD_REACTORS
330
19B
102
}
330
19B
100
AcDbXrecord
280
     1
102
RTVSPost2010Prop28
280
     0
102
RTVSPost2010PropOp28
 70
     1
102
RTVSPost2010Prop29
280
     1
102
RTVSPost2010PropOp29
 70
     1
102
RTVSPost2010Prop30
280
     1
102
RTVSPost2010PropOp30
 70
     1
102
RTVSPost2010Prop31
280
     0
102
RTVSPost2010PropOp31
 70
     1
102
RTVSPost2010Prop32
280
     0
102
RTVSPost2010PropOp32
 70
     1
102
RTVSPost2010Prop33
280
     0
102
RTVSPost2010PropOp33
 70
     1
102
RTVSPost2010Prop34
280
     0
102
RTVSPost2010PropOp34
 70
     1
102
RTVSPost2010Prop35
280
     0
102
RTVSPost2010PropOp35
 70
     1
102
RTVSPost2010Prop36
280
     0
102
RTVSPost2010PropOp36
 70
     1
102
RTVSPost2010Prop37
 90
       50
102
RTVSPost2010PropOp37
 70
     1
102
RTVSPost2010Prop38
140
0.0
102
RTVSPost2010PropOp38
 70
     1
102
RTVSPost2010Prop39
140
1.0
102
RTVSPost2010PropOp39
 70
     1
102
RTVSPost2010Prop40
 90
        0
102
RTVSPost2010PropOp40
 70
     1
102
RTVSPost2010Prop41ColorIndex
 90
       18
102
RTVSPost2010Prop41ColorRGB
 90
        0
102
RTVSPost2010PropOp41
 70
     1
102
RTVSPost2010Prop42
 90
       50
102
RTVSPost2010PropOp42
 70
     1
102
RTVSPost2010Prop43
 90
        3
102
RTVSPost2010PropOp43
 70
     1
102
RTVSPost2010Prop44ColorIndex
 90
        5
102
RTVSPost2010Prop44ColorRGB
 90
      255
102
RTVSPost2010PropOp44
 70
     1
102
RTVSPost2010Prop45
280
     0
102
RTVSPost2010PropOp45
 70
     1
102
RTVSPost2010Prop46
 90
       50
102
RTVSPost2010PropOp46
 70
     1
102
RTVSPost2010Prop47
 90
       50
102
RTVSPost2010PropOp47
 70
     1
102
RTVSPost2010Prop48
 90
       50
102
RTVSPost2010PropOp48
 70
     1
102
RTVSPost2010Prop49
280
     0
102
RTVSPost2010PropOp49
 70
     1
102
RTVSPost2010Prop50
 90
       50
102
RTVSPost2010PropOp50
 70
     1
102
RTVSPost2010Prop51ColorIndex
 90
      256
102
RTVSPost2010Prop51ColorRGB
 90
-16777216
102
RTVSPost2010PropOp51
 70
     0
102
RTVSPost2010Prop52
140
1.0
102
RTVSPost2010PropOp52
 70
     0
102
RTVSPost2010Prop53
 90
        2
102
RTVSPost2010PropOp53
 70
     1
102
RTVSPost2010Prop54
  1
strokes_ogs.tif
102
RTVSPost2010PropOp54
 70
     1
102
RTVSPost2010Prop55
280
     0
102
RTVSPost2010PropOp55
 70
     1
102
RTVSPost2010Prop56
140
1.0
102
RTVSPost2010PropOp56
 70
     1
102
RTVSPost2010Prop57
140
1.0
102
RTVSPost2010PropOp57
 70
     1
102
RTVSPropertyOp0
 70
     1
102
RTVSPropertyOp1
 70
     1
102
RTVSPropertyOp2
 70
     1
102
RTVSPropertyOp3
 70
     1
102
RTVSPropertyOp4
 70
     1
102
RTVSPropertyOp5
 70
     1
102
RTVSPropertyOp6
 70
     1
102
RTVSPropertyOp7
 70
     1
102
RTVSPropertyOp8
 70
     1
102
RTVSPropertyOp9
 70
     1
102
RTVSPropertyOp10
 70
     1
102
RTVSPropertyOp11
 70
     1
102
RTVSPropertyOp12
 70
     1
102
RTVSPropertyOp13
 70
     1
102
RTVSPropertyOp14
 70
     1
102
RTVSPropertyOp15
 70
     1
102
RTVSPropertyOp16
 70
     1
102
RTVSPropertyOp17
 70
     1
102
RTVSPropertyOp18
 70
     1
102
RTVSPropertyOp19
 70
     1
102
RTVSPropertyOp20
 70
     1
102
RTVSPropertyOp21
 70
     1
102
RTVSPropertyOp22
 70
     1
102
RTVSPropertyOp23
 70
     1
102
RTVSPropertyOp24
 70
     1
102
RTVSPropertyOp25
 70
     1
102
RTVSPropertyOp26
 70
     1
102
RTVSPropertyOp27
 70
     1
102
RTVSPropertyOp28
 70
     1
102
RTVSPropertyOp29
 70
     1
102
RTVSPropertyOp30
 70
     1
102
RTVSPropertyOp31
 70
     1
102
RTVSPropertyOp32
 70
     1
102
RTVSPropertyOp33
 70
     1
102
RTVSPropertyOp34
 70
     1
102
RTVSPropertyOp35
 70
     1
102
RTVSPropertyOp36
 70
     1
102
RTVSPropertyOp37
 70
     1
102
RTVSPropertyOp38
 70
     1
102
RTVSPropertyOp39
 70
     1
102
RTVSPropertyOp40
 70
     1
102
RTVSPropertyOp41
 70
     1
102
RTVSPropertyOp42
 70
     1
102
RTVSPropertyOp43
 70
     1
102
RTVSPropertyOp44
 70
     1
102
RTVSPropertyOp45
 70
     1
102
RTVSPropertyOp46
 70
     1
102
RTVSPropertyOp47
 70
     1
102
RTVSPropertyOp48
 70
     1
102
RTVSPropertyOp49
 70
     1
102
RTVSPropertyOp50
 70
     1
102
RTVSPropertyOp51
 70
     0
102
RTVSPropertyOp52
 70
     0
102
RTVSPropertyOp53
 70
     1
102
RTVSPropertyOp54
 70
     1
102
RTVSPropertyOp55
 70
     1
102
RTVSPropertyOp56
 70
     1
102
RTVSPropertyOp57
 70
     1
102
RTVSPropertyOp58
 70
     1
102
RTVSPropertyOp59
 70
     1
102
RTVSPropertyOp60
 70
     1
102
RTVSPropertyOp61
 70
     1
102
RTVSPropertyOp62
 70
     1
  0
XRECORD
  5
1B2
102
{ACAD_REACTORS
330
1B1
102
}
330
1B1
100
AcDbXrecord
280
     1
102
RTVSPost2010Prop28
280
     0
102
RTVSPost2010PropOp28
 70
     1
102
RTVSPost2010Prop29
280
     1
102
RTVSPost2010PropOp29
 70
     1
102
RTVSPost2010Prop30
280
     1
102
RTVSPost2010PropOp30
 70
     1
102
RTVSPost2010Prop31
280
     0
102
RTVSPost2010PropOp31
 70
     1
102
RTVSPost2010Prop32
280
     0
102
RTVSPost2010PropOp32
 70
     1
102
RTVSPost2010Prop33
280
     0
102
RTVSPost2010PropOp33
 70
     1
102
RTVSPost2010Prop34
280
     0
102
RTVSPost2010PropOp34
 70
     1
102
RTVSPost2010Prop35
280
     0
102
RTVSPost2010PropOp35
 70
     1
102
RTVSPost2010Prop36
280
     0
102
RTVSPost2010PropOp36
 70
     1
102
RTVSPost2010Prop37
 90
       50
102
RTVSPost2010PropOp37
 70
     1
102
RTVSPost2010Prop38
140
0.0
102
RTVSPost2010PropOp38
 70
     1
102
RTVSPost2010Prop39
140
1.0
102
RTVSPost2010PropOp39
 70
     1
102
RTVSPost2010Prop40
 90
        0
102
RTVSPost2010PropOp40
 70
     1
102
RTVSPost2010Prop41ColorIndex
 90
       18
102
RTVSPost2010Prop41ColorRGB
 90
        0
102
RTVSPost2010PropOp41
 70
     1
102
RTVSPost2010Prop42
 90
       50
102
RTVSPost2010PropOp42
 70
     1
102
RTVSPost2010Prop43
 90
        3
102
RTVSPost2010PropOp43
 70
     1
102
RTVSPost2010Prop44ColorIndex
 90
        5
102
RTVSPost2010Prop44ColorRGB
 90
      255
102
RTVSPost2010PropOp44
 70
     1
102
RTVSPost2010Prop45
280
     0
102
RTVSPost2010PropOp45
 70
     1
102
RTVSPost2010Prop46
 90
       50
102
RTVSPost2010PropOp46
 70
     1
102
RTVSPost2010Prop47
 90
       50
102
RTVSPost2010PropOp47
 70
     1
102
RTVSPost2010Prop48
 90
       50
102
RTVSPost2010PropOp48
 70
     1
102
RTVSPost2010Prop49
280
     0
102
RTVSPost2010PropOp49
 70
     1
102
RTVSPost2010Prop50
 90
       50
102
RTVSPost2010PropOp50
 70
     1
102
RTVSPost2010Prop51ColorIndex
 90
      256
102
RTVSPost2010Prop51ColorRGB
 90
-16777216
102
RTVSPost2010PropOp51
 70
     0
102
RTVSPost2010Prop52
140
1.0
102
RTVSPost2010PropOp52
 70
     0
102
RTVSPost2010Prop53
 90
        2
102
RTVSPost2010PropOp53
 70
     1
102
RTVSPost2010Prop54
  1
strokes_ogs.tif
102
RTVSPost2010PropOp54
 70
     1
102
RTVSPost2010Prop55
280
     0
102
RTVSPost2010PropOp55
 70
     1
102
RTVSPost2010Prop56
140
1.0
102
RTVSPost2010PropOp56
 70
     1
102
RTVSPost2010Prop57
140
1.0
102
RTVSPost2010PropOp57
 70
     1
102
RTVSPropertyOp0
 70
     1
102
RTVSPropertyOp1
 70
     1
102
RTVSPropertyOp2
 70
     1
102
RTVSPropertyOp3
 70
     1
102
RTVSPropertyOp4
 70
     1
102
RTVSPropertyOp5
 70
     1
102
RTVSPropertyOp6
 70
     1
102
RTVSPropertyOp7
 70
     1
102
RTVSPropertyOp8
 70
     1
102
RTVSPropertyOp9
 70
     1
102
RTVSPropertyOp10
 70
     1
102
RTVSPropertyOp11
 70
     1
102
RTVSPropertyOp12
 70
     1
102
RTVSPropertyOp13
 70
     1
102
RTVSPropertyOp14
 70
     1
102
RTVSPropertyOp15
 70
     1
102
RTVSPropertyOp16
 70
     1
102
RTVSPropertyOp17
 70
     1
102
RTVSPropertyOp18
 70
     1
102
RTVSPropertyOp19
 70
     1
102
RTVSPropertyOp20
 70
     1
102
RTVSPropertyOp21
 70
     1
102
RTVSPropertyOp22
 70
     1
102
RTVSPropertyOp23
 70
     1
102
RTVSPropertyOp24
 70
     1
102
RTVSPropertyOp25
 70
     1
102
RTVSPropertyOp26
 70
     1
102
RTVSPropertyOp27
 70
     1
102
RTVSPropertyOp28
 70
     1
102
RTVSPropertyOp29
 70
     1
102
RTVSPropertyOp30
 70
     1
102
RTVSPropertyOp31
 70
     1
102
RTVSPropertyOp32
 70
     1
102
RTVSPropertyOp33
 70
     1
102
RTVSPropertyOp34
 70
     1
102
RTVSPropertyOp35
 70
     1
102
RTVSPropertyOp36
 70
     1
102
RTVSPropertyOp37
 70
     1
102
RTVSPropertyOp38
 70
     1
102
RTVSPropertyOp39
 70
     1
102
RTVSPropertyOp40
 70
     1
102
RTVSPropertyOp41
 70
     1
102
RTVSPropertyOp42
 70
     1
102
RTVSPropertyOp43
 70
     1
102
RTVSPropertyOp44
 70
     1
102
RTVSPropertyOp45
 70
     1
102
RTVSPropertyOp46
 70
     1
102
RTVSPropertyOp47
 70
     1
102
RTVSPropertyOp48
 70
     1
102
RTVSPropertyOp49
 70
     1
102
RTVSPropertyOp50
 70
     1
102
RTVSPropertyOp51
 70
     0
102
RTVSPropertyOp52
 70
     0
102
RTVSPropertyOp53
 70
     1
102
RTVSPropertyOp54
 70
     1
102
RTVSPropertyOp55
 70
     1
102
RTVSPropertyOp56
 70
     1
102
RTVSPropertyOp57
 70
     1
102
RTVSPropertyOp58
 70
     1
102
RTVSPropertyOp59
 70
     1
102
RTVSPropertyOp60
 70
     1
102
RTVSPropertyOp61
 70
     1
102
RTVSPropertyOp62
 70
     1
  0
XRECORD
  5
1B0
102
{ACAD_REACTORS
330
1AF
102
}
330
1AF
100
AcDbXrecord
280
     1
102
RTVSPost2010Prop28
280
     0
102
RTVSPost2010PropOp28
 70
     1
102
RTVSPost2010Prop29
280
     1
102
RTVSPost2010PropOp29
 70
     1
102
RTVSPost2010Prop30
280
     1
102
RTVSPost2010PropOp30
 70
     1
102
RTVSPost2010Prop31
280
     0
102
RTVSPost2010PropOp31
 70
     1
102
RTVSPost2010Prop32
280
     0
102
RTVSPost2010PropOp32
 70
     1
102
RTVSPost2010Prop33
280
     0
102
RTVSPost2010PropOp33
 70
     1
102
RTVSPost2010Prop34
280
     0
102
RTVSPost2010PropOp34
 70
     1
102
RTVSPost2010Prop35
280
     0
102
RTVSPost2010PropOp35
 70
     1
102
RTVSPost2010Prop36
280
     0
102
RTVSPost2010PropOp36
 70
     1
102
RTVSPost2010Prop37
 90
       50
102
RTVSPost2010PropOp37
 70
     1
102
RTVSPost2010Prop38
140
0.0
102
RTVSPost2010PropOp38
 70
     1
102
RTVSPost2010Prop39
140
1.0
102
RTVSPost2010PropOp39
 70
     1
102
RTVSPost2010Prop40
 90
        0
102
RTVSPost2010PropOp40
 70
     1
102
RTVSPost2010Prop41ColorIndex
 90
       18
102
RTVSPost2010Prop41ColorRGB
 90
        0
102
RTVSPost2010PropOp41
 70
     1
102
RTVSPost2010Prop42
 90
       50
102
RTVSPost2010PropOp42
 70
     1
102
RTVSPost2010Prop43
 90
        3
102
RTVSPost2010PropOp43
 70
     1
102
RTVSPost2010Prop44ColorIndex
 90
        5
102
RTVSPost2010Prop44ColorRGB
 90
      255
102
RTVSPost2010PropOp44
 70
     1
102
RTVSPost2010Prop45
280
     0
102
RTVSPost2010PropOp45
 70
     1
102
RTVSPost2010Prop46
 90
       50
102
RTVSPost2010PropOp46
 70
     1
102
RTVSPost2010Prop47
 90
       50
102
RTVSPost2010PropOp47
 70
     1
102
RTVSPost2010Prop48
 90
       50
102
RTVSPost2010PropOp48
 70
     1
102
RTVSPost2010Prop49
280
     0
102
RTVSPost2010PropOp49
 70
     1
102
RTVSPost2010Prop50
 90
       50
102
RTVSPost2010PropOp50
 70
     1
102
RTVSPost2010Prop51ColorIndex
 90
      256
102
RTVSPost2010Prop51ColorRGB
 90
-16777216
102
RTVSPost2010PropOp51
 70
     0
102
RTVSPost2010Prop52
140
1.0
102
RTVSPost2010PropOp52
 70
     0
102
RTVSPost2010Prop53
 90
        2
102
RTVSPost2010PropOp53
 70
     1
102
RTVSPost2010Prop54
  1
strokes_ogs.tif
102
RTVSPost2010PropOp54
 70
     1
102
RTVSPost2010Prop55
280
     0
102
RTVSPost2010PropOp55
 70
     1
102
RTVSPost2010Prop56
140
1.0
102
RTVSPost2010PropOp56
 70
     1
102
RTVSPost2010Prop57
140
1.0
102
RTVSPost2010PropOp57
 70
     1
102
RTVSPropertyOp0
 70
     1
102
RTVSPropertyOp1
 70
     1
102
RTVSPropertyOp2
 70
     1
102
RTVSPropertyOp3
 70
     1
102
RTVSPropertyOp4
 70
     1
102
RTVSPropertyOp5
 70
     1
102
RTVSPropertyOp6
 70
     1
102
RTVSPropertyOp7
 70
     1
102
RTVSPropertyOp8
 70
     1
102
RTVSPropertyOp9
 70
     1
102
RTVSPropertyOp10
 70
     1
102
RTVSPropertyOp11
 70
     1
102
RTVSPropertyOp12
 70
     1
102
RTVSPropertyOp13
 70
     1
102
RTVSPropertyOp14
 70
     1
102
RTVSPropertyOp15
 70
     1
102
RTVSPropertyOp16
 70
     1
102
RTVSPropertyOp17
 70
     1
102
RTVSPropertyOp18
 70
     1
102
RTVSPropertyOp19
 70
     1
102
RTVSPropertyOp20
 70
     1
102
RTVSPropertyOp21
 70
     1
102
RTVSPropertyOp22
 70
     1
102
RTVSPropertyOp23
 70
     1
102
RTVSPropertyOp24
 70
     1
102
RTVSPropertyOp25
 70
     1
102
RTVSPropertyOp26
 70
     1
102
RTVSPropertyOp27
 70
     1
102
RTVSPropertyOp28
 70
     1
102
RTVSPropertyOp29
 70
     1
102
RTVSPropertyOp30
 70
     1
102
RTVSPropertyOp31
 70
     1
102
RTVSPropertyOp32
 70
     1
102
RTVSPropertyOp33
 70
     1
102
RTVSPropertyOp34
 70
     1
102
RTVSPropertyOp35
 70
     1
102
RTVSPropertyOp36
 70
     1
102
RTVSPropertyOp37
 70
     1
102
RTVSPropertyOp38
 70
     1
102
RTVSPropertyOp39
 70
     1
102
RTVSPropertyOp40
 70
     1
102
RTVSPropertyOp41
 70
     1
102
RTVSPropertyOp42
 70
     1
102
RTVSPropertyOp43
 70
     1
102
RTVSPropertyOp44
 70
     1
102
RTVSPropertyOp45
 70
     1
102
RTVSPropertyOp46
 70
     1
102
RTVSPropertyOp47
 70
     1
102
RTVSPropertyOp48
 70
     1
102
RTVSPropertyOp49
 70
     1
102
RTVSPropertyOp50
 70
     1
102
RTVSPropertyOp51
 70
     0
102
RTVSPropertyOp52
 70
     0
102
RTVSPropertyOp53
 70
     1
102
RTVSPropertyOp54
 70
     1
102
RTVSPropertyOp55
 70
     1
102
RTVSPropertyOp56
 70
     1
102
RTVSPropertyOp57
 70
     1
102
RTVSPropertyOp58
 70
     1
102
RTVSPropertyOp59
 70
     1
102
RTVSPropertyOp60
 70
     1
102
RTVSPropertyOp61
 70
     1
102
RTVSPropertyOp62
 70
     1
  0
XRECORD
  5
1AA
102
{ACAD_REACTORS
330
1A9
102
}
330
1A9
100
AcDbXrecord
280
     1
102
RTVSPost2010Prop28
280
     0
102
RTVSPost2010PropOp28
 70
     1
102
RTVSPost2010Prop29
280
     1
102
RTVSPost2010PropOp29
 70
     1
102
RTVSPost2010Prop30
280
     1
102
RTVSPost2010PropOp30
 70
     1
102
RTVSPost2010Prop31
280
     0
102
RTVSPost2010PropOp31
 70
     1
102
RTVSPost2010Prop32
280
     0
102
RTVSPost2010PropOp32
 70
     1
102
RTVSPost2010Prop33
280
     0
102
RTVSPost2010PropOp33
 70
     1
102
RTVSPost2010Prop34
280
     0
102
RTVSPost2010PropOp34
 70
     1
102
RTVSPost2010Prop35
280
     0
102
RTVSPost2010PropOp35
 70
     1
102
RTVSPost2010Prop36
280
     0
102
RTVSPost2010PropOp36
 70
     1
102
RTVSPost2010Prop37
 90
       50
102
RTVSPost2010PropOp37
 70
     1
102
RTVSPost2010Prop38
140
0.0
102
RTVSPost2010PropOp38
 70
     1
102
RTVSPost2010Prop39
140
1.0
102
RTVSPost2010PropOp39
 70
     1
102
RTVSPost2010Prop40
 90
        0
102
RTVSPost2010PropOp40
 70
     1
102
RTVSPost2010Prop41ColorIndex
 90
       18
102
RTVSPost2010Prop41ColorRGB
 90
        0
102
RTVSPost2010PropOp41
 70
     1
102
RTVSPost2010Prop42
 90
       50
102
RTVSPost2010PropOp42
 70
     1
102
RTVSPost2010Prop43
 90
        3
102
RTVSPost2010PropOp43
 70
     1
102
RTVSPost2010Prop44ColorIndex
 90
        5
102
RTVSPost2010Prop44ColorRGB
 90
      255
102
RTVSPost2010PropOp44
 70
     1
102
RTVSPost2010Prop45
280
     0
102
RTVSPost2010PropOp45
 70
     1
102
RTVSPost2010Prop46
 90
       50
102
RTVSPost2010PropOp46
 70
     1
102
RTVSPost2010Prop47
 90
       50
102
RTVSPost2010PropOp47
 70
     1
102
RTVSPost2010Prop48
 90
       50
102
RTVSPost2010PropOp48
 70
     1
102
RTVSPost2010Prop49
280
     0
102
RTVSPost2010PropOp49
 70
     1
102
RTVSPost2010Prop50
 90
       50
102
RTVSPost2010PropOp50
 70
     1
102
RTVSPost2010Prop51ColorIndex
 90
      256
102
RTVSPost2010Prop51ColorRGB
 90
-16777216
102
RTVSPost2010PropOp51
 70
     0
102
RTVSPost2010Prop52
140
1.0
102
RTVSPost2010PropOp52
 70
     0
102
RTVSPost2010Prop53
 90
        2
102
RTVSPost2010PropOp53
 70
     1
102
RTVSPost2010Prop54
  1
strokes_ogs.tif
102
RTVSPost2010PropOp54
 70
     1
102
RTVSPost2010Prop55
280
     0
102
RTVSPost2010PropOp55
 70
     1
102
RTVSPost2010Prop56
140
1.0
102
RTVSPost2010PropOp56
 70
     1
102
RTVSPost2010Prop57
140
1.0
102
RTVSPost2010PropOp57
 70
     1
102
RTVSPropertyOp0
 70
     1
102
RTVSPropertyOp1
 70
     1
102
RTVSPropertyOp2
 70
     1
102
RTVSPropertyOp3
 70
     1
102
RTVSPropertyOp4
 70
     1
102
RTVSPropertyOp5
 70
     1
102
RTVSPropertyOp6
 70
     1
102
RTVSPropertyOp7
 70
     1
102
RTVSPropertyOp8
 70
     1
102
RTVSPropertyOp9
 70
     1
102
RTVSPropertyOp10
 70
     1
102
RTVSPropertyOp11
 70
     1
102
RTVSPropertyOp12
 70
     1
102
RTVSPropertyOp13
 70
     1
102
RTVSPropertyOp14
 70
     1
102
RTVSPropertyOp15
 70
     1
102
RTVSPropertyOp16
 70
     1
102
RTVSPropertyOp17
 70
     1
102
RTVSPropertyOp18
 70
     1
102
RTVSPropertyOp19
 70
     1
102
RTVSPropertyOp20
 70
     1
102
RTVSPropertyOp21
 70
     1
102
RTVSPropertyOp22
 70
     1
102
RTVSPropertyOp23
 70
     1
102
RTVSPropertyOp24
 70
     1
102
RTVSPropertyOp25
 70
     1
102
RTVSPropertyOp26
 70
     1
102
RTVSPropertyOp27
 70
     1
102
RTVSPropertyOp28
 70
     1
102
RTVSPropertyOp29
 70
     1
102
RTVSPropertyOp30
 70
     1
102
RTVSPropertyOp31
 70
     1
102
RTVSPropertyOp32
 70
     1
102
RTVSPropertyOp33
 70
     1
102
RTVSPropertyOp34
 70
     1
102
RTVSPropertyOp35
 70
     1
102
RTVSPropertyOp36
 70
     1
102
RTVSPropertyOp37
 70
     1
102
RTVSPropertyOp38
 70
     1
102
RTVSPropertyOp39
 70
     1
102
RTVSPropertyOp40
 70
     1
102
RTVSPropertyOp41
 70
     1
102
RTVSPropertyOp42
 70
     1
102
RTVSPropertyOp43
 70
     1
102
RTVSPropertyOp44
 70
     1
102
RTVSPropertyOp45
 70
     1
102
RTVSPropertyOp46
 70
     1
102
RTVSPropertyOp47
 70
     1
102
RTVSPropertyOp48
 70
     1
102
RTVSPropertyOp49
 70
     1
102
RTVSPropertyOp50
 70
     1
102
RTVSPropertyOp51
 70
     0
102
RTVSPropertyOp52
 70
     0
102
RTVSPropertyOp53
 70
     1
102
RTVSPropertyOp54
 70
     1
102
RTVSPropertyOp55
 70
     1
102
RTVSPropertyOp56
 70
     1
102
RTVSPropertyOp57
 70
     1
102
RTVSPropertyOp58
 70
     1
102
RTVSPropertyOp59
 70
     1
102
RTVSPropertyOp60
 70
     1
102
RTVSPropertyOp61
 70
     1
102
RTVSPropertyOp62
 70
     1
  0
XRECORD
  5
1AC
102
{ACAD_REACTORS
330
1AB
102
}
330
1AB
100
AcDbXrecord
280
     1
102
RTVSPost2010Prop28
280
     0
102
RTVSPost2010PropOp28
 70
     1
102
RTVSPost2010Prop29
280
     1
102
RTVSPost2010PropOp29
 70
     1
102
RTVSPost2010Prop30
280
     1
102
RTVSPost2010PropOp30
 70
     1
102
RTVSPost2010Prop31
280
     0
102
RTVSPost2010PropOp31
 70
     1
102
RTVSPost2010Prop32
280
     0
102
RTVSPost2010PropOp32
 70
     1
102
RTVSPost2010Prop33
280
     0
102
RTVSPost2010PropOp33
 70
     1
102
RTVSPost2010Prop34
280
     0
102
RTVSPost2010PropOp34
 70
     1
102
RTVSPost2010Prop35
280
     0
102
RTVSPost2010PropOp35
 70
     1
102
RTVSPost2010Prop36
280
     0
102
RTVSPost2010PropOp36
 70
     1
102
RTVSPost2010Prop37
 90
       50
102
RTVSPost2010PropOp37
 70
     1
102
RTVSPost2010Prop38
140
0.0
102
RTVSPost2010PropOp38
 70
     1
102
RTVSPost2010Prop39
140
1.0
102
RTVSPost2010PropOp39
 70
     1
102
RTVSPost2010Prop40
 90
        0
102
RTVSPost2010PropOp40
 70
     1
102
RTVSPost2010Prop41ColorIndex
 90
       18
102
RTVSPost2010Prop41ColorRGB
 90
        0
102
RTVSPost2010PropOp41
 70
     1
102
RTVSPost2010Prop42
 90
       50
102
RTVSPost2010PropOp42
 70
     1
102
RTVSPost2010Prop43
 90
        3
102
RTVSPost2010PropOp43
 70
     1
102
RTVSPost2010Prop44ColorIndex
 90
        5
102
RTVSPost2010Prop44ColorRGB
 90
      255
102
RTVSPost2010PropOp44
 70
     1
102
RTVSPost2010Prop45
280
     0
102
RTVSPost2010PropOp45
 70
     1
102
RTVSPost2010Prop46
 90
       50
102
RTVSPost2010PropOp46
 70
     1
102
RTVSPost2010Prop47
 90
       50
102
RTVSPost2010PropOp47
 70
     1
102
RTVSPost2010Prop48
 90
       50
102
RTVSPost2010PropOp48
 70
     1
102
RTVSPost2010Prop49
280
     0
102
RTVSPost2010PropOp49
 70
     1
102
RTVSPost2010Prop50
 90
       50
102
RTVSPost2010PropOp50
 70
     1
102
RTVSPost2010Prop51ColorIndex
 90
      256
102
RTVSPost2010Prop51ColorRGB
 90
-16777216
102
RTVSPost2010PropOp51
 70
     0
102
RTVSPost2010Prop52
140
1.0
102
RTVSPost2010PropOp52
 70
     0
102
RTVSPost2010Prop53
 90
        2
102
RTVSPost2010PropOp53
 70
     1
102
RTVSPost2010Prop54
  1
strokes_ogs.tif
102
RTVSPost2010PropOp54
 70
     1
102
RTVSPost2010Prop55
280
     0
102
RTVSPost2010PropOp55
 70
     1
102
RTVSPost2010Prop56
140
1.0
102
RTVSPost2010PropOp56
 70
     1
102
RTVSPost2010Prop57
140
1.0
102
RTVSPost2010PropOp57
 70
     1
102
RTVSPropertyOp0
 70
     1
102
RTVSPropertyOp1
 70
     1
102
RTVSPropertyOp2
 70
     1
102
RTVSPropertyOp3
 70
     1
102
RTVSPropertyOp4
 70
     1
102
RTVSPropertyOp5
 70
     1
102
RTVSPropertyOp6
 70
     1
102
RTVSPropertyOp7
 70
     1
102
RTVSPropertyOp8
 70
     1
102
RTVSPropertyOp9
 70
     1
102
RTVSPropertyOp10
 70
     1
102
RTVSPropertyOp11
 70
     1
102
RTVSPropertyOp12
 70
     1
102
RTVSPropertyOp13
 70
     1
102
RTVSPropertyOp14
 70
     1
102
RTVSPropertyOp15
 70
     1
102
RTVSPropertyOp16
 70
     1
102
RTVSPropertyOp17
 70
     1
102
RTVSPropertyOp18
 70
     1
102
RTVSPropertyOp19
 70
     1
102
RTVSPropertyOp20
 70
     1
102
RTVSPropertyOp21
 70
     1
102
RTVSPropertyOp22
 70
     1
102
RTVSPropertyOp23
 70
     1
102
RTVSPropertyOp24
 70
     1
102
RTVSPropertyOp25
 70
     1
102
RTVSPropertyOp26
 70
     1
102
RTVSPropertyOp27
 70
     1
102
RTVSPropertyOp28
 70
     1
102
RTVSPropertyOp29
 70
     1
102
RTVSPropertyOp30
 70
     1
102
RTVSPropertyOp31
 70
     1
102
RTVSPropertyOp32
 70
     1
102
RTVSPropertyOp33
 70
     1
102
RTVSPropertyOp34
 70
     1
102
RTVSPropertyOp35
 70
     1
102
RTVSPropertyOp36
 70
     1
102
RTVSPropertyOp37
 70
     1
102
RTVSPropertyOp38
 70
     1
102
RTVSPropertyOp39
 70
     1
102
RTVSPropertyOp40
 70
     1
102
RTVSPropertyOp41
 70
     1
102
RTVSPropertyOp42
 70
     1
102
RTVSPropertyOp43
 70
     1
102
RTVSPropertyOp44
 70
     1
102
RTVSPropertyOp45
 70
     1
102
RTVSPropertyOp46
 70
     1
102
RTVSPropertyOp47
 70
     1
102
RTVSPropertyOp48
 70
     1
102
RTVSPropertyOp49
 70
     1
102
RTVSPropertyOp50
 70
     1
102
RTVSPropertyOp51
 70
     0
102
RTVSPropertyOp52
 70
     0
102
RTVSPropertyOp53
 70
     1
102
RTVSPropertyOp54
 70
     1
102
RTVSPropertyOp55
 70
     1
102
RTVSPropertyOp56
 70
     1
102
RTVSPropertyOp57
 70
     1
102
RTVSPropertyOp58
 70
     1
102
RTVSPropertyOp59
 70
     1
102
RTVSPropertyOp60
 70
     1
102
RTVSPropertyOp61
 70
     1
102
RTVSPropertyOp62
 70
     1
  0
XRECORD
  5
1A2
102
{ACAD_REACTORS
330
1A1
102
}
330
1A1
100
AcDbXrecord
280
     1
102
RTVSPost2010Prop28
280
     0
102
RTVSPost2010PropOp28
 70
     1
102
RTVSPost2010Prop29
280
     1
102
RTVSPost2010PropOp29
 70
     1
102
RTVSPost2010Prop30
280
     1
102
RTVSPost2010PropOp30
 70
     1
102
RTVSPost2010Prop31
280
     0
102
RTVSPost2010PropOp31
 70
     1
102
RTVSPost2010Prop32
280
     0
102
RTVSPost2010PropOp32
 70
     1
102
RTVSPost2010Prop33
280
     0
102
RTVSPost2010PropOp33
 70
     1
102
RTVSPost2010Prop34
280
     0
102
RTVSPost2010PropOp34
 70
     1
102
RTVSPost2010Prop35
280
     0
102
RTVSPost2010PropOp35
 70
     1
102
RTVSPost2010Prop36
280
     0
102
RTVSPost2010PropOp36
 70
     1
102
RTVSPost2010Prop37
 90
       50
102
RTVSPost2010PropOp37
 70
     1
102
RTVSPost2010Prop38
140
0.0
102
RTVSPost2010PropOp38
 70
     1
102
RTVSPost2010Prop39
140
1.0
102
RTVSPost2010PropOp39
 70
     1
102
RTVSPost2010Prop40
 90
        0
102
RTVSPost2010PropOp40
 70
     1
102
RTVSPost2010Prop41ColorIndex
 90
       18
102
RTVSPost2010Prop41ColorRGB
 90
        0
102
RTVSPost2010PropOp41
 70
     1
102
RTVSPost2010Prop42
 90
       50
102
RTVSPost2010PropOp42
 70
     1
102
RTVSPost2010Prop43
 90
        3
102
RTVSPost2010PropOp43
 70
     1
102
RTVSPost2010Prop44ColorIndex
 90
        5
102
RTVSPost2010Prop44ColorRGB
 90
      255
102
RTVSPost2010PropOp44
 70
     1
102
RTVSPost2010Prop45
280
     0
102
RTVSPost2010PropOp45
 70
     1
102
RTVSPost2010Prop46
 90
       50
102
RTVSPost2010PropOp46
 70
     1
102
RTVSPost2010Prop47
 90
       50
102
RTVSPost2010PropOp47
 70
     1
102
RTVSPost2010Prop48
 90
       50
102
RTVSPost2010PropOp48
 70
     1
102
RTVSPost2010Prop49
280
     0
102
RTVSPost2010PropOp49
 70
     1
102
RTVSPost2010Prop50
 90
       50
102
RTVSPost2010PropOp50
 70
     1
102
RTVSPost2010Prop51ColorIndex
 90
      256
102
RTVSPost2010Prop51ColorRGB
 90
-16777216
102
RTVSPost2010PropOp51
 70
     0
102
RTVSPost2010Prop52
140
1.0
102
RTVSPost2010PropOp52
 70
     0
102
RTVSPost2010Prop53
 90
        2
102
RTVSPost2010PropOp53
 70
     1
102
RTVSPost2010Prop54
  1
strokes_ogs.tif
102
RTVSPost2010PropOp54
 70
     1
102
RTVSPost2010Prop55
280
     0
102
RTVSPost2010PropOp55
 70
     1
102
RTVSPost2010Prop56
140
1.0
102
RTVSPost2010PropOp56
 70
     1
102
RTVSPost2010Prop57
140
1.0
102
RTVSPost2010PropOp57
 70
     1
102
RTVSPropertyOp0
 70
     1
102
RTVSPropertyOp1
 70
     1
102
RTVSPropertyOp2
 70
     1
102
RTVSPropertyOp3
 70
     1
102
RTVSPropertyOp4
 70
     1
102
RTVSPropertyOp5
 70
     1
102
RTVSPropertyOp6
 70
     1
102
RTVSPropertyOp7
 70
     1
102
RTVSPropertyOp8
 70
     1
102
RTVSPropertyOp9
 70
     1
102
RTVSPropertyOp10
 70
     1
102
RTVSPropertyOp11
 70
     1
102
RTVSPropertyOp12
 70
     1
102
RTVSPropertyOp13
 70
     1
102
RTVSPropertyOp14
 70
     1
102
RTVSPropertyOp15
 70
     1
102
RTVSPropertyOp16
 70
     1
102
RTVSPropertyOp17
 70
     1
102
RTVSPropertyOp18
 70
     1
102
RTVSPropertyOp19
 70
     1
102
RTVSPropertyOp20
 70
     1
102
RTVSPropertyOp21
 70
     1
102
RTVSPropertyOp22
 70
     1
102
RTVSPropertyOp23
 70
     1
102
RTVSPropertyOp24
 70
     1
102
RTVSPropertyOp25
 70
     1
102
RTVSPropertyOp26
 70
     1
102
RTVSPropertyOp27
 70
     1
102
RTVSPropertyOp28
 70
     1
102
RTVSPropertyOp29
 70
     1
102
RTVSPropertyOp30
 70
     1
102
RTVSPropertyOp31
 70
     1
102
RTVSPropertyOp32
 70
     1
102
RTVSPropertyOp33
 70
     1
102
RTVSPropertyOp34
 70
     1
102
RTVSPropertyOp35
 70
     1
102
RTVSPropertyOp36
 70
     1
102
RTVSPropertyOp37
 70
     1
102
RTVSPropertyOp38
 70
     1
102
RTVSPropertyOp39
 70
     1
102
RTVSPropertyOp40
 70
     1
102
RTVSPropertyOp41
 70
     1
102
RTVSPropertyOp42
 70
     1
102
RTVSPropertyOp43
 70
     1
102
RTVSPropertyOp44
 70
     1
102
RTVSPropertyOp45
 70
     1
102
RTVSPropertyOp46
 70
     1
102
RTVSPropertyOp47
 70
     1
102
RTVSPropertyOp48
 70
     1
102
RTVSPropertyOp49
 70
     1
102
RTVSPropertyOp50
 70
     1
102
RTVSPropertyOp51
 70
     0
102
RTVSPropertyOp52
 70
     0
102
RTVSPropertyOp53
 70
     1
102
RTVSPropertyOp54
 70
     1
102
RTVSPropertyOp55
 70
     1
102
RTVSPropertyOp56
 70
     1
102
RTVSPropertyOp57
 70
     1
102
RTVSPropertyOp58
 70
     1
102
RTVSPropertyOp59
 70
     1
102
RTVSPropertyOp60
 70
     1
102
RTVSPropertyOp61
 70
     1
102
RTVSPropertyOp62
 70
     1
  0
XRECORD
  5
196
102
{ACAD_REACTORS
330
195
102
}
330
195
100
AcDbXrecord
280
     1
102
RTVSPost2010Prop28
280
     0
102
RTVSPost2010PropOp28
 70
     1
102
RTVSPost2010Prop29
280
     1
102
RTVSPost2010PropOp29
 70
     1
102
RTVSPost2010Prop30
280
     1
102
RTVSPost2010PropOp30
 70
     1
102
RTVSPost2010Prop31
280
     0
102
RTVSPost2010PropOp31
 70
     1
102
RTVSPost2010Prop32
280
     0
102
RTVSPost2010PropOp32
 70
     1
102
RTVSPost2010Prop33
280
     0
102
RTVSPost2010PropOp33
 70
     1
102
RTVSPost2010Prop34
280
     0
102
RTVSPost2010PropOp34
 70
     1
102
RTVSPost2010Prop35
280
     0
102
RTVSPost2010PropOp35
 70
     1
102
RTVSPost2010Prop36
280
     0
102
RTVSPost2010PropOp36
 70
     1
102
RTVSPost2010Prop37
 90
       50
102
RTVSPost2010PropOp37
 70
     1
102
RTVSPost2010Prop38
140
0.0
102
RTVSPost2010PropOp38
 70
     1
102
RTVSPost2010Prop39
140
1.0
102
RTVSPost2010PropOp39
 70
     1
102
RTVSPost2010Prop40
 90
        0
102
RTVSPost2010PropOp40
 70
     1
102
RTVSPost2010Prop41ColorIndex
 90
       18
102
RTVSPost2010Prop41ColorRGB
 90
        0
102
RTVSPost2010PropOp41
 70
     1
102
RTVSPost2010Prop42
 90
       50
102
RTVSPost2010PropOp42
 70
     1
102
RTVSPost2010Prop43
 90
        3
102
RTVSPost2010PropOp43
 70
     1
102
RTVSPost2010Prop44ColorIndex
 90
        5
102
RTVSPost2010Prop44ColorRGB
 90
      255
102
RTVSPost2010PropOp44
 70
     1
102
RTVSPost2010Prop45
280
     0
102
RTVSPost2010PropOp45
 70
     1
102
RTVSPost2010Prop46
 90
       50
102
RTVSPost2010PropOp46
 70
     1
102
RTVSPost2010Prop47
 90
       50
102
RTVSPost2010PropOp47
 70
     1
102
RTVSPost2010Prop48
 90
       50
102
RTVSPost2010PropOp48
 70
     1
102
RTVSPost2010Prop49
280
     0
102
RTVSPost2010PropOp49
 70
     1
102
RTVSPost2010Prop50
 90
       50
102
RTVSPost2010PropOp50
 70
     1
102
RTVSPost2010Prop51ColorIndex
 90
      256
102
RTVSPost2010Prop51ColorRGB
 90
-16777216
102
RTVSPost2010PropOp51
 70
     0
102
RTVSPost2010Prop52
140
1.0
102
RTVSPost2010PropOp52
 70
     0
102
RTVSPost2010Prop53
 90
        2
102
RTVSPost2010PropOp53
 70
     1
102
RTVSPost2010Prop54
  1
strokes_ogs.tif
102
RTVSPost2010PropOp54
 70
     1
102
RTVSPost2010Prop55
280
     0
102
RTVSPost2010PropOp55
 70
     1
102
RTVSPost2010Prop56
140
1.0
102
RTVSPost2010PropOp56
 70
     1
102
RTVSPost2010Prop57
140
1.0
102
RTVSPost2010PropOp57
 70
     1
102
RTVSPropertyOp0
 70
     1
102
RTVSPropertyOp1
 70
     1
102
RTVSPropertyOp2
 70
     1
102
RTVSPropertyOp3
 70
     1
102
RTVSPropertyOp4
 70
     1
102
RTVSPropertyOp5
 70
     1
102
RTVSPropertyOp6
 70
     1
102
RTVSPropertyOp7
 70
     1
102
RTVSPropertyOp8
 70
     1
102
RTVSPropertyOp9
 70
     1
102
RTVSPropertyOp10
 70
     1
102
RTVSPropertyOp11
 70
     1
102
RTVSPropertyOp12
 70
     1
102
RTVSPropertyOp13
 70
     1
102
RTVSPropertyOp14
 70
     1
102
RTVSPropertyOp15
 70
     1
102
RTVSPropertyOp16
 70
     1
102
RTVSPropertyOp17
 70
     1
102
RTVSPropertyOp18
 70
     1
102
RTVSPropertyOp19
 70
     1
102
RTVSPropertyOp20
 70
     1
102
RTVSPropertyOp21
 70
     1
102
RTVSPropertyOp22
 70
     1
102
RTVSPropertyOp23
 70
     1
102
RTVSPropertyOp24
 70
     1
102
RTVSPropertyOp25
 70
     1
102
RTVSPropertyOp26
 70
     1
102
RTVSPropertyOp27
 70
     1
102
RTVSPropertyOp28
 70
     1
102
RTVSPropertyOp29
 70
     1
102
RTVSPropertyOp30
 70
     1
102
RTVSPropertyOp31
 70
     1
102
RTVSPropertyOp32
 70
     1
102
RTVSPropertyOp33
 70
     1
102
RTVSPropertyOp34
 70
     1
102
RTVSPropertyOp35
 70
     1
102
RTVSPropertyOp36
 70
     1
102
RTVSPropertyOp37
 70
     1
102
RTVSPropertyOp38
 70
     1
102
RTVSPropertyOp39
 70
     1
102
RTVSPropertyOp40
 70
     1
102
RTVSPropertyOp41
 70
     1
102
RTVSPropertyOp42
 70
     1
102
RTVSPropertyOp43
 70
     1
102
RTVSPropertyOp44
 70
     1
102
RTVSPropertyOp45
 70
     1
102
RTVSPropertyOp46
 70
     1
102
RTVSPropertyOp47
 70
     1
102
RTVSPropertyOp48
 70
     1
102
RTVSPropertyOp49
 70
     1
102
RTVSPropertyOp50
 70
     1
102
RTVSPropertyOp51
 70
     0
102
RTVSPropertyOp52
 70
     0
102
RTVSPropertyOp53
 70
     1
102
RTVSPropertyOp54
 70
     1
102
RTVSPropertyOp55
 70
     1
102
RTVSPropertyOp56
 70
     1
102
RTVSPropertyOp57
 70
     1
102
RTVSPropertyOp58
 70
     1
102
RTVSPropertyOp59
 70
     1
102
RTVSPropertyOp60
 70
     1
102
RTVSPropertyOp61
 70
     1
102
RTVSPropertyOp62
 70
     1
  0
XRECORD
  5
1AE
102
{ACAD_REACTORS
330
1AD
102
}
330
1AD
100
AcDbXrecord
280
     1
102
RTVSPost2010Prop28
280
     0
102
RTVSPost2010PropOp28
 70
     1
102
RTVSPost2010Prop29
280
     1
102
RTVSPost2010PropOp29
 70
     1
102
RTVSPost2010Prop30
280
     1
102
RTVSPost2010PropOp30
 70
     1
102
RTVSPost2010Prop31
280
     0
102
RTVSPost2010PropOp31
 70
     1
102
RTVSPost2010Prop32
280
     0
102
RTVSPost2010PropOp32
 70
     1
102
RTVSPost2010Prop33
280
     0
102
RTVSPost2010PropOp33
 70
     1
102
RTVSPost2010Prop34
280
     0
102
RTVSPost2010PropOp34
 70
     1
102
RTVSPost2010Prop35
280
     0
102
RTVSPost2010PropOp35
 70
     1
102
RTVSPost2010Prop36
280
     0
102
RTVSPost2010PropOp36
 70
     1
102
RTVSPost2010Prop37
 90
       50
102
RTVSPost2010PropOp37
 70
     1
102
RTVSPost2010Prop38
140
0.0
102
RTVSPost2010PropOp38
 70
     1
102
RTVSPost2010Prop39
140
1.0
102
RTVSPost2010PropOp39
 70
     1
102
RTVSPost2010Prop40
 90
        0
102
RTVSPost2010PropOp40
 70
     1
102
RTVSPost2010Prop41ColorIndex
 90
       18
102
RTVSPost2010Prop41ColorRGB
 90
        0
102
RTVSPost2010PropOp41
 70
     1
102
RTVSPost2010Prop42
 90
       50
102
RTVSPost2010PropOp42
 70
     1
102
RTVSPost2010Prop43
 90
        3
102
RTVSPost2010PropOp43
 70
     1
102
RTVSPost2010Prop44ColorIndex
 90
        5
102
RTVSPost2010Prop44ColorRGB
 90
      255
102
RTVSPost2010PropOp44
 70
     1
102
RTVSPost2010Prop45
280
     0
102
RTVSPost2010PropOp45
 70
     1
102
RTVSPost2010Prop46
 90
       50
102
RTVSPost2010PropOp46
 70
     1
102
RTVSPost2010Prop47
 90
       50
102
RTVSPost2010PropOp47
 70
     1
102
RTVSPost2010Prop48
 90
       50
102
RTVSPost2010PropOp48
 70
     1
102
RTVSPost2010Prop49
280
     0
102
RTVSPost2010PropOp49
 70
     1
102
RTVSPost2010Prop50
 90
       50
102
RTVSPost2010PropOp50
 70
     1
102
RTVSPost2010Prop51ColorIndex
 90
      256
102
RTVSPost2010Prop51ColorRGB
 90
-16777216
102
RTVSPost2010PropOp51
 70
     0
102
RTVSPost2010Prop52
140
1.0
102
RTVSPost2010PropOp52
 70
     0
102
RTVSPost2010Prop53
 90
        2
102
RTVSPost2010PropOp53
 70
     1
102
RTVSPost2010Prop54
  1
strokes_ogs.tif
102
RTVSPost2010PropOp54
 70
     1
102
RTVSPost2010Prop55
280
     0
102
RTVSPost2010PropOp55
 70
     1
102
RTVSPost2010Prop56
140
1.0
102
RTVSPost2010PropOp56
 70
     1
102
RTVSPost2010Prop57
140
1.0
102
RTVSPost2010PropOp57
 70
     1
102
RTVSPropertyOp0
 70
     1
102
RTVSPropertyOp1
 70
     1
102
RTVSPropertyOp2
 70
     1
102
RTVSPropertyOp3
 70
     1
102
RTVSPropertyOp4
 70
     1
102
RTVSPropertyOp5
 70
     1
102
RTVSPropertyOp6
 70
     1
102
RTVSPropertyOp7
 70
     1
102
RTVSPropertyOp8
 70
     1
102
RTVSPropertyOp9
 70
     1
102
RTVSPropertyOp10
 70
     1
102
RTVSPropertyOp11
 70
     1
102
RTVSPropertyOp12
 70
     1
102
RTVSPropertyOp13
 70
     1
102
RTVSPropertyOp14
 70
     1
102
RTVSPropertyOp15
 70
     1
102
RTVSPropertyOp16
 70
     1
102
RTVSPropertyOp17
 70
     1
102
RTVSPropertyOp18
 70
     1
102
RTVSPropertyOp19
 70
     1
102
RTVSPropertyOp20
 70
     1
102
RTVSPropertyOp21
 70
     1
102
RTVSPropertyOp22
 70
     1
102
RTVSPropertyOp23
 70
     1
102
RTVSPropertyOp24
 70
     1
102
RTVSPropertyOp25
 70
     1
102
RTVSPropertyOp26
 70
     1
102
RTVSPropertyOp27
 70
     1
102
RTVSPropertyOp28
 70
     1
102
RTVSPropertyOp29
 70
     1
102
RTVSPropertyOp30
 70
     1
102
RTVSPropertyOp31
 70
     1
102
RTVSPropertyOp32
 70
     1
102
RTVSPropertyOp33
 70
     1
102
RTVSPropertyOp34
 70
     1
102
RTVSPropertyOp35
 70
     1
102
RTVSPropertyOp36
 70
     1
102
RTVSPropertyOp37
 70
     1
102
RTVSPropertyOp38
 70
     1
102
RTVSPropertyOp39
 70
     1
102
RTVSPropertyOp40
 70
     1
102
RTVSPropertyOp41
 70
     1
102
RTVSPropertyOp42
 70
     1
102
RTVSPropertyOp43
 70
     1
102
RTVSPropertyOp44
 70
     1
102
RTVSPropertyOp45
 70
     1
102
RTVSPropertyOp46
 70
     1
102
RTVSPropertyOp47
 70
     1
102
RTVSPropertyOp48
 70
     1
102
RTVSPropertyOp49
 70
     1
102
RTVSPropertyOp50
 70
     1
102
RTVSPropertyOp51
 70
     0
102
RTVSPropertyOp52
 70
     0
102
RTVSPropertyOp53
 70
     1
102
RTVSPropertyOp54
 70
     1
102
RTVSPropertyOp55
 70
     1
102
RTVSPropertyOp56
 70
     1
102
RTVSPropertyOp57
 70
     1
102
RTVSPropertyOp58
 70
     1
102
RTVSPropertyOp59
 70
     1
102
RTVSPropertyOp60
 70
     1
102
RTVSPropertyOp61
 70
     1
102
RTVSPropertyOp62
 70
     1
  0
ENDSEC
  0
EOF
