  0
SECTION
  2
HEADER
  9
$ACADVER
  1
AC1032
  9
$ACADMAINTVER
 90
      329
  9
$DWGCODEPAGE
  3
ANSI_936
  9
$REQUIREDVERSIONS
160
                 0
  9
$INSBASE
 10
0.0
 20
0.0
 30
0.0
  9
$EXTMIN
 10
1.000000000000000E+20
 20
1.000000000000000E+20
 30
1.000000000000000E+20
  9
$EXTMAX
 10
-1.000000000000000E+20
 20
-1.000000000000000E+20
 30
-1.000000000000000E+20
  9
$LIMMIN
 10
0.0
 20
0.0
  9
$LIMMAX
 10
12.0
 20
9.0
  9
$ORTHOMODE
 70
     0
  9
$REGENMODE
 70
     1
  9
$FILLMODE
 70
     1
  9
$QTEXTMODE
 70
     0
  9
$MIRRTEXT
 70
     0
  9
$LTSCALE
 40
1.0
  9
$ATTMODE
 70
     1
  9
$TEXTSIZE
 40
0.2
  9
$TRACEWID
 40
0.05
  9
$TEXTSTYLE
  7
Standard
  9
$CLAYER
  8
0
  9
$CELTYPE
  6
ByLayer
  9
$CECOLOR
 62
   256
  9
$CELTSCALE
 40
1.0
  9
$DISPSILH
 70
     0
  9
$DIMSCALE
 40
1.0
  9
$DIMASZ
 40
0.18
  9
$DIMEXO
 40
0.0625
  9
$DIMDLI
 40
0.38
  9
$DIMRND
 40
0.0
  9
$DIMDLE
 40
0.0
  9
$DIMEXE
 40
0.18
  9
$DIMTP
 40
0.0
  9
$DIMTM
 40
0.0
  9
$DIMTXT
 40
0.18
  9
$DIMCEN
 40
0.09
  9
$DIMTSZ
 40
0.0
  9
$DIMTOL
 70
     0
  9
$DIMLIM
 70
     0
  9
$DIMTIH
 70
     1
  9
$DIMTOH
 70
     1
  9
$DIMSE1
 70
     0
  9
$DIMSE2
 70
     0
  9
$DIMTAD
 70
     0
  9
$DIMZIN
 70
     0
  9
$DIMBLK
  1

  9
$DIMASO
 70
     1
  9
$DIMSHO
 70
     1
  9
$DIMPOST
  1

  9
$DIMAPOST
  1

  9
$DIMALT
 70
     0
  9
$DIMALTD
 70
     2
  9
$DIMALTF
 40
25.4
  9
$DIMLFAC
 40
1.0
  9
$DIMTOFL
 70
     0
  9
$DIMTVP
 40
0.0
  9
$DIMTIX
 70
     0
  9
$DIMSOXD
 70
     0
  9
$DIMSAH
 70
     0
  9
$DIMBLK1
  1

  9
$DIMBLK2
  1

  9
$DIMSTYLE
  2
Standard
  9
$DIMCLRD
 70
     0
  9
$DIMCLRE
 70
     0
  9
$DIMCLRT
 70
     0
  9
$DIMTFAC
 40
1.0
  9
$DIMGAP
 40
0.09
  9
$DIMJUST
 70
     0
  9
$DIMSD1
 70
     0
  9
$DIMSD2
 70
     0
  9
$DIMTOLJ
 70
     1
  9
$DIMTZIN
 70
     0
  9
$DIMALTZ
 70
     0
  9
$DIMALTTZ
 70
     0
  9
$DIMUPT
 70
     0
  9
$DIMDEC
 70
     4
  9
$DIMTDEC
 70
     4
  9
$DIMALTU
 70
     2
  9
$DIMALTTD
 70
     2
  9
$DIMTXSTY
  7
Standard
  9
$DIMAUNIT
 70
     0
  9
$DIMADEC
 70
     0
  9
$DIMALTRND
 40
0.0
  9
$DIMAZIN
 70
     0
  9
$DIMDSEP
 70
    46
  9
$DIMATFIT
 70
     3
  9
$DIMFRAC
 70
     0
  9
$DIMLDRBLK
  1

  9
$DIMLUNIT
 70
     2
  9
$DIMLWD
 70
    -2
  9
$DIMLWE
 70
    -2
  9
$DIMTMOVE
 70
     0
  9
$DIMFXL
 40
1.0
  9
$DIMFXLON
 70
     0
  9
$DIMJOGANG
 40
0.7853981633974483
  9
$DIMTFILL
 70
     0
  9
$DIMTFILLCLR
 70
     0
  9
$DIMARCSYM
 70
     0
  9
$DIMLTYPE
  6

  9
$DIMLTEX1
  6

  9
$DIMLTEX2
  6

  9
$DIMTXTDIRECTION
 70
     0
  9
$LUNITS
 70
     2
  9
$LUPREC
 70
     4
  9
$SKETCHINC
 40
0.1
  9
$FILLETRAD
 40
0.0
  9
$AUNITS
 70
     0
  9
$AUPREC
 70
     0
  9
$MENU
  1
.
  9
$ELEVATION
 40
0.0
  9
$PELEVATION
 40
0.0
  9
$THICKNESS
 40
0.0
  9
$LIMCHECK
 70
     0
  9
$CHAMFERA
 40
0.0
  9
$CHAMFERB
 40
0.0
  9
$CHAMFERC
 40
0.0
  9
$CHAMFERD
 40
0.0
  9
$SKPOLY
 70
     0
  9
$TDCREATE
 40
2460887.368090278
  9
$TDUCREATE
 40
2460887.034756945
  9
$TDUPDATE
 40
2460887.368090278
  9
$TDUUPDATE
 40
2460887.034756945
  9
$TDINDWG
 40
0.0000000000
  9
$TDUSRTIMER
 40
0.0000000000
  9
$USRTIMER
 70
     1
  9
$ANGBASE
 50
0.0
  9
$ANGDIR
 70
     0
  9
$PDMODE
 70
     0
  9
$PDSIZE
 40
0.0
  9
$PLINEWID
 40
0.0
  9
$SPLFRAME
 70
     0
  9
$SPLINETYPE
 70
     6
  9
$SPLINESEGS
 70
     8
  9
$HANDSEED
  5
10A
  9
$SURFTAB1
 70
     6
  9
$SURFTAB2
 70
     6
  9
$SURFTYPE
 70
     6
  9
$SURFU
 70
     6
  9
$SURFV
 70
     6
  9
$UCSBASE
  2

  9
$UCSNAME
  2

  9
$UCSORG
 10
0.0
 20
0.0
 30
0.0
  9
$UCSXDIR
 10
1.0
 20
0.0
 30
0.0
  9
$UCSYDIR
 10
0.0
 20
1.0
 30
0.0
  9
$UCSORTHOREF
  2

  9
$UCSORTHOVIEW
 70
     0
  9
$UCSORGTOP
 10
0.0
 20
0.0
 30
0.0
  9
$UCSORGBOTTOM
 10
0.0
 20
0.0
 30
0.0
  9
$UCSORGLEFT
 10
0.0
 20
0.0
 30
0.0
  9
$UCSORGRIGHT
 10
0.0
 20
0.0
 30
0.0
  9
$UCSORGFRONT
 10
0.0
 20
0.0
 30
0.0
  9
$UCSORGBACK
 10
0.0
 20
0.0
 30
0.0
  9
$PUCSBASE
  2

  9
$PUCSNAME
  2

  9
$PUCSORG
 10
0.0
 20
0.0
 30
0.0
  9
$PUCSXDIR
 10
1.0
 20
0.0
 30
0.0
  9
$PUCSYDIR
 10
0.0
 20
1.0
 30
0.0
  9
$PUCSORTHOREF
  2

  9
$PUCSORTHOVIEW
 70
     0
  9
$PUCSORGTOP
 10
0.0
 20
0.0
 30
0.0
  9
$PUCSORGBOTTOM
 10
0.0
 20
0.0
 30
0.0
  9
$PUCSORGLEFT
 10
0.0
 20
0.0
 30
0.0
  9
$PUCSORGRIGHT
 10
0.0
 20
0.0
 30
0.0
  9
$PUCSORGFRONT
 10
0.0
 20
0.0
 30
0.0
  9
$PUCSORGBACK
 10
0.0
 20
0.0
 30
0.0
  9
$USERI1
 70
     0
  9
$USERI2
 70
     0
  9
$USERI3
 70
     0
  9
$USERI4
 70
     0
  9
$USERI5
 70
     0
  9
$USERR1
 40
0.0
  9
$USERR2
 40
0.0
  9
$USERR3
 40
0.0
  9
$USERR4
 40
0.0
  9
$USERR5
 40
0.0
  9
$WORLDVIEW
 70
     1
  9
$SHADEDGE
 70
     3
  9
$SHADEDIF
 70
    70
  9
$TILEMODE
 70
     1
  9
$MAXACTVP
 70
    64
  9
$PINSBASE
 10
0.0
 20
0.0
 30
0.0
  9
$PLIMCHECK
 70
     0
  9
$PEXTMIN
 10
1.000000000000000E+20
 20
1.000000000000000E+20
 30
1.000000000000000E+20
  9
$PEXTMAX
 10
-1.000000000000000E+20
 20
-1.000000000000000E+20
 30
-1.000000000000000E+20
  9
$PLIMMIN
 10
0.0
 20
0.0
  9
$PLIMMAX
 10
12.0
 20
9.0
  9
$UNITMODE
 70
     0
  9
$VISRETAIN
 70
     1
  9
$PLINEGEN
 70
     0
  9
$PSLTSCALE
 70
     1
  9
$TREEDEPTH
 70
  3020
  9
$CMLSTYLE
  2
Standard
  9
$CMLJUST
 70
     0
  9
$CMLSCALE
 40
1.0
  9
$PROXYGRAPHICS
 70
     1
  9
$MEASUREMENT
 70
     0
  9
$CELWEIGHT
370
    -1
  9
$ENDCAPS
280
     0
  9
$JOINSTYLE
280
     0
  9
$LWDISPLAY
290
     1
  9
$INSUNITS
 70
     1
  9
$HYPERLINKBASE
  1

  9
$STYLESHEET
  1

  9
$XEDIT
290
     1
  9
$CEPSNTYPE
380
     0
  9
$PSTYLEMODE
290
     1
  9
$FINGERPRINTGUID
  2
{0B53203D-634C-FD4E-B98B-4D30AE70D80A}
  9
$VERSIONGUID
  2
{185EA259-96D2-704B-A845-19E9DFF0A277}
  9
$EXTNAMES
290
     1
  9
$PSVPSCALE
 40
0.0
  9
$OLESTARTUP
290
     0
  9
$SORTENTS
280
   127
  9
$INDEXCTL
280
     0
  9
$HIDETEXT
280
     1
  9
$XCLIPFRAME
280
     2
  9
$HALOGAP
280
     0
  9
$OBSCOLOR
 70
   257
  9
$OBSLTYPE
280
     0
  9
$INTERSECTIONDISPLAY
280
     0
  9
$INTERSECTIONCOLOR
 70
   257
  9
$DIMASSOC
280
     2
  9
$PROJECTNAME
  1

  9
$CAMERADISPLAY
290
     0
  9
$LENSLENGTH
 40
50.0
  9
$CAMERAHEIGHT
 40
0.0
  9
$STEPSPERSEC
 40
2.0
  9
$STEPSIZE
 40
6.0
  9
$3DDWFPREC
 40
2.0
  9
$PSOLWIDTH
 40
0.25
  9
$PSOLHEIGHT
 40
4.0
  9
$LOFTANG1
 40
1.570796326794896
  9
$LOFTANG2
 40
1.570796326794896
  9
$LOFTMAG1
 40
0.0
  9
$LOFTMAG2
 40
0.0
  9
$LOFTPARAM
 70
     7
  9
$LOFTNORMALS
280
     1
  9
$LATITUDE
 40
37.795
  9
$LONGITUDE
 40
-122.394
  9
$NORTHDIRECTION
 40
0.0
  9
$TIMEZONE
 70
 -8000
  9
$LIGHTGLYPHDISPLAY
280
     1
  9
$TILEMODELIGHTSYNCH
280
     1
  9
$CMATERIAL
347
11
  9
$SOLIDHIST
280
     0
  9
$SHOWHIST
280
     1
  9
$DWFFRAME
280
     2
  9
$DGNFRAME
280
     0
  9
$REALWORLDSCALE
290
     1
  9
$INTERFERECOLOR
 62
     1
  9
$INTERFEREOBJVS
345
33
  9
$INTERFEREVPVS
346
30
  9
$CSHADOW
280
     0
  9
$SHADOWPLANELOCATION
 40
0.0
  0
ENDSEC
  0
SECTION
  2
CLASSES
  0
CLASS
  1
ACDBDICTIONARYWDFLT
  2
AcDbDictionaryWithDefault
  3
ObjectDBX Classes
 90
        0
 91
        1
280
     0
281
     0
  0
CLASS
  1
MATERIAL
  2
AcDbMaterial
  3
ObjectDBX Classes
 90
     1153
 91
        3
280
     0
281
     0
  0
CLASS
  1
VISUALSTYLE
  2
AcDbVisualStyle
  3
ObjectDBX Classes
 90
     4095
 91
       24
280
     0
281
     0
  0
CLASS
  1
SCALE
  2
AcDbScale
  3
ObjectDBX Classes
 90
     1153
 91
       17
280
     0
281
     0
  0
CLASS
  1
TABLESTYLE
  2
AcDbTableStyle
  3
ObjectDBX Classes
 90
     4095
 91
        1
280
     0
281
     0
  0
CLASS
  1
MLEADERSTYLE
  2
AcDbMLeaderStyle
  3
ACDB_MLEADERSTYLE_CLASS
 90
     4095
 91
        1
280
     0
281
     0
  0
CLASS
  1
ACDBSECTIONVIEWSTYLE
  2
AcDbSectionViewStyle
  3
ObjectDBX Classes
 90
     1025
 91
        1
280
     0
281
     0
  0
CLASS
  1
ACDBDETAILVIEWSTYLE
  2
AcDbDetailViewStyle
  3
ObjectDBX Classes
 90
     1025
 91
        1
280
     0
281
     0
  0
CLASS
  1
DICTIONARYVAR
  2
AcDbDictionaryVar
  3
ObjectDBX Classes
 90
        0
 91
        5
280
     0
281
     0
  0
CLASS
  1
CELLSTYLEMAP
  2
AcDbCellStyleMap
  3
ObjectDBX Classes
 90
     1152
 91
        1
280
     0
281
     0
  0
ENDSEC
  0
SECTION
  2
TABLES
  0
TABLE
  2
VPORT
  5
8
330
0
100
AcDbSymbolTable
 70
     1
  0
VPORT
  5
57
330
8
100
AcDbSymbolTableRecord
100
AcDbViewportTableRecord
  2
*Active
 70
     0
 10
0.0
 20
0.0
 11
1.0
 21
1.0
 12
0.0
 22
0.0
 13
0.0
 23
0.0
 14
1.0
 24
1.0
 15
0.0
 25
0.0
 16
0.0
 26
0.0
 36
1.0
 17
10.0
 27
-8.5
 37
0.0
 40
17.34
 41
1.176470588235293
 42
50.0
 43
0.0
 44
0.0
 50
0.0
 51
0.0
 71
     0
 72
   100
 73
     1
 74
     1
 75
     0
 76
     0
 77
     0
 78
     0
281
     0
 65
     1
110
0.0
120
0.0
130
0.0
111
1.0
121
0.0
131
0.0
112
0.0
122
1.0
132
0.0
 79
     0
146
0.0
 60
     3
 61
     5
292
     1
282
     1
141
0.0
142
0.0
 63
   250
421
  3355443
  0
ENDTAB
  0
TABLE
  2
LTYPE
  5
5
330
0
100
AcDbSymbolTable
 70
     1
  0
LTYPE
  5
5B
330
5
100
AcDbSymbolTableRecord
100
AcDbLinetypeTableRecord
  2
ByBlock
 70
     0
  3

 72
    65
 73
     0
 40
0.0
  0
LTYPE
  5
5C
330
5
100
AcDbSymbolTableRecord
100
AcDbLinetypeTableRecord
  2
ByLayer
 70
     0
  3

 72
    65
 73
     0
 40
0.0
  0
LTYPE
  5
5D
330
5
100
AcDbSymbolTableRecord
100
AcDbLinetypeTableRecord
  2
Continuous
 70
     0
  3
Solid line
 72
    65
 73
     0
 40
0.0
  0
ENDTAB
  0
TABLE
  2
LAYER
  5
2
330
0
100
AcDbSymbolTable
 70
     2
  0
LAYER
  5
54
330
2
100
AcDbSymbolTableRecord
100
AcDbLayerTableRecord
  2
0
 70
     0
 62
     7
  6
Continuous
370
    -3
390
F
347
21
348
0
  0
LAYER
  5
78
330
2
100
AcDbSymbolTableRecord
100
AcDbLayerTableRecord
  2
Layer 1
 70
     0
 62
     7
  6
Continuous
370
     0
390
F
347
21
348
0
  0
ENDTAB
  0
TABLE
  2
STYLE
  5
3
330
0
100
AcDbSymbolTable
 70
     2
  0
STYLE
  5
55
330
3
100
AcDbSymbolTableRecord
100
AcDbTextStyleTableRecord
  2
Standard
 70
     0
 40
0.0
 41
1.0
 50
0.0
 71
     0
 42
0.2
  3
txt
  4

  0
STYLE
  5
5A
330
3
100
AcDbSymbolTableRecord
100
AcDbTextStyleTableRecord
  2
Annotative
 70
     0
 40
0.0
 41
1.0
 50
0.0
 71
     0
 42
0.2
  3
txt
  4

1001
AcadAnnotative
1000
AnnotativeData
1002
{
1070
     1
1070
     1
1002
}
  0
ENDTAB
  0
TABLE
  2
VIEW
  5
6
330
0
100
AcDbSymbolTable
 70
     0
  0
ENDTAB
  0
TABLE
  2
UCS
  5
7
330
0
100
AcDbSymbolTable
 70
     0
  0
ENDTAB
  0
TABLE
  2
APPID
  5
9
330
0
100
AcDbSymbolTable
 70
     2
  0
APPID
  5
56
330
9
100
AcDbSymbolTableRecord
100
AcDbRegAppTableRecord
  2
ACAD
 70
     0
  0
APPID
  5
5E
330
9
100
AcDbSymbolTableRecord
100
AcDbRegAppTableRecord
  2
AcadAnnotative
 70
     0
  0
ENDTAB
  0
TABLE
  2
DIMSTYLE
  5
A
330
0
100
AcDbSymbolTable
 70
     2
100
AcDbDimStyleTable
 71
     0
  0
DIMSTYLE
105
58
330
A
100
AcDbSymbolTableRecord
100
AcDbDimStyleTableRecord
  2
Standard
 70
     0
340
55
  0
DIMSTYLE
105
59
330
A
100
AcDbSymbolTableRecord
100
AcDbDimStyleTableRecord
  2
Annotative
 70
     0
340
55
1001
AcadAnnotative
1000
AnnotativeData
1002
{
1070
     1
1070
     1
1002
}
  0
ENDTAB
  0
TABLE
  2
BLOCK_RECORD
  5
1
330
0
100
AcDbSymbolTable
 70
     1
  0
BLOCK_RECORD
  5
70
330
1
100
AcDbSymbolTableRecord
100
AcDbBlockTableRecord
  2
*Model_Space
340
73
 70
     0
280
     1
281
     0
  0
BLOCK_RECORD
  5
6C
330
1
100
AcDbSymbolTableRecord
100
AcDbBlockTableRecord
  2
*Paper_Space
340
6F
 70
     0
280
     1
281
     0
  0
BLOCK_RECORD
  5
74
330
1
100
AcDbSymbolTableRecord
100
AcDbBlockTableRecord
  2
*Paper_Space0
340
77
 70
     0
280
     1
281
     0
  0
ENDTAB
  0
ENDSEC
  0
SECTION
  2
BLOCKS
  0
BLOCK
  5
71
330
70
100
AcDbEntity
  8
0
100
AcDbBlockBegin
  2
*Model_Space
 70
     0
 10
0.0
 20
0.0
 30
0.0
  3
*Model_Space
  1

  0
ENDBLK
  5
72
330
70
100
AcDbEntity
  8
0
100
AcDbBlockEnd
  0
BLOCK
  5
6D
330
6C
100
AcDbEntity
 67
     1
  8
0
100
AcDbBlockBegin
  2
*Paper_Space
 70
     0
 10
0.0
 20
0.0
 30
0.0
  3
*Paper_Space
  1

  0
ENDBLK
  5
6E
330
6C
100
AcDbEntity
 67
     1
  8
0
100
AcDbBlockEnd
  0
BLOCK
  5
75
330
74
100
AcDbEntity
 67
     1
  8
0
100
AcDbBlockBegin
  2
*Paper_Space0
 70
     0
 10
0.0
 20
0.0
 30
0.0
  3
*Paper_Space0
  1

  0
ENDBLK
  5
76
330
74
100
AcDbEntity
 67
     1
  8
0
100
AcDbBlockEnd
  0
ENDSEC
  0
SECTION
  2
ENTITIES
  0
LINE
  5
79
330
70
100
AcDbEntity
  8
Layer 1
 62
    18
420
        0
370
     5
100
AcDbLine
 10
5.201094928860091
 20
-13.64264028866311
 30
0.0
 11
5.675330364790384
 21
-13.64264028866311
 31
0.0
  0
LINE
  5
7A
330
70
100
AcDbEntity
  8
Layer 1
 62
    18
420
        0
370
     5
100
AcDbLine
 10
5.19027365201028
 20
-10.91389266860584
 30
0.0
 11
5.19027365201028
 21
-13.63034388198646
 31
0.0
  0
LINE
  5
7B
330
70
100
AcDbEntity
  8
Layer 1
 62
    18
420
        0
370
     5
100
AcDbLine
 10
5.68615164164017
 20
-10.91389266860584
 30
0.0
 11
5.68615164164017
 21
-13.63034388198646
 31
0.0
  0
LINE
  5
7C
330
70
100
AcDbEntity
  8
Layer 1
 62
    18
420
        0
370
     5
100
AcDbLine
 10
2.69022212095975
 20
-2.603603980761994
 30
0.0
 11
2.69022212095975
 21
-2.369714862319874
 31
0.0
  0
LINE
  5
7D
330
70
100
AcDbEntity
  8
Layer 1
 62
    18
420
        0
370
     5
100
AcDbLine
 10
2.743942236502978
 20
-2.659235146852791
 30
0.0
 11
2.743942236502978
 21
-2.636662513403974
 31
0.0
  0
LINE
  5
7E
330
70
100
AcDbEntity
  8
Layer 1
 62
    18
420
        0
370
     5
100
AcDbLine
 10
4.530755925802635
 20
-3.211880981374557
 30
0.0
 11
4.530755925802635
 21
-3.1746901321523
 31
0.0
  0
LINE
  5
7F
330
70
100
AcDbEntity
  8
Layer 1
 62
    18
420
        0
370
     5
100
AcDbLine
 10
4.586955431293959
 20
-3.290394996399312
 30
0.0
 11
4.586955431293959
 21
-5.811108110351116
 31
0.0
  0
LINE
  5
80
330
70
100
AcDbEntity
  8
Layer 1
 62
    18
420
        0
370
     5
100
AcDbLine
 10
4.586955431293959
 20
-5.852431276153575
 30
0.0
 11
4.586955431293959
 21
-5.947474557499263
 31
0.0
  0
LINE
  5
81
330
70
100
AcDbEntity
  8
Layer 1
 62
    18
420
        0
370
     5
100
AcDbLine
 10
4.632410913676708
 20
-5.972268456980777
 30
0.0
 11
4.632410913676708
 21
-5.992930039882038
 31
0.0
  0
LINE
  5
82
330
70
100
AcDbEntity
  8
Layer 1
 62
    18
420
        0
370
     5
100
AcDbLine
 10
4.659270971448336
 20
-3.228410247695541
 30
0.0
 11
4.659270971448336
 21
-3.261468780337559
 31
0.0
  0
LINE
  5
83
330
70
100
AcDbEntity
  8
Layer 1
 62
    18
420
        0
370
     5
100
AcDbLine
 10
5.19027365201028
 20
-6.00532698962282
 30
0.0
 11
5.19027365201028
 21
-6.891295664428134
 31
0.0
  0
LINE
  5
84
330
70
100
AcDbEntity
  8
Layer 1
 62
    18
420
        0
370
     5
100
AcDbLine
 10
6.23161743023301
 20
-6.00532698962282
 30
0.0
 11
4.644807863417465
 21
-6.00532698962282
 31
0.0
  0
LINE
  5
85
330
70
100
AcDbEntity
  8
Layer 1
 62
    18
420
        0
370
     5
100
AcDbLine
 10
6.277072912615708
 20
-5.959871507240058
 30
0.0
 11
4.599352381034716
 21
-5.959871507240058
 31
0.0
  0
LINE
  5
86
330
70
100
AcDbEntity
  8
Layer 1
 62
    18
420
        0
370
     5
100
AcDbLine
 10
6.277072912615708
 20
-5.840034326412819
 30
0.0
 11
4.599352381034716
 21
-5.840034326412819
 31
0.0
  0
LINE
  5
87
330
70
100
AcDbEntity
  8
Layer 1
 62
    18
420
        0
370
     5
100
AcDbLine
 10
6.277072912615708
 20
-5.823505060091873
 30
0.0
 11
4.599352381034716
 21
-5.823505060091873
 31
0.0
  0
LINE
  5
88
330
70
100
AcDbEntity
  8
Layer 1
 62
    18
420
        0
370
     5
100
AcDbLine
 10
5.68615164164017
 20
-6.00532698962282
 30
0.0
 11
5.68615164164017
 21
-6.891295664428134
 31
0.0
  0
LINE
  5
89
330
70
100
AcDbEntity
  8
Layer 1
 62
    18
420
        0
370
     5
100
AcDbLine
 10
6.217154322202089
 20
-3.228410247695541
 30
0.0
 11
6.217154322202089
 21
-3.261468780337559
 31
0.0
  0
LINE
  5
8A
330
70
100
AcDbEntity
  8
Layer 1
 62
    18
420
        0
370
     5
100
AcDbLine
 10
6.244014379973741
 20
-5.972268456980777
 30
0.0
 11
6.244014379973741
 21
-5.992930039882038
 31
0.0
  0
LINE
  5
8B
330
70
100
AcDbEntity
  8
Layer 1
 62
    18
420
        0
370
     5
100
AcDbLine
 10
6.28946986235649
 20
-3.290394996399312
 30
0.0
 11
6.28946986235649
 21
-5.811108110351116
 31
0.0
  0
LINE
  5
8C
330
70
100
AcDbEntity
  8
Layer 1
 62
    18
420
        0
370
     5
100
AcDbLine
 10
6.28946986235649
 20
-5.852431276153575
 30
0.0
 11
6.28946986235649
 21
-5.947474557499263
 31
0.0
  0
LINE
  5
8D
330
70
100
AcDbEntity
  8
Layer 1
 62
    18
420
        0
370
     5
100
AcDbLine
 10
6.34566936784789
 20
-3.211880981374557
 30
0.0
 11
6.34566936784789
 21
-3.1746901321523
 31
0.0
  0
LINE
  5
8E
330
70
100
AcDbEntity
  8
Layer 1
 62
    18
420
        0
370
     5
100
AcDbLine
 10
8.132483057147446
 20
-2.659235146852791
 30
0.0
 11
8.132483057147446
 21
-2.636662513403974
 31
0.0
  0
LINE
  5
8F
330
70
100
AcDbEntity
  8
Layer 1
 62
    18
420
        0
370
     5
100
AcDbLine
 10
8.186203172690674
 20
-2.603603980761994
 30
0.0
 11
8.186203172690674
 21
-2.369714862319874
 31
0.0
  0
LINE
  5
90
330
70
100
AcDbEntity
  8
Layer 1
 62
    18
420
        0
370
     5
100
AcDbLine
 10
4.599352381034716
 20
-3.277998046658555
 30
0.0
 11
6.277072912615708
 21
-3.277998046658555
 31
0.0
  0
LINE
  5
91
330
70
100
AcDbEntity
  8
Layer 1
 62
    18
420
        0
370
     5
100
AcDbLine
 10
6.329140101526881
 20
-3.228410247695541
 30
0.0
 11
4.547285192123593
 21
-3.228410247695541
 31
0.0
  0
LINE
  5
92
330
70
100
AcDbEntity
  8
Layer 1
 62
    18
420
        0
370
     5
100
AcDbLine
 10
8.116371660513941
 20
-2.675759130254997
 30
0.0
 11
2.760053633136483
 21
-2.675759130254997
 31
0.0
  0
LINE
  5
93
330
70
100
AcDbEntity
  8
Layer 1
 62
    18
420
        0
370
     5
100
AcDbLine
 10
8.169651646572029
 20
-2.62013324708294
 30
0.0
 11
2.706773647078395
 21
-2.62013324708294
 31
0.0
  0
LINE
  5
94
330
70
100
AcDbEntity
  8
Layer 1
 62
    18
420
        0
370
     5
100
AcDbLine
 10
2.690225879219029
 20
-2.369714862319874
 30
0.0
 11
8.18619941451411
 21
-2.369714862319874
 31
0.0
  0
LINE
  5
95
330
70
100
AcDbEntity
  8
Layer 1
 62
    18
420
        0
370
     5
100
AcDbLine
 10
16.79369996004389
 20
-13.66188319447133
 30
0.0
 11
16.6093986405647
 21
-13.66188319447133
 31
0.0
  0
LINE
  5
96
330
70
100
AcDbEntity
  8
Layer 1
 62
    18
420
        0
370
     5
100
AcDbLine
 10
12.08458923901607
 20
-13.64264028866311
 30
0.0
 11
12.5588246748638
 21
-13.64264028866311
 31
0.0
  0
LINE
  5
97
330
70
100
AcDbEntity
  8
Layer 1
 62
    18
420
        0
370
     5
100
AcDbLine
 10
16.57634010792283
 20
-13.60816307892807
 30
0.0
 11
16.55376747455658
 21
-13.60816307892807
 31
0.0
  0
LINE
  5
98
330
70
100
AcDbEntity
  8
Layer 1
 62
    18
420
        0
370
     5
100
AcDbLine
 10
16.03831248917443
 20
-11.82134938962854
 30
0.0
 11
16.00112163995209
 21
-11.82134938962854
 31
0.0
  0
LINE
  5
99
330
70
100
AcDbEntity
  8
Layer 1
 62
    18
420
        0
370
     5
100
AcDbLine
 10
13.26552806382738
 20
-11.76514988413709
 30
0.0
 11
13.36057134517316
 21
-11.76514988413709
 31
0.0
  0
LINE
  5
9A
330
70
100
AcDbEntity
  8
Layer 1
 62
    18
420
        0
370
     5
100
AcDbLine
 10
13.40189451097558
 20
-11.76514988413709
 30
0.0
 11
15.92260762492732
 21
-11.76514988413709
 31
0.0
  0
LINE
  5
9B
330
70
100
AcDbEntity
  8
Layer 1
 62
    18
420
        0
370
     5
100
AcDbLine
 10
13.22007258144468
 20
-11.71969440175439
 30
0.0
 11
13.24073416434592
 21
-11.71969440175439
 31
0.0
  0
LINE
  5
9C
330
70
100
AcDbEntity
  8
Layer 1
 62
    18
420
        0
370
     5
100
AcDbLine
 10
15.98459237363113
 20
-11.69283434398274
 30
0.0
 11
15.95153384098921
 21
-11.69283434398274
 31
0.0
  0
LINE
  5
9D
330
70
100
AcDbEntity
  8
Layer 1
 62
    18
420
        0
370
     5
100
AcDbLine
 10
13.20767563170395
 20
-11.16183166342077
 30
0.0
 11
12.85890811233098
 21
-11.16183166342077
 31
0.0
  0
LINE
  5
9E
330
70
100
AcDbEntity
  8
Layer 1
 62
    18
420
        0
370
     5
100
AcDbLine
 10
13.20767563170395
 20
-10.66595367379088
 30
0.0
 11
12.85890811233098
 21
-10.66595367379088
 31
0.0
  0
LINE
  5
9F
330
70
100
AcDbEntity
  8
Layer 1
 62
    18
420
        0
370
     5
100
AcDbLine
 10
15.98459237363113
 20
-10.13495099322901
 30
0.0
 11
15.95153384098921
 21
-10.13495099322901
 31
0.0
  0
LINE
  5
A0
330
70
100
AcDbEntity
  8
Layer 1
 62
    18
420
        0
370
     5
100
AcDbLine
 10
13.22007258144468
 20
-10.10809093545733
 30
0.0
 11
13.24073416434592
 21
-10.10809093545733
 31
0.0
  0
LINE
  5
A1
330
70
100
AcDbEntity
  8
Layer 1
 62
    18
420
        0
370
     5
100
AcDbLine
 10
13.26552806382738
 20
-10.06263545307456
 30
0.0
 11
13.36057134517316
 21
-10.06263545307456
 31
0.0
  0
LINE
  5
A2
330
70
100
AcDbEntity
  8
Layer 1
 62
    18
420
        0
370
     5
100
AcDbLine
 10
13.40189451097558
 20
-10.06263545307456
 30
0.0
 11
15.92260762492732
 21
-10.06263545307456
 31
0.0
  0
LINE
  5
A3
330
70
100
AcDbEntity
  8
Layer 1
 62
    18
420
        0
370
     5
100
AcDbLine
 10
16.03831248917443
 20
-10.00643594758321
 30
0.0
 11
16.00112163995209
 21
-10.00643594758321
 31
0.0
  0
LINE
  5
A4
330
70
100
AcDbEntity
  8
Layer 1
 62
    18
420
        0
370
     5
100
AcDbLine
 10
12.07376796208362
 20
-11.45109382403822
 30
0.0
 11
12.07376796208362
 21
-13.63034388198646
 31
0.0
  0
LINE
  5
A5
330
70
100
AcDbEntity
  8
Layer 1
 62
    18
420
        0
370
     5
100
AcDbLine
 10
12.56964595171343
 20
-11.45109382403822
 30
0.0
 11
12.56964595171343
 21
-13.63034388198646
 31
0.0
  0
LINE
  5
A6
330
70
100
AcDbEntity
  8
Layer 1
 62
    18
420
        0
370
     5
100
AcDbLine
 10
13.20767563170395
 20
-10.12048788519809
 30
0.0
 11
13.20767563170395
 21
-11.70729745201366
 31
0.0
  0
LINE
  5
A7
330
70
100
AcDbEntity
  8
Layer 1
 62
    18
420
        0
370
     5
100
AcDbLine
 10
13.2531311140867
 20
-11.75275293439636
 30
0.0
 11
13.2531311140867
 21
-10.07503923898932
 31
0.0
  0
LINE
  5
A8
330
70
100
AcDbEntity
  8
Layer 1
 62
    18
420
        0
370
     5
100
AcDbLine
 10
13.37296829491384
 20
-11.75275293439636
 30
0.0
 11
13.37296829491384
 21
-10.07503923898932
 31
0.0
  0
LINE
  5
A9
330
70
100
AcDbEntity
  8
Layer 1
 62
    18
420
        0
370
     5
100
AcDbLine
 10
13.3894975612349
 20
-11.75275293439636
 30
0.0
 11
13.3894975612349
 21
-10.07503240281539
 31
0.0
  0
LINE
  5
AA
330
70
100
AcDbEntity
  8
Layer 1
 62
    18
420
        0
370
     5
100
AcDbLine
 10
16.57634010792283
 20
-8.219622258283669
 30
0.0
 11
16.55376747455658
 21
-8.219622258283669
 31
0.0
  0
LINE
  5
AB
330
70
100
AcDbEntity
  8
Layer 1
 62
    18
420
        0
370
     5
100
AcDbLine
 10
16.84328775900687
 20
-8.165902142740415
 30
0.0
 11
16.6093986405647
 21
-8.165902142740415
 31
0.0
  0
LINE
  5
AC
330
70
100
AcDbEntity
  8
Layer 1
 62
    18
420
        0
370
     5
100
AcDbLine
 10
15.93500457466815
 20
-10.07503240281539
 30
0.0
 11
15.93500457466815
 21
-11.75275293439636
 31
0.0
  0
LINE
  5
AD
330
70
100
AcDbEntity
  8
Layer 1
 62
    18
420
        0
370
     5
100
AcDbLine
 10
15.98459237363113
 20
-11.80482012330753
 30
0.0
 11
15.98459237363113
 21
-10.02296521390427
 31
0.0
  0
LINE
  5
AE
330
70
100
AcDbEntity
  8
Layer 1
 62
    18
420
        0
370
     5
100
AcDbLine
 10
16.53724349107172
 20
-13.59205168229464
 30
0.0
 11
16.53724349107172
 21
-8.235733654917137
 31
0.0
  0
LINE
  5
AF
330
70
100
AcDbEntity
  8
Layer 1
 62
    18
420
        0
370
     5
100
AcDbLine
 10
16.59286937424379
 20
-13.64535392815037
 30
0.0
 11
16.59286937424379
 21
-8.182431409061438
 31
0.0
  0
LINE
  5
B0
330
70
100
AcDbEntity
  8
Layer 1
 62
    18
420
        0
370
     5
100
AcDbLine
 10
16.84328775900687
 20
-8.165902142740415
 30
0.0
 11
16.84328775900687
 21
-13.66143574929818
 31
0.0
  0
SPLINE
  5
B1
330
70
100
AcDbEntity
  8
Layer 1
 62
    18
420
        0
370
     5
100
AcDbSpline
210
0.0
220
0.0
230
1.0
 70
     8
 71
     3
 72
     8
 73
     4
 74
     0
 42
0.0000000001
 43
0.0000000001
 40
0.0
 40
0.0
 40
0.0
 40
0.0
 40
1.0
 40
1.0
 40
1.0
 40
1.0
 10
5.19027365201028
 20
-13.63034388198646
 30
0.0
 10
5.19027365201028
 20
-13.63658135422568
 30
0.0
 10
5.194908044440643
 20
-13.64184749562792
 30
0.0
 10
5.201094928882071
 20
-13.64264028869262
 30
0.0
  0
SPLINE
  5
B2
330
70
100
AcDbEntity
  8
Layer 1
 62
    18
420
        0
370
     5
100
AcDbSpline
210
0.0
220
0.0
230
1.0
 70
     8
 71
     3
 72
     8
 73
     4
 74
     0
 42
0.0000000001
 43
0.0000000001
 40
0.0
 40
0.0
 40
0.0
 40
0.0
 40
1.0
 40
1.0
 40
1.0
 40
1.0
 10
5.675330364768354
 20
-13.64264028869262
 30
0.0
 10
5.681517249209857
 20
-13.64184749562792
 30
0.0
 10
5.68615164164017
 20
-13.63658135422568
 30
0.0
 10
5.68615164164017
 20
-13.63034388198646
 30
0.0
  0
CIRCLE
  5
B3
330
70
100
AcDbEntity
  8
Layer 1
 62
    18
420
        0
370
     5
100
AcDbCircle
 10
5.438212646825219
 20
-10.91389266860588
 30
0.0
 40
2.747990525865454
  0
SPLINE
  5
B4
330
70
100
AcDbEntity
  8
Layer 1
 62
    18
420
        0
370
     5
100
AcDbSpline
210
0.0
220
0.0
230
1.0
 70
     8
 71
     3
 72
    17
 73
    13
 74
     0
 42
0.0000000001
 43
0.0000000001
 40
0.0
 40
0.0
 40
0.0
 40
0.0
 40
1.0
 40
1.0
 40
1.0
 40
2.0
 40
2.0
 40
2.0
 40
3.0
 40
3.0
 40
3.0
 40
4.0
 40
4.0
 40
4.0
 40
4.0
 10
5.686158627978493
 20
-13.59672994178656
 30
0.0
 10
7.167848740233857
 20
-13.45979315761383
 30
0.0
 10
8.257986704178758
 20
-12.14763679970795
 30
0.0
 10
8.121049920005955
 20
-10.66594668745261
 30
0.0
 10
7.984113135833176
 20
-9.184256575197169
 30
0.0
 10
6.671956777927245
 20
-8.094118611252344
 30
0.0
 10
5.190266665671932
 20
-8.231055395425162
 30
0.0
 10
3.708576553416567
 20
-8.367992179597965
 30
0.0
 10
2.618438589471692
 20
-9.680148537503884
 30
0.0
 10
2.755375373644495
 20
-11.16183864975915
 30
0.0
 10
2.874787212624912
 20
-12.45390449000997
 30
0.0
 10
3.898200826570915
 20
-13.47731810349698
 30
0.0
 10
5.190266666875319
 20
-13.59672994189777
 30
0.0
  0
SPLINE
  5
B5
330
70
100
AcDbEntity
  8
Layer 1
 62
    18
420
        0
370
     5
100
AcDbSpline
210
0.0
220
0.0
230
1.0
 70
     8
 71
     3
 72
    17
 73
    13
 74
     0
 42
0.0000000001
 43
0.0000000001
 40
0.0
 40
0.0
 40
0.0
 40
0.0
 40
1.0
 40
1.0
 40
1.0
 40
2.0
 40
2.0
 40
2.0
 40
3.0
 40
3.0
 40
3.0
 40
4.0
 40
4.0
 40
4.0
 40
4.0
 10
5.686225827440731
 20
-11.78679997340408
 30
0.0
 10
6.168319219896665
 20
-11.64982607599315
 30
0.0
 10
6.448093849034433
 20
-11.14797288044633
 30
0.0
 10
6.311119951623456
 20
-10.66587948799037
 30
0.0
 10
6.174146054212504
 20
-10.18378609553439
 30
0.0
 10
5.672292858665703
 20
-9.904011466396696
 30
0.0
 10
5.190199466209693
 20
-10.04098536380762
 30
0.0
 10
4.70810607375376
 20
-10.17795926121855
 30
0.0
 10
4.428331444615992
 20
-10.67981245676542
 30
0.0
 10
4.565305342026994
 20
-11.16190584922143
 30
0.0
 10
4.651253951333715
 20
-11.4644106141491
 30
0.0
 10
4.887694701247596
 20
-11.70085136407339
 30
0.0
 10
5.190199466171646
 20
-11.78679997339327
 30
0.0
  0
SPLINE
  5
B6
330
70
100
AcDbEntity
  8
Layer 1
 62
    18
420
        0
370
     5
100
AcDbSpline
210
0.0
220
0.0
230
1.0
 70
     8
 71
     3
 72
    17
 73
    13
 74
     0
 42
0.0000000001
 43
0.0000000001
 40
0.0
 40
0.0
 40
0.0
 40
0.0
 40
1.0
 40
1.0
 40
1.0
 40
2.0
 40
2.0
 40
2.0
 40
3.0
 40
3.0
 40
3.0
 40
4.0
 40
4.0
 40
4.0
 40
4.0
 10
5.686153763464377
 20
-11.72824151871487
 30
0.0
 10
6.135906214421829
 20
-11.59130742113906
 30
0.0
 10
6.389495594510018
 20
-11.11570400292407
 30
0.0
 10
6.252561496934212
 20
-10.66595155196675
 30
0.0
 10
6.115627399358357
 20
-10.21619910100925
 30
0.0
 10
5.640023981143472
 20
-9.96260972092106
 30
0.0
 10
5.190271530186097
 20
-10.09954381849691
 30
0.0
 10
4.740519079228672
 20
-10.23647791607274
 30
0.0
 10
4.486929699140508
 20
-10.71208133428758
 30
0.0
 10
4.623863796716313
 20
-11.16183378524503
 30
0.0
 10
4.706491924598455
 20
-11.43322128982499
 30
0.0
 10
4.918884025602247
 20
-11.64561339082989
 30
0.0
 10
5.190271530181828
 20
-11.7282415187135
 30
0.0
  0
SPLINE
  5
B7
330
70
100
AcDbEntity
  8
Layer 1
 62
    18
420
        0
370
     5
100
AcDbSpline
210
0.0
220
0.0
230
1.0
 70
     8
 71
     3
 72
    17
 73
    13
 74
     0
 42
0.0000000001
 43
0.0000000001
 40
0.0
 40
0.0
 40
0.0
 40
0.0
 40
1.0
 40
1.0
 40
1.0
 40
2.0
 40
2.0
 40
2.0
 40
3.0
 40
3.0
 40
3.0
 40
4.0
 40
4.0
 40
4.0
 40
4.0
 10
5.686212359537989
 20
-11.68058202919431
 30
0.0
 10
6.109643201248533
 20
-11.54361556990072
 30
0.0
 10
6.341868466707372
 20
-11.08932379760353
 30
0.0
 10
6.20490200741368
 20
-10.66589295589316
 30
0.0
 10
6.067935548120013
 20
-10.24246211418257
 30
0.0
 10
5.61364377582303
 20
-10.01023684872373
 30
0.0
 10
5.19021293411246
 20
-10.14720330801745
 30
0.0
 10
4.766782092401942
 20
-10.28416976731109
 30
0.0
 10
4.534556826943078
 20
-10.73846153960807
 30
0.0
 10
4.67152328623677
 20
-11.16189238131864
 30
0.0
 10
4.751138929210065
 20
-11.40802357936043
 30
0.0
 10
4.944081736071855
 20
-11.60096638622197
 30
0.0
 10
5.1902129341138
 20
-11.68058202919471
 30
0.0
  0
SPLINE
  5
B8
330
70
100
AcDbEntity
  8
Layer 1
 62
    18
420
        0
370
     5
100
AcDbSpline
210
0.0
220
0.0
230
1.0
 70
     8
 71
     3
 72
    14
 73
    10
 74
     0
 42
0.0000000001
 43
0.0000000001
 40
0.0
 40
0.0
 40
0.0
 40
0.0
 40
1.0
 40
1.0
 40
1.0
 40
2.0
 40
2.0
 40
2.0
 40
3.0
 40
3.0
 40
3.0
 40
3.0
 10
5.686292918056614
 20
-11.01104907935311
 30
0.0
 10
5.739950922060655
 20
-10.87403812881815
 30
0.0
 10
5.672380008107526
 20
-10.71947040137855
 30
0.0
 10
5.535369057572538
 20
-10.66581239737451
 30
0.0
 10
5.398358107037552
 20
-10.61215439337052
 30
0.0
 10
5.243790379597877
 20
-10.67972530732357
 30
0.0
 10
5.190132375593811
 20
-10.81673625785856
 30
0.0
 10
5.165670454144787
 20
-10.87919760303619
 30
0.0
 10
5.165670464273552
 20
-10.94858781374036
 30
0.0
 10
5.190132403957313
 20
-11.01104915177678
 30
0.0
  0
SPLINE
  5
B9
330
70
100
AcDbEntity
  8
Layer 1
 62
    18
420
        0
370
     5
100
AcDbSpline
210
0.0
220
0.0
230
1.0
 70
     8
 71
     3
 72
    11
 73
     7
 74
     0
 42
0.0000000001
 43
0.0000000001
 40
0.0
 40
0.0
 40
0.0
 40
0.0
 40
1.0
 40
1.0
 40
1.0
 40
2.0
 40
2.0
 40
2.0
 40
2.0
 10
5.68615164164017
 20
-10.91389266860584
 30
0.0
 10
5.68615164164017
 20
-10.77695974288119
 30
0.0
 10
5.575145572549861
 20
-10.66595367379088
 30
0.0
 10
5.438212646825212
 20
-10.66595367379088
 30
0.0
 10
5.301279721100564
 20
-10.66595367379088
 30
0.0
 10
5.19027365201028
 20
-10.77695974288119
 30
0.0
 10
5.19027365201028
 20
-10.91389266860584
 30
0.0
  0
SPLINE
  5
BA
330
70
100
AcDbEntity
  8
Layer 1
 62
    18
420
        0
370
     5
100
AcDbSpline
210
0.0
220
0.0
230
1.0
 70
     8
 71
     3
 72
    11
 73
     7
 74
     0
 42
0.0000000001
 43
0.0000000001
 40
0.0
 40
0.0
 40
0.0
 40
0.0
 40
1.0
 40
1.0
 40
1.0
 40
2.0
 40
2.0
 40
2.0
 40
2.0
 10
5.19027365201028
 20
-6.891295664428134
 30
0.0
 10
5.19027365201028
 20
-7.028228590152757
 30
0.0
 10
5.301279721100564
 20
-7.139234659243053
 30
0.0
 10
5.438212646825212
 20
-7.139234659243053
 30
0.0
 10
5.575145572549861
 20
-7.139234659243053
 30
0.0
 10
5.68615164164017
 20
-7.028228590152757
 30
0.0
 10
5.68615164164017
 20
-6.891295664428134
 30
0.0
  0
SPLINE
  5
BB
330
70
100
AcDbEntity
  8
Layer 1
 62
    18
420
        0
370
     5
100
AcDbSpline
210
0.0
220
0.0
230
1.0
 70
     8
 71
     3
 72
     8
 73
     4
 74
     0
 42
0.0000000001
 43
0.0000000001
 40
0.0
 40
0.0
 40
0.0
 40
0.0
 40
1.0
 40
1.0
 40
1.0
 40
1.0
 10
2.69022212095975
 20
-2.603603980761994
 30
0.0
 10
2.69022212095975
 20
-2.61273284247693
 30
0.0
 10
2.69762252556576
 20
-2.62013324708294
 30
0.0
 10
2.706751387280759
 20
-2.62013324708294
 30
0.0
  0
SPLINE
  5
BC
330
70
100
AcDbEntity
  8
Layer 1
 62
    18
420
        0
370
     5
100
AcDbSpline
210
0.0
220
0.0
230
1.0
 70
     8
 71
     3
 72
     8
 73
     4
 74
     0
 42
0.0000000001
 43
0.0000000001
 40
0.0
 40
0.0
 40
0.0
 40
0.0
 40
1.0
 40
1.0
 40
1.0
 40
1.0
 10
8.169673906369666
 20
-2.62013324708294
 30
0.0
 10
8.178802768084665
 20
-2.62013324708294
 30
0.0
 10
8.186203172690674
 20
-2.61273284247693
 30
0.0
 10
8.186203172690674
 20
-2.603603980761994
 30
0.0
  0
SPLINE
  5
BD
330
70
100
AcDbEntity
  8
Layer 1
 62
    18
420
        0
370
     5
100
AcDbSpline
210
0.0
220
0.0
230
1.0
 70
     8
 71
     3
 72
     8
 73
     4
 74
     0
 42
0.0000000001
 43
0.0000000001
 40
0.0
 40
0.0
 40
0.0
 40
0.0
 40
1.0
 40
1.0
 40
1.0
 40
1.0
 10
2.743942236502978
 20
-2.659235146852791
 30
0.0
 10
2.743942236502978
 20
-2.668201226941404
 30
0.0
 10
2.751090418661697
 20
-2.675532462496941
 30
0.0
 10
2.760053633143582
 20
-2.675759130332557
 30
0.0
  0
SPLINE
  5
BE
330
70
100
AcDbEntity
  8
Layer 1
 62
    18
420
        0
370
     5
100
AcDbSpline
210
0.0
220
0.0
230
1.0
 70
     8
 71
     3
 72
     8
 73
     4
 74
     0
 42
0.0000000001
 43
0.0000000001
 40
0.0
 40
0.0
 40
0.0
 40
0.0
 40
1.0
 40
1.0
 40
1.0
 40
1.0
 10
8.116371660506867
 20
-2.675759130332557
 30
0.0
 10
8.125334874988727
 20
-2.675532462496941
 30
0.0
 10
8.132483057147446
 20
-2.668201226941404
 30
0.0
 10
8.132483057147446
 20
-2.659235146852791
 30
0.0
  0
SPLINE
  5
BF
330
70
100
AcDbEntity
  8
Layer 1
 62
    18
420
        0
370
     5
100
AcDbSpline
210
0.0
220
0.0
230
1.0
 70
     8
 71
     3
 72
     8
 73
     4
 74
     0
 42
0.0000000001
 43
0.0000000001
 40
0.0
 40
0.0
 40
0.0
 40
0.0
 40
1.0
 40
1.0
 40
1.0
 40
1.0
 10
2.743942236502978
 20
-2.636662513403974
 30
0.0
 10
2.743942236502978
 20
-2.627533651688938
 30
0.0
 10
2.736541831896968
 20
-2.62013324708294
 30
0.0
 10
2.727412970182045
 20
-2.62013324708294
 30
0.0
  0
SPLINE
  5
C0
330
70
100
AcDbEntity
  8
Layer 1
 62
    18
420
        0
370
     5
100
AcDbSpline
210
0.0
220
0.0
230
1.0
 70
     8
 71
     3
 72
     8
 73
     4
 74
     0
 42
0.0000000001
 43
0.0000000001
 40
0.0
 40
0.0
 40
0.0
 40
0.0
 40
1.0
 40
1.0
 40
1.0
 40
1.0
 10
8.149012323468506
 20
-2.62013324708294
 30
0.0
 10
8.139883461753482
 20
-2.62013324708294
 30
0.0
 10
8.132483057147446
 20
-2.627533651688938
 30
0.0
 10
8.132483057147446
 20
-2.636662513403974
 30
0.0
  0
SPLINE
  5
C1
330
70
100
AcDbEntity
  8
Layer 1
 62
    18
420
        0
370
     5
100
AcDbSpline
210
0.0
220
0.0
230
1.0
 70
     8
 71
     3
 72
     8
 73
     4
 74
     0
 42
0.0000000001
 43
0.0000000001
 40
0.0
 40
0.0
 40
0.0
 40
0.0
 40
1.0
 40
1.0
 40
1.0
 40
1.0
 10
4.530755925802635
 20
-3.211880981374557
 30
0.0
 10
4.530755925802635
 20
-3.221009843089568
 30
0.0
 10
4.538156330408595
 20
-3.228410247695541
 30
0.0
 10
4.547285192123593
 20
-3.228410247695541
 30
0.0
  0
SPLINE
  5
C2
330
70
100
AcDbEntity
  8
Layer 1
 62
    18
420
        0
370
     5
100
AcDbSpline
210
0.0
220
0.0
230
1.0
 70
     8
 71
     3
 72
     8
 73
     4
 74
     0
 42
0.0000000001
 43
0.0000000001
 40
0.0
 40
0.0
 40
0.0
 40
0.0
 40
1.0
 40
1.0
 40
1.0
 40
1.0
 10
6.329140101526881
 20
-3.228410247695541
 30
0.0
 10
6.33826896324188
 20
-3.228410247695541
 30
0.0
 10
6.34566936784789
 20
-3.221009843089568
 30
0.0
 10
6.34566936784789
 20
-3.211880981374557
 30
0.0
  0
SPLINE
  5
C3
330
70
100
AcDbEntity
  8
Layer 1
 62
    18
420
        0
370
     5
100
AcDbSpline
210
0.0
220
0.0
230
1.0
 70
     8
 71
     3
 72
     8
 73
     4
 74
     0
 42
0.0000000001
 43
0.0000000001
 40
0.0
 40
0.0
 40
0.0
 40
0.0
 40
1.0
 40
1.0
 40
1.0
 40
1.0
 10
4.642741705127327
 20
-3.277998046658555
 30
0.0
 10
4.651870566842275
 20
-3.277998046658555
 30
0.0
 10
4.659270971448285
 20
-3.27059764205257
 30
0.0
 10
4.659270971448336
 20
-3.261468780337559
 30
0.0
  0
SPLINE
  5
C4
330
70
100
AcDbEntity
  8
Layer 1
 62
    18
420
        0
370
     5
100
AcDbSpline
210
0.0
220
0.0
230
1.0
 70
     8
 71
     3
 72
     8
 73
     4
 74
     0
 42
0.0000000001
 43
0.0000000001
 40
0.0
 40
0.0
 40
0.0
 40
0.0
 40
1.0
 40
1.0
 40
1.0
 40
1.0
 10
6.217154322202089
 20
-3.261468780337559
 30
0.0
 10
6.217154322202089
 20
-3.270597642052507
 30
0.0
 10
6.22455472680815
 20
-3.277998046658555
 30
0.0
 10
6.233683588523073
 20
-3.277998046658555
 30
0.0
  0
SPLINE
  5
C5
330
70
100
AcDbEntity
  8
Layer 1
 62
    18
420
        0
370
     5
100
AcDbSpline
210
0.0
220
0.0
230
1.0
 70
     8
 71
     3
 72
     8
 73
     4
 74
     0
 42
0.0000000001
 43
0.0000000001
 40
0.0
 40
0.0
 40
0.0
 40
0.0
 40
1.0
 40
1.0
 40
1.0
 40
1.0
 10
4.632410913676708
 20
-5.972268456980777
 30
0.0
 10
4.632410913676708
 20
-5.96542181069454
 30
0.0
 10
4.626860610222226
 20
-5.959871507240058
 30
0.0
 10
4.620013963935952
 20
-5.959871507240058
 30
0.0
  0
SPLINE
  5
C6
330
70
100
AcDbEntity
  8
Layer 1
 62
    18
420
        0
370
     5
100
AcDbSpline
210
0.0
220
0.0
230
1.0
 70
     8
 71
     3
 72
     8
 73
     4
 74
     0
 42
0.0000000001
 43
0.0000000001
 40
0.0
 40
0.0
 40
0.0
 40
0.0
 40
1.0
 40
1.0
 40
1.0
 40
1.0
 10
6.256411329714524
 20
-5.959871507240058
 30
0.0
 10
6.249564683428275
 20
-5.959871507240058
 30
0.0
 10
6.244014379973741
 20
-5.96542181069454
 30
0.0
 10
6.244014379973741
 20
-5.972268456980777
 30
0.0
  0
SPLINE
  5
C7
330
70
100
AcDbEntity
  8
Layer 1
 62
    18
420
        0
370
     5
100
AcDbSpline
210
0.0
220
0.0
230
1.0
 70
     8
 71
     3
 72
     8
 73
     4
 74
     0
 42
0.0000000001
 43
0.0000000001
 40
0.0
 40
0.0
 40
0.0
 40
0.0
 40
1.0
 40
1.0
 40
1.0
 40
1.0
 10
6.277072912615708
 20
-5.959871507240058
 30
0.0
 10
6.283919558902008
 20
-5.959871507240058
 30
0.0
 10
6.28946986235649
 20
-5.95432120378555
 30
0.0
 10
6.28946986235649
 20
-5.947474557499263
 30
0.0
  0
SPLINE
  5
C8
330
70
100
AcDbEntity
  8
Layer 1
 62
    18
420
        0
370
     5
100
AcDbSpline
210
0.0
220
0.0
230
1.0
 70
     8
 71
     3
 72
     8
 73
     4
 74
     0
 42
0.0000000001
 43
0.0000000001
 40
0.0
 40
0.0
 40
0.0
 40
0.0
 40
1.0
 40
1.0
 40
1.0
 40
1.0
 10
4.586955431293959
 20
-5.947474557499263
 30
0.0
 10
4.586955431293959
 20
-5.95432120378555
 30
0.0
 10
4.592505734748518
 20
-5.959871507240058
 30
0.0
 10
4.599352381034716
 20
-5.959871507240058
 30
0.0
  0
SPLINE
  5
C9
330
70
100
AcDbEntity
  8
Layer 1
 62
    18
420
        0
370
     5
100
AcDbSpline
210
0.0
220
0.0
230
1.0
 70
     8
 71
     3
 72
     8
 73
     4
 74
     0
 42
0.0000000001
 43
0.0000000001
 40
0.0
 40
0.0
 40
0.0
 40
0.0
 40
1.0
 40
1.0
 40
1.0
 40
1.0
 10
4.599352381034716
 20
-5.840034326412819
 30
0.0
 10
4.592505734748518
 20
-5.840034326412819
 30
0.0
 10
4.586955431293959
 20
-5.845584629867326
 30
0.0
 10
4.586955431293959
 20
-5.852431276153575
 30
0.0
  0
SPLINE
  5
CA
330
70
100
AcDbEntity
  8
Layer 1
 62
    18
420
        0
370
     5
100
AcDbSpline
210
0.0
220
0.0
230
1.0
 70
     8
 71
     3
 72
     8
 73
     4
 74
     0
 42
0.0000000001
 43
0.0000000001
 40
0.0
 40
0.0
 40
0.0
 40
0.0
 40
1.0
 40
1.0
 40
1.0
 40
1.0
 10
6.28946986235649
 20
-5.852431276153575
 30
0.0
 10
6.28946986235649
 20
-5.845584629867326
 30
0.0
 10
6.283919558902008
 20
-5.840034326412819
 30
0.0
 10
6.277072912615708
 20
-5.840034326412819
 30
0.0
  0
SPLINE
  5
CB
330
70
100
AcDbEntity
  8
Layer 1
 62
    18
420
        0
370
     5
100
AcDbSpline
210
0.0
220
0.0
230
1.0
 70
     8
 71
     3
 72
     8
 73
     4
 74
     0
 42
0.0000000001
 43
0.0000000001
 40
0.0
 40
0.0
 40
0.0
 40
0.0
 40
1.0
 40
1.0
 40
1.0
 40
1.0
 10
6.23161743023301
 20
-6.00532698962282
 30
0.0
 10
6.238464076519258
 20
-6.00532698962282
 30
0.0
 10
6.244014379973741
 20
-5.999776686168236
 30
0.0
 10
6.244014379973741
 20
-5.992930039882038
 30
0.0
  0
SPLINE
  5
CC
330
70
100
AcDbEntity
  8
Layer 1
 62
    18
420
        0
370
     5
100
AcDbSpline
210
0.0
220
0.0
230
1.0
 70
     8
 71
     3
 72
     8
 73
     4
 74
     0
 42
0.0000000001
 43
0.0000000001
 40
0.0
 40
0.0
 40
0.0
 40
0.0
 40
1.0
 40
1.0
 40
1.0
 40
1.0
 10
4.632410913676708
 20
-5.992930039882038
 30
0.0
 10
4.632410913676708
 20
-5.999776686168236
 30
0.0
 10
4.637961217131216
 20
-6.00532698962282
 30
0.0
 10
4.644807863417465
 20
-6.00532698962282
 30
0.0
  0
SPLINE
  5
CD
330
70
100
AcDbEntity
  8
Layer 1
 62
    18
420
        0
370
     5
100
AcDbSpline
210
0.0
220
0.0
230
1.0
 70
     8
 71
     3
 72
     8
 73
     4
 74
     0
 42
0.0000000001
 43
0.0000000001
 40
0.0
 40
0.0
 40
0.0
 40
0.0
 40
1.0
 40
1.0
 40
1.0
 40
1.0
 10
6.28946986235649
 20
-3.290394996399312
 30
0.0
 10
6.28946986235649
 20
-3.283548350113063
 30
0.0
 10
6.283919558902008
 20
-3.277998046658555
 30
0.0
 10
6.277072912615708
 20
-3.277998046658555
 30
0.0
  0
SPLINE
  5
CE
330
70
100
AcDbEntity
  8
Layer 1
 62
    18
420
        0
370
     5
100
AcDbSpline
210
0.0
220
0.0
230
1.0
 70
     8
 71
     3
 72
     8
 73
     4
 74
     0
 42
0.0000000001
 43
0.0000000001
 40
0.0
 40
0.0
 40
0.0
 40
0.0
 40
1.0
 40
1.0
 40
1.0
 40
1.0
 10
4.599352381034716
 20
-3.277998046658555
 30
0.0
 10
4.592505734748518
 20
-3.277998046658555
 30
0.0
 10
4.586955431293959
 20
-3.283548350113063
 30
0.0
 10
4.586955431293959
 20
-3.290394996399312
 30
0.0
  0
SPLINE
  5
CF
330
70
100
AcDbEntity
  8
Layer 1
 62
    18
420
        0
370
     5
100
AcDbSpline
210
0.0
220
0.0
230
1.0
 70
     8
 71
     3
 72
     8
 73
     4
 74
     0
 42
0.0000000001
 43
0.0000000001
 40
0.0
 40
0.0
 40
0.0
 40
0.0
 40
1.0
 40
1.0
 40
1.0
 40
1.0
 10
6.277072912615708
 20
-5.823505060091873
 30
0.0
 10
6.283919558902008
 20
-5.823505060091873
 30
0.0
 10
6.28946986235649
 20
-5.817954756637314
 30
0.0
 10
6.28946986235649
 20
-5.811108110351116
 30
0.0
  0
SPLINE
  5
D0
330
70
100
AcDbEntity
  8
Layer 1
 62
    18
420
        0
370
     5
100
AcDbSpline
210
0.0
220
0.0
230
1.0
 70
     8
 71
     3
 72
     8
 73
     4
 74
     0
 42
0.0000000001
 43
0.0000000001
 40
0.0
 40
0.0
 40
0.0
 40
0.0
 40
1.0
 40
1.0
 40
1.0
 40
1.0
 10
4.586955431293959
 20
-5.811108110351116
 30
0.0
 10
4.586955431293959
 20
-5.817954756637314
 30
0.0
 10
4.592505734748518
 20
-5.823505060091873
 30
0.0
 10
4.599352381034716
 20
-5.823505060091873
 30
0.0
  0
SPLINE
  5
D1
330
70
100
AcDbEntity
  8
Layer 1
 62
    18
420
        0
370
     5
100
AcDbSpline
210
0.0
220
0.0
230
1.0
 70
     8
 71
     3
 72
     8
 73
     4
 74
     0
 42
0.0000000001
 43
0.0000000001
 40
0.0
 40
0.0
 40
0.0
 40
0.0
 40
1.0
 40
1.0
 40
1.0
 40
1.0
 10
16.84328775906872
 20
-13.66143574930126
 30
0.0
 10
16.82675748329292
 20
-13.66143572453168
 30
0.0
 10
16.8102275438713
 20
-13.66158487898537
 30
0.0
 10
16.79369996010609
 20
-13.66188319444157
 30
0.0
  0
SPLINE
  5
D2
330
70
100
AcDbEntity
  8
Layer 1
 62
    18
420
        0
370
     5
100
AcDbSpline
210
0.0
220
0.0
230
1.0
 70
     8
 71
     3
 72
     8
 73
     4
 74
     0
 42
0.0000000001
 43
0.0000000001
 40
0.0
 40
0.0
 40
0.0
 40
0.0
 40
1.0
 40
1.0
 40
1.0
 40
1.0
 10
12.85890811233098
 20
-10.66595367379088
 30
0.0
 10
12.42528718086957
 20
-10.66595367379088
 30
0.0
 10
12.07376796208362
 20
-11.01747289257676
 30
0.0
 10
12.07376796208362
 20
-11.45109382403822
 30
0.0
  0
SPLINE
  5
D3
330
70
100
AcDbEntity
  8
Layer 1
 62
    18
420
        0
370
     5
100
AcDbSpline
210
0.0
220
0.0
230
1.0
 70
     8
 71
     3
 72
     8
 73
     4
 74
     0
 42
0.0000000001
 43
0.0000000001
 40
0.0
 40
0.0
 40
0.0
 40
0.0
 40
1.0
 40
1.0
 40
1.0
 40
1.0
 10
12.85890811233098
 20
-11.16183166342077
 30
0.0
 10
12.69915303231881
 20
-11.16183166342077
 30
0.0
 10
12.56964595171343
 20
-11.29133874402616
 30
0.0
 10
12.56964595171343
 20
-11.45109382403822
 30
0.0
  0
SPLINE
  5
D4
330
70
100
AcDbEntity
  8
Layer 1
 62
    18
420
        0
370
     5
100
AcDbSpline
210
0.0
220
0.0
230
1.0
 70
     8
 71
     3
 72
     8
 73
     4
 74
     0
 42
0.0000000001
 43
0.0000000001
 40
0.0
 40
0.0
 40
0.0
 40
0.0
 40
1.0
 40
1.0
 40
1.0
 40
1.0
 10
15.93500457466815
 20
-10.11842172690795
 30
0.0
 10
15.93500457466815
 20
-10.12755058862295
 30
0.0
 10
15.94240497927416
 20
-10.13495099322889
 30
0.0
 10
15.95153384098921
 20
-10.13495099322889
 30
0.0
  0
SPLINE
  5
D5
330
70
100
AcDbEntity
  8
Layer 1
 62
    18
420
        0
370
     5
100
AcDbSpline
210
0.0
220
0.0
230
1.0
 70
     8
 71
     3
 72
     8
 73
     4
 74
     0
 42
0.0000000001
 43
0.0000000001
 40
0.0
 40
0.0
 40
0.0
 40
0.0
 40
1.0
 40
1.0
 40
1.0
 40
1.0
 10
15.95153384098921
 20
-11.69283434398274
 30
0.0
 10
15.94240497927416
 20
-11.69283434398274
 30
0.0
 10
15.93500457466815
 20
-11.70023474858875
 30
0.0
 10
15.93500457466815
 20
-11.70936361030375
 30
0.0
  0
SPLINE
  5
D6
330
70
100
AcDbEntity
  8
Layer 1
 62
    18
420
        0
370
     5
100
AcDbSpline
210
0.0
220
0.0
230
1.0
 70
     8
 71
     3
 72
     8
 73
     4
 74
     0
 42
0.0000000001
 43
0.0000000001
 40
0.0
 40
0.0
 40
0.0
 40
0.0
 40
1.0
 40
1.0
 40
1.0
 40
1.0
 10
15.98459237363113
 20
-11.80482012330753
 30
0.0
 10
15.98459237363113
 20
-11.81394898502248
 30
0.0
 10
15.99199277823714
 20
-11.82134938962854
 30
0.0
 10
16.00112163995209
 20
-11.82134938962854
 30
0.0
  0
SPLINE
  5
D7
330
70
100
AcDbEntity
  8
Layer 1
 62
    18
420
        0
370
     5
100
AcDbSpline
210
0.0
220
0.0
230
1.0
 70
     8
 71
     3
 72
     8
 73
     4
 74
     0
 42
0.0000000001
 43
0.0000000001
 40
0.0
 40
0.0
 40
0.0
 40
0.0
 40
1.0
 40
1.0
 40
1.0
 40
1.0
 10
16.00112163995209
 20
-10.00643594758321
 30
0.0
 10
15.99199277823714
 20
-10.00643594758321
 30
0.0
 10
15.98459237363113
 20
-10.01383635218922
 30
0.0
 10
15.98459237363113
 20
-10.02296521390427
 30
0.0
  0
SPLINE
  5
D8
330
70
100
AcDbEntity
  8
Layer 1
 62
    18
420
        0
370
     5
100
AcDbSpline
210
0.0
220
0.0
230
1.0
 70
     8
 71
     3
 72
     8
 73
     4
 74
     0
 42
0.0000000001
 43
0.0000000001
 40
0.0
 40
0.0
 40
0.0
 40
0.0
 40
1.0
 40
1.0
 40
1.0
 40
1.0
 10
16.57634010792283
 20
-8.219622258283669
 30
0.0
 10
16.58546896963778
 20
-8.219622258283669
 30
0.0
 10
16.59286937424379
 20
-8.212221853677595
 30
0.0
 10
16.59286937424379
 20
-8.203092991962597
 30
0.0
  0
SPLINE
  5
D9
330
70
100
AcDbEntity
  8
Layer 1
 62
    18
420
        0
370
     5
100
AcDbSpline
210
0.0
220
0.0
230
1.0
 70
     8
 71
     3
 72
     8
 73
     4
 74
     0
 42
0.0000000001
 43
0.0000000001
 40
0.0
 40
0.0
 40
0.0
 40
0.0
 40
1.0
 40
1.0
 40
1.0
 40
1.0
 10
16.59286937424379
 20
-13.62469234524918
 30
0.0
 10
16.59286937424379
 20
-13.61556348353408
 30
0.0
 10
16.58546896963778
 20
-13.60816307892807
 30
0.0
 10
16.57634010792283
 20
-13.60816307892807
 30
0.0
  0
SPLINE
  5
DA
330
70
100
AcDbEntity
  8
Layer 1
 62
    18
420
        0
370
     5
100
AcDbSpline
210
0.0
220
0.0
230
1.0
 70
     8
 71
     3
 72
     8
 73
     4
 74
     0
 42
0.0000000001
 43
0.0000000001
 40
0.0
 40
0.0
 40
0.0
 40
0.0
 40
1.0
 40
1.0
 40
1.0
 40
1.0
 10
16.53724349107672
 20
-13.59205168228752
 30
0.0
 10
16.53747015891243
 20
-13.60101489676933
 30
0.0
 10
16.54480139446796
 20
-13.60816307892807
 30
0.0
 10
16.55376747455658
 20
-13.60816307892807
 30
0.0
  0
SPLINE
  5
DB
330
70
100
AcDbEntity
  8
Layer 1
 62
    18
420
        0
370
     5
100
AcDbSpline
210
0.0
220
0.0
230
1.0
 70
     8
 71
     3
 72
     8
 73
     4
 74
     0
 42
0.0000000001
 43
0.0000000001
 40
0.0
 40
0.0
 40
0.0
 40
0.0
 40
1.0
 40
1.0
 40
1.0
 40
1.0
 10
16.55376747455658
 20
-8.219622258283669
 30
0.0
 10
16.54480139446796
 20
-8.219622258283669
 30
0.0
 10
16.53747015891243
 20
-8.226770440442363
 30
0.0
 10
16.53724349107672
 20
-8.23573365492421
 30
0.0
  0
SPLINE
  5
DC
330
70
100
AcDbEntity
  8
Layer 1
 62
    18
420
        0
370
     5
100
AcDbSpline
210
0.0
220
0.0
230
1.0
 70
     8
 71
     3
 72
     8
 73
     4
 74
     0
 42
0.0000000001
 43
0.0000000001
 40
0.0
 40
0.0
 40
0.0
 40
0.0
 40
1.0
 40
1.0
 40
1.0
 40
1.0
 10
16.59286937424379
 20
-13.64535392815037
 30
0.0
 10
16.59286937424379
 20
-13.65448278986527
 30
0.0
 10
16.6002697788498
 20
-13.66188319447133
 30
0.0
 10
16.6093986405647
 20
-13.66188319447133
 30
0.0
  0
SPLINE
  5
DD
330
70
100
AcDbEntity
  8
Layer 1
 62
    18
420
        0
370
     5
100
AcDbSpline
210
0.0
220
0.0
230
1.0
 70
     8
 71
     3
 72
     8
 73
     4
 74
     0
 42
0.0000000001
 43
0.0000000001
 40
0.0
 40
0.0
 40
0.0
 40
0.0
 40
1.0
 40
1.0
 40
1.0
 40
1.0
 10
16.6093986405647
 20
-8.165902142740415
 30
0.0
 10
16.6002697788498
 20
-8.165902142740415
 30
0.0
 10
16.59286937424379
 20
-8.173302547346427
 30
0.0
 10
16.59286937424379
 20
-8.182431409061438
 30
0.0
  0
SPLINE
  5
DE
330
70
100
AcDbEntity
  8
Layer 1
 62
    18
420
        0
370
     5
100
AcDbSpline
210
0.0
220
0.0
230
1.0
 70
     8
 71
     3
 72
     8
 73
     4
 74
     0
 42
0.0000000001
 43
0.0000000001
 40
0.0
 40
0.0
 40
0.0
 40
0.0
 40
1.0
 40
1.0
 40
1.0
 40
1.0
 10
12.07376796208362
 20
-13.63034388198646
 30
0.0
 10
12.07376796208362
 20
-13.63658135422568
 30
0.0
 10
12.07840235451395
 20
-13.64184749562792
 30
0.0
 10
12.08458923895548
 20
-13.64264028869272
 30
0.0
  0
SPLINE
  5
DF
330
70
100
AcDbEntity
  8
Layer 1
 62
    18
420
        0
370
     5
100
AcDbSpline
210
0.0
220
0.0
230
1.0
 70
     8
 71
     3
 72
     8
 73
     4
 74
     0
 42
0.0000000001
 43
0.0000000001
 40
0.0
 40
0.0
 40
0.0
 40
0.0
 40
1.0
 40
1.0
 40
1.0
 40
1.0
 10
12.55882467484177
 20
-13.64264028869272
 30
0.0
 10
12.56501155928319
 20
-13.64184749562792
 30
0.0
 10
12.56964595171343
 20
-13.63658135422568
 30
0.0
 10
12.56964595171343
 20
-13.63034388198646
 30
0.0
  0
SPLINE
  5
E0
330
70
100
AcDbEntity
  8
Layer 1
 62
    18
420
        0
370
     5
100
AcDbSpline
210
0.0
220
0.0
230
1.0
 70
     8
 71
     3
 72
     8
 73
     4
 74
     0
 42
0.0000000001
 43
0.0000000001
 40
0.0
 40
0.0
 40
0.0
 40
0.0
 40
1.0
 40
1.0
 40
1.0
 40
1.0
 10
15.93500457466815
 20
-10.07503240281539
 30
0.0
 10
15.93500457466815
 20
-10.06818575652907
 30
0.0
 10
15.92945427121367
 20
-10.06263545307456
 30
0.0
 10
15.92260762492732
 20
-10.06263545307456
 30
0.0
  0
SPLINE
  5
E1
330
70
100
AcDbEntity
  8
Layer 1
 62
    18
420
        0
370
     5
100
AcDbSpline
210
0.0
220
0.0
230
1.0
 70
     8
 71
     3
 72
     8
 73
     4
 74
     0
 42
0.0000000001
 43
0.0000000001
 40
0.0
 40
0.0
 40
0.0
 40
0.0
 40
1.0
 40
1.0
 40
1.0
 40
1.0
 10
15.92260762492732
 20
-11.76514988413709
 30
0.0
 10
15.92945427121367
 20
-11.76514988413709
 30
0.0
 10
15.93500457466815
 20
-11.75959958068261
 30
0.0
 10
15.93500457466815
 20
-11.75275293439636
 30
0.0
  0
SPLINE
  5
E2
330
70
100
AcDbEntity
  8
Layer 1
 62
    18
420
        0
370
     5
100
AcDbSpline
210
0.0
220
0.0
230
1.0
 70
     8
 71
     3
 72
     8
 73
     4
 74
     0
 42
0.0000000001
 43
0.0000000001
 40
0.0
 40
0.0
 40
0.0
 40
0.0
 40
1.0
 40
1.0
 40
1.0
 40
1.0
 10
13.3894975612349
 20
-11.75275293439636
 30
0.0
 10
13.3894975612349
 20
-11.75959958068261
 30
0.0
 10
13.39504786468938
 20
-11.76514988413709
 30
0.0
 10
13.40189451097558
 20
-11.76514988413709
 30
0.0
  0
SPLINE
  5
E3
330
70
100
AcDbEntity
  8
Layer 1
 62
    18
420
        0
370
     5
100
AcDbSpline
210
0.0
220
0.0
230
1.0
 70
     8
 71
     3
 72
     8
 73
     4
 74
     0
 42
0.0000000001
 43
0.0000000001
 40
0.0
 40
0.0
 40
0.0
 40
0.0
 40
1.0
 40
1.0
 40
1.0
 40
1.0
 10
13.40189451097558
 20
-10.06263545307456
 30
0.0
 10
13.39504786468938
 20
-10.06263545307456
 30
0.0
 10
13.3894975612349
 20
-10.06818575652907
 30
0.0
 10
13.3894975612349
 20
-10.07503240281539
 30
0.0
  0
SPLINE
  5
E4
330
70
100
AcDbEntity
  8
Layer 1
 62
    18
420
        0
370
     5
100
AcDbSpline
210
0.0
220
0.0
230
1.0
 70
     8
 71
     3
 72
     8
 73
     4
 74
     0
 42
0.0000000001
 43
0.0000000001
 40
0.0
 40
0.0
 40
0.0
 40
0.0
 40
1.0
 40
1.0
 40
1.0
 40
1.0
 10
13.20767563170395
 20
-11.70729745201366
 30
0.0
 10
13.20767563170395
 20
-11.71414409829996
 30
0.0
 10
13.21322593515843
 20
-11.71969440175439
 30
0.0
 10
13.22007258144468
 20
-11.71969440175439
 30
0.0
  0
SPLINE
  5
E5
330
70
100
AcDbEntity
  8
Layer 1
 62
    18
420
        0
370
     5
100
AcDbSpline
210
0.0
220
0.0
230
1.0
 70
     8
 71
     3
 72
     8
 73
     4
 74
     0
 42
0.0000000001
 43
0.0000000001
 40
0.0
 40
0.0
 40
0.0
 40
0.0
 40
1.0
 40
1.0
 40
1.0
 40
1.0
 10
13.22007258144468
 20
-10.10809093545733
 30
0.0
 10
13.21322593515843
 20
-10.10809093545733
 30
0.0
 10
13.20767563170395
 20
-10.11364123891179
 30
0.0
 10
13.20767563170395
 20
-10.12048788519809
 30
0.0
  0
SPLINE
  5
E6
330
70
100
AcDbEntity
  8
Layer 1
 62
    18
420
        0
370
     5
100
AcDbSpline
210
0.0
220
0.0
230
1.0
 70
     8
 71
     3
 72
     8
 73
     4
 74
     0
 42
0.0000000001
 43
0.0000000001
 40
0.0
 40
0.0
 40
0.0
 40
0.0
 40
1.0
 40
1.0
 40
1.0
 40
1.0
 10
13.37296829491384
 20
-10.07503240281539
 30
0.0
 10
13.37296829491384
 20
-10.06818575652907
 30
0.0
 10
13.3674179914593
 20
-10.06263545307456
 30
0.0
 10
13.36057134517316
 20
-10.06263545307456
 30
0.0
  0
SPLINE
  5
E7
330
70
100
AcDbEntity
  8
Layer 1
 62
    18
420
        0
370
     5
100
AcDbSpline
210
0.0
220
0.0
230
1.0
 70
     8
 71
     3
 72
     8
 73
     4
 74
     0
 42
0.0000000001
 43
0.0000000001
 40
0.0
 40
0.0
 40
0.0
 40
0.0
 40
1.0
 40
1.0
 40
1.0
 40
1.0
 10
13.36057134517316
 20
-11.76514988413709
 30
0.0
 10
13.3674179914593
 20
-11.76514988413709
 30
0.0
 10
13.37296829491384
 20
-11.75959958068261
 30
0.0
 10
13.37296829491384
 20
-11.75275293439636
 30
0.0
  0
SPLINE
  5
E8
330
70
100
AcDbEntity
  8
Layer 1
 62
    18
420
        0
370
     5
100
AcDbSpline
210
0.0
220
0.0
230
1.0
 70
     8
 71
     3
 72
     8
 73
     4
 74
     0
 42
0.0000000001
 43
0.0000000001
 40
0.0
 40
0.0
 40
0.0
 40
0.0
 40
1.0
 40
1.0
 40
1.0
 40
1.0
 10
13.2531311140867
 20
-11.75275293439636
 30
0.0
 10
13.2531311140867
 20
-11.75959958068261
 30
0.0
 10
13.25868141754118
 20
-11.76514988413709
 30
0.0
 10
13.26552806382738
 20
-11.76514988413709
 30
0.0
  0
SPLINE
  5
E9
330
70
100
AcDbEntity
  8
Layer 1
 62
    18
420
        0
370
     5
100
AcDbSpline
210
0.0
220
0.0
230
1.0
 70
     8
 71
     3
 72
     8
 73
     4
 74
     0
 42
0.0000000001
 43
0.0000000001
 40
0.0
 40
0.0
 40
0.0
 40
0.0
 40
1.0
 40
1.0
 40
1.0
 40
1.0
 10
13.26552806382738
 20
-10.06263545307456
 30
0.0
 10
13.25868141754118
 20
-10.06263545307456
 30
0.0
 10
13.2531311140867
 20
-10.06818575652907
 30
0.0
 10
13.2531311140867
 20
-10.07503240281539
 30
0.0
  0
SPLINE
  5
EA
330
70
100
AcDbEntity
  8
Layer 1
 62
    18
420
        0
370
     5
100
AcDbSpline
210
0.0
220
0.0
230
1.0
 70
     8
 71
     3
 72
     8
 73
     4
 74
     0
 42
0.0000000001
 43
0.0000000001
 40
0.0
 40
0.0
 40
0.0
 40
0.0
 40
1.0
 40
1.0
 40
1.0
 40
1.0
 10
13.2531311140867
 20
-11.73209135149512
 30
0.0
 10
13.2531311140867
 20
-11.72524470520893
 30
0.0
 10
13.24758081063217
 20
-11.71969440175439
 30
0.0
 10
13.24073416434592
 20
-11.71969440175439
 30
0.0
  0
SPLINE
  5
EB
330
70
100
AcDbEntity
  8
Layer 1
 62
    18
420
        0
370
     5
100
AcDbSpline
210
0.0
220
0.0
230
1.0
 70
     8
 71
     3
 72
     8
 73
     4
 74
     0
 42
0.0000000001
 43
0.0000000001
 40
0.0
 40
0.0
 40
0.0
 40
0.0
 40
1.0
 40
1.0
 40
1.0
 40
1.0
 10
13.24073416434592
 20
-10.10809093545733
 30
0.0
 10
13.24758081063217
 20
-10.10809093545733
 30
0.0
 10
13.2531311140867
 20
-10.10254063200288
 30
0.0
 10
13.2531311140867
 20
-10.09569398571663
 30
0.0
  0
SPLINE
  5
EC
330
70
100
AcDbEntity
  8
Layer 1
 62
    18
420
        0
370
     5
100
AcDbSpline
210
0.0
220
0.0
230
1.0
 70
     8
 71
     3
 72
   107
 73
   103
 74
     0
 42
0.0000000001
 43
0.0000000001
 40
0.0
 40
0.0
 40
0.0
 40
0.0
 40
1.0
 40
1.0
 40
1.0
 40
2.0
 40
2.0
 40
2.0
 40
3.0
 40
3.0
 40
3.0
 40
4.0
 40
4.0
 40
4.0
 40
5.0
 40
5.0
 40
5.0
 40
6.0
 40
6.0
 40
6.0
 40
7.0
 40
7.0
 40
7.0
 40
8.0
 40
8.0
 40
8.0
 40
9.0
 40
9.0
 40
9.0
 40
10.0
 40
10.0
 40
10.0
 40
11.0
 40
11.0
 40
11.0
 40
12.0
 40
12.0
 40
12.0
 40
13.0
 40
13.0
 40
13.0
 40
14.0
 40
14.0
 40
14.0
 40
15.0
 40
15.0
 40
15.0
 40
16.0
 40
16.0
 40
16.0
 40
17.0
 40
17.0
 40
17.0
 40
18.0
 40
18.0
 40
18.0
 40
19.0
 40
19.0
 40
19.0
 40
20.0
 40
20.0
 40
20.0
 40
21.0
 40
21.0
 40
21.0
 40
22.0
 40
22.0
 40
22.0
 40
23.0
 40
23.0
 40
23.0
 40
24.0
 40
24.0
 40
24.0
 40
25.0
 40
25.0
 40
25.0
 40
26.0
 40
26.0
 40
26.0
 40
27.0
 40
27.0
 40
27.0
 40
28.0
 40
28.0
 40
28.0
 40
29.0
 40
29.0
 40
29.0
 40
30.0
 40
30.0
 40
30.0
 40
31.0
 40
31.0
 40
31.0
 40
32.0
 40
32.0
 40
32.0
 40
33.0
 40
33.0
 40
33.0
 40
34.0
 40
34.0
 40
34.0
 40
34.0
 10
2.760053633136483
 20
-2.675759130254997
 30
0.0
 10
2.780689245502407
 20
-2.676280977622834
 30
0.0
 10
2.801324745784174
 20
-2.676807167607939
 30
0.0
 10
2.821960466306323
 20
-2.677324820567756
 30
0.0
 10
2.842368300226464
 20
-2.677836756926858
 30
0.0
 10
2.862776349549537
 20
-2.67834034377347
 30
0.0
 10
2.883184992110159
 20
-2.67881893425489
 30
0.0
 10
2.903419148980964
 20
-2.679293432980039
 30
0.0
 10
2.923653888988951
 20
-2.679743360930551
 30
0.0
 10
2.943889141738269
 20
-2.680168669712959
 30
0.0
 10
2.964000290477656
 20
-2.680591370051224
 30
0.0
 10
2.984111945688394
 20
-2.680989752277014
 30
0.0
 10
3.004223859022367
 20
-2.68137416633984
 30
0.0
 10
3.044267095122967
 20
-2.682139542702745
 30
0.0
 10
3.084311354466447
 20
-2.682849546984104
 30
0.0
 10
3.124355351488108
 20
-2.683574825113964
 30
0.0
 10
3.164477364535602
 20
-2.684301516272537
 30
0.0
 10
3.204599114238173
 20
-2.685043540852373
 30
0.0
 10
3.244719157175002
 20
-2.685872471924123
 30
0.0
 10
3.285300157918363
 20
-2.686710926969933
 30
0.0
 10
3.325879412451096
 20
-2.687638296998152
 30
0.0
 10
3.366454759131367
 20
-2.688720027417161
 30
0.0
 10
3.407875683620469
 20
-2.689824300767099
 30
0.0
 10
3.449292535683134
 20
-2.691089435192111
 30
0.0
 10
3.49070164024964
 20
-2.692570412291906
 30
0.0
 10
3.511844253713547
 20
-2.693326567893386
 30
0.0
 10
3.532984847476667
 20
-2.694138991688734
 30
0.0
 10
3.554122898900017
 20
-2.695013203479384
 30
0.0
 10
3.575617861410503
 20
-2.695902176133004
 30
0.0
 10
3.597110195002755
 20
-2.696855040949306
 30
0.0
 10
3.618599283668863
 20
-2.697876547234626
 30
0.0
 10
3.640494220199204
 20
-2.698917345922255
 30
0.0
 10
3.662385788077155
 20
-2.700029403319806
 30
0.0
 10
3.684273229594926
 20
-2.701217058664155
 30
0.0
 10
3.695384499887609
 20
-2.701819977901449
 30
0.0
 10
3.706494706760963
 20
-2.702442379761792
 30
0.0
 10
3.717603799179174
 20
-2.703083944500134
 30
0.0
 10
3.728829826342525
 20
-2.70373226237421
 30
0.0
 10
3.740054715465665
 20
-2.704400148667913
 30
0.0
 10
3.751277950747521
 20
-2.705095862475812
 30
0.0
 10
3.773997085797279
 20
-2.706504192209675
 30
0.0
 10
3.796709443788017
 20
-2.708026552663025
 30
0.0
 10
3.81940782465665
 20
-2.709739783547775
 30
0.0
 10
3.842299282458308
 20
-2.711467587514549
 30
0.0
 10
3.86517652434227
 20
-2.713389522886687
 30
0.0
 10
3.888028111402528
 20
-2.715585497332868
 30
0.0
 10
3.910876030905392
 20
-2.717781119336841
 30
0.0
 10
3.933698303818964
 20
-2.720250692458307
 30
0.0
 10
3.956476476401816
 20
-2.723083173519057
 30
0.0
 10
3.979067553839247
 20
-2.725892389172827
 30
0.0
 10
4.001615252432618
 20
-2.729058575550159
 30
0.0
 10
4.024090585480394
 20
-2.732682981970027
 30
0.0
 10
4.04621469707077
 20
-2.736250749883109
 30
0.0
 10
4.068268687152857
 20
-2.740262528551309
 30
0.0
 10
4.090208104173332
 20
-2.744835092426733
 30
0.0
 10
4.111659444019311
 20
-2.749305932356959
 30
0.0
 10
4.133001251819741
 20
-2.754312883917969
 30
0.0
 10
4.154166698116985
 20
-2.759989674578504
 30
0.0
 10
4.174745036572618
 20
-2.765508996869875
 30
0.0
 10
4.195156661999198
 20
-2.771661512365489
 30
0.0
 10
4.215304033043303
 20
-2.778596898275256
 30
0.0
 10
4.234816489076504
 20
-2.785313725614249
 30
0.0
 10
4.254081083478126
 20
-2.792764858800182
 30
0.0
 10
4.272957774395371
 20
-2.801106933168436
 30
0.0
 10
4.291218422649168
 20
-2.809176763119769
 30
0.0
 10
4.30911607281871
 20
-2.81808033124384
 30
0.0
 10
4.326465588178873
 20
-2.827969949171915
 30
0.0
 10
4.343298461828895
 20
-2.83756506958745
 30
0.0
 10
4.359615359819687
 20
-2.848088388119296
 30
0.0
 10
4.37516513971631
 20
-2.859636115898537
 30
0.0
 10
4.38280715858376
 20
-2.865311305782306
 30
0.0
 10
4.390263896852338
 20
-2.871233919316118
 30
0.0
 10
4.3975048375672
 20
-2.877411058751691
 30
0.0
 10
4.404691664849792
 20
-2.883542034818459
 30
0.0
 10
4.411665907948809
 20
-2.889923746725786
 30
0.0
 10
4.418394094659169
 20
-2.896555603103605
 30
0.0
 10
4.425100975087755
 20
-2.903166458250906
 30
0.0
 10
4.431563355043345
 20
-2.910025876102407
 30
0.0
 10
4.437750119023109
 20
-2.917126020009504
 30
0.0
 10
4.443949376159872
 20
-2.924240501494813
 30
0.0
 10
4.44987190307414
 20
-2.93159668223105
 30
0.0
 10
4.455490118863697
 20
-2.93917858076419
 30
0.0
 10
4.461153144887614
 20
-2.946820951636229
 30
0.0
 10
4.466506986127961
 20
-2.954692655261927
 30
0.0
 10
4.471533534992141
 20
-2.962767996167965
 30
0.0
 10
4.476632684217936
 20
-2.970959972301518
 30
0.0
 10
4.481395018373468
 20
-2.979361510618268
 30
0.0
 10
4.485811450259044
 20
-2.987940842138515
 30
0.0
 10
4.49032090936416
 20
-2.996700887723413
 30
0.0
 10
4.49446974063465
 20
-3.005646295428012
 30
0.0
 10
4.498258729402209
 20
-3.014741051075689
 30
0.0
 10
4.50215210396483
 20
-3.024086365211978
 30
0.0
 10
4.505665535746439
 20
-3.03358936965008
 30
0.0
 10
4.508810239375343
 20
-3.043212554204235
 30
0.0
 10
4.512060736446692
 20
-3.053159479861278
 30
0.0
 10
4.514917278703793
 20
-3.063234807797812
 30
0.0
 10
4.517400847130235
 20
-3.073399282680965
 30
0.0
 10
4.519981596153948
 20
-3.083961487592217
 30
0.0
 10
4.522159611781476
 20
-3.094619952481075
 30
0.0
 10
4.523965419536087
 20
-3.105345167766396
 30
0.0
 10
4.527823424784135
 20
-3.128258978359162
 30
0.0
 10
4.529982528704307
 20
-3.151477463692938
 30
0.0
 10
4.530755925802635
 20
-3.1746901321523
 30
0.0
  0
SPLINE
  5
ED
330
70
100
AcDbEntity
  8
Layer 1
 62
    18
420
        0
370
     5
100
AcDbSpline
210
0.0
220
0.0
230
1.0
 70
     8
 71
     3
 72
   107
 73
   103
 74
     0
 42
0.0000000001
 43
0.0000000001
 40
0.0
 40
0.0
 40
0.0
 40
0.0
 40
1.0
 40
1.0
 40
1.0
 40
2.0
 40
2.0
 40
2.0
 40
3.0
 40
3.0
 40
3.0
 40
4.0
 40
4.0
 40
4.0
 40
5.0
 40
5.0
 40
5.0
 40
6.0
 40
6.0
 40
6.0
 40
7.0
 40
7.0
 40
7.0
 40
8.0
 40
8.0
 40
8.0
 40
9.0
 40
9.0
 40
9.0
 40
10.0
 40
10.0
 40
10.0
 40
11.0
 40
11.0
 40
11.0
 40
12.0
 40
12.0
 40
12.0
 40
13.0
 40
13.0
 40
13.0
 40
14.0
 40
14.0
 40
14.0
 40
15.0
 40
15.0
 40
15.0
 40
16.0
 40
16.0
 40
16.0
 40
17.0
 40
17.0
 40
17.0
 40
18.0
 40
18.0
 40
18.0
 40
19.0
 40
19.0
 40
19.0
 40
20.0
 40
20.0
 40
20.0
 40
21.0
 40
21.0
 40
21.0
 40
22.0
 40
22.0
 40
22.0
 40
23.0
 40
23.0
 40
23.0
 40
24.0
 40
24.0
 40
24.0
 40
25.0
 40
25.0
 40
25.0
 40
26.0
 40
26.0
 40
26.0
 40
27.0
 40
27.0
 40
27.0
 40
28.0
 40
28.0
 40
28.0
 40
29.0
 40
29.0
 40
29.0
 40
30.0
 40
30.0
 40
30.0
 40
31.0
 40
31.0
 40
31.0
 40
32.0
 40
32.0
 40
32.0
 40
33.0
 40
33.0
 40
33.0
 40
34.0
 40
34.0
 40
34.0
 40
34.0
 10
8.116371660513941
 20
-2.675759130254997
 30
0.0
 10
8.09573604823068
 20
-2.676280977622834
 30
0.0
 10
8.075100547948913
 20
-2.676807167607939
 30
0.0
 10
8.054464827412818
 20
-2.677324820567756
 30
0.0
 10
8.034056993478833
 20
-2.677836756926858
 30
0.0
 10
8.013648944128274
 20
-2.67834034377347
 30
0.0
 10
7.993240301553909
 20
-2.67881893425489
 30
0.0
 10
7.973006144669461
 20
-2.679293432980039
 30
0.0
 10
7.952771404661448
 20
-2.679743360930551
 30
0.0
 10
7.932536151922615
 20
-2.680168669712959
 30
0.0
 10
7.912425003193611
 20
-2.680591370051224
 30
0.0
 10
7.89231334800359
 20
-2.680989752277014
 30
0.0
 10
7.872201434683334
 20
-2.68137416633984
 30
0.0
 10
7.832158198610196
 20
-2.682139542702745
 30
0.0
 10
7.792113939266666
 20
-2.682849546984104
 30
0.0
 10
7.75206994224503
 20
-2.683574825113964
 30
0.0
 10
7.711947929197485
 20
-2.684301516272537
 30
0.0
 10
7.67182617949494
 20
-2.685043540852373
 30
0.0
 10
7.631706136558136
 20
-2.685872471924123
 30
0.0
 10
7.591125135814725
 20
-2.686710926969933
 30
0.0
 10
7.550545881282042
 20
-2.687638296998152
 30
0.0
 10
7.509970534585678
 20
-2.688720027417161
 30
0.0
 10
7.468549610080079
 20
-2.689824300767099
 30
0.0
 10
7.427132757984294
 20
-2.691089435192111
 30
0.0
 10
7.385723653406544
 20
-2.692570412291906
 30
0.0
 10
7.364581039936928
 20
-2.693326567893386
 30
0.0
 10
7.343440446173758
 20
-2.694138991688734
 30
0.0
 10
7.32230239476395
 20
-2.695013203479384
 30
0.0
 10
7.300807432266954
 20
-2.695902176133004
 30
0.0
 10
7.279315098702315
 20
-2.696855040949306
 30
0.0
 10
7.257826010033934
 20
-2.697876547234626
 30
0.0
 10
7.235931073501319
 20
-2.698917345922255
 30
0.0
 10
7.214039505590196
 20
-2.700029403319806
 30
0.0
 10
7.192152064061208
 20
-2.701217058664155
 30
0.0
 10
7.181040793762867
 20
-2.701819977901449
 30
0.0
 10
7.169930586889487
 20
-2.702442379761792
 30
0.0
 10
7.158821494471251
 20
-2.703083944500134
 30
0.0
 10
7.1475954673079
 20
-2.70373226237421
 30
0.0
 10
7.13637057818481
 20
-2.704400148667913
 30
0.0
 10
7.125147342902904
 20
-2.705095862475812
 30
0.0
 10
7.102428207853196
 20
-2.706504192209675
 30
0.0
 10
7.079715849862458
 20
-2.708026552663025
 30
0.0
 10
7.057017468993775
 20
-2.709739783547775
 30
0.0
 10
7.034126011192167
 20
-2.711467587514549
 30
0.0
 10
7.011248769308204
 20
-2.713389522886687
 30
0.0
 10
6.988397182261741
 20
-2.715585497332868
 30
0.0
 10
6.965549262772671
 20
-2.717781119336841
 30
0.0
 10
6.942726989886788
 20
-2.720250692458307
 30
0.0
 10
6.91994881731768
 20
-2.723083173519057
 30
0.0
 10
6.897357739893865
 20
-2.725892389172827
 30
0.0
 10
6.874810041300545
 20
-2.729058575550159
 30
0.0
 10
6.852334708252745
 20
-2.732682981970027
 30
0.0
 10
6.830210596662368
 20
-2.736250749883109
 30
0.0
 10
6.80815660658023
 20
-2.740262528551309
 30
0.0
 10
6.78621718955978
 20
-2.744835092426733
 30
0.0
 10
6.764765849713726
 20
-2.749305932356959
 30
0.0
 10
6.743424041913347
 20
-2.754312883917969
 30
0.0
 10
6.722258595616153
 20
-2.759989674578504
 30
0.0
 10
6.70168025716047
 20
-2.765508996869875
 30
0.0
 10
6.68126863173394
 20
-2.771661512365489
 30
0.0
 10
6.661121260675384
 20
-2.778596898275256
 30
0.0
 10
6.641608804628212
 20
-2.785313725614249
 30
0.0
 10
6.622344210198977
 20
-2.792764858800182
 30
0.0
 10
6.603467519268165
 20
-2.801106933168436
 30
0.0
 10
6.585206871001306
 20
-2.809176763119769
 30
0.0
 10
6.567309220831715
 20
-2.81808033124384
 30
0.0
 10
6.549959705488756
 20
-2.827969949171915
 30
0.0
 10
6.533126831855383
 20
-2.83756506958745
 30
0.0
 10
6.516809933897307
 20
-2.848088388119296
 30
0.0
 10
6.50126015398348
 20
-2.859636115898537
 30
0.0
 10
6.493618135107592
 20
-2.865311305782306
 30
0.0
 10
6.486161396818475
 20
-2.871233919316118
 30
0.0
 10
6.478920456093431
 20
-2.877411058751691
 30
0.0
 10
6.471733628800708
 20
-2.883542034818459
 30
0.0
 10
6.464759385701616
 20
-2.889923746725786
 30
0.0
 10
6.458031199005176
 20
-2.896555603103605
 30
0.0
 10
6.451324318590309
 20
-2.903166458250906
 30
0.0
 10
6.44486193866218
 20
-2.910025876102407
 30
0.0
 10
6.438675174682518
 20
-2.917126020009504
 30
0.0
 10
6.43247591754583
 20
-2.924240501494813
 30
0.0
 10
6.426553390604023
 20
-2.93159668223105
 30
0.0
 10
6.420935174814189
 20
-2.93917858076419
 30
0.0
 10
6.415272148790196
 20
-2.946820951636229
 30
0.0
 10
6.409918307577261
 20
-2.954692655261927
 30
0.0
 10
6.404891758726925
 20
-2.962767996167965
 30
0.0
 10
6.399792609515176
 20
-2.970959972301518
 30
0.0
 10
6.39503027535962
 20
-2.979361510618268
 30
0.0
 10
6.390613843474069
 20
-2.987940842138515
 30
0.0
 10
6.386104384368902
 20
-2.996700887723413
 30
0.0
 10
6.381955553098489
 20
-3.005646295428012
 30
0.0
 10
6.378166564317691
 20
-3.014741051075689
 30
0.0
 10
6.374273189741503
 20
-3.024086365211978
 30
0.0
 10
6.370759757932457
 20
-3.03358936965008
 30
0.0
 10
6.367615054289583
 20
-3.043212554204235
 30
0.0
 10
6.364364557203808
 20
-3.053159479861278
 30
0.0
 10
6.361508014946606
 20
-3.063234807797812
 30
0.0
 10
6.359024446529739
 20
-3.073399282680965
 30
0.0
 10
6.356443697515904
 20
-3.083961487592217
 30
0.0
 10
6.354265681908562
 20
-3.094619952481075
 30
0.0
 10
6.352459874159257
 20
-3.105345167766396
 30
0.0
 10
6.348601868922602
 20
-3.128258978359162
 30
0.0
 10
6.346442764946168
 20
-3.151477463692938
 30
0.0
 10
6.34566936784789
 20
-3.1746901321523
 30
0.0
  0
SPLINE
  5
EE
330
70
100
AcDbEntity
  8
Layer 1
 62
    18
420
        0
370
     5
100
AcDbSpline
210
0.0
220
0.0
230
1.0
 70
     8
 71
     3
 72
    41
 73
    37
 74
     0
 42
0.0000000001
 43
0.0000000001
 40
0.0
 40
0.0
 40
0.0
 40
0.0
 40
1.0
 40
1.0
 40
1.0
 40
2.0
 40
2.0
 40
2.0
 40
3.0
 40
3.0
 40
3.0
 40
4.0
 40
4.0
 40
4.0
 40
5.0
 40
5.0
 40
5.0
 40
6.0
 40
6.0
 40
6.0
 40
7.0
 40
7.0
 40
7.0
 40
8.0
 40
8.0
 40
8.0
 40
9.0
 40
9.0
 40
9.0
 40
10.0
 40
10.0
 40
10.0
 40
11.0
 40
11.0
 40
11.0
 40
12.0
 40
12.0
 40
12.0
 40
12.0
 10
12.32170695689855
 20
-13.65692441457503
 30
0.0
 10
12.31675649328948
 20
-13.65692441457503
 30
0.0
 10
12.31180605545397
 20
-13.65694488145706
 30
0.0
 10
12.30685559176466
 20
-13.65695201204468
 30
0.0
 10
12.30438092470467
 20
-13.6569555765248
 30
0.0
 10
12.30190625118409
 20
-13.65695580845287
 30
0.0
 10
12.29943159098062
 20
-13.65694997177502
 30
0.0
 10
12.29695725005063
 20
-13.65694413585023
 30
0.0
 10
12.29448292243453
 20
-13.65693223288541
 30
0.0
 10
12.29200863150592
 20
-13.65691471094692
 30
0.0
 10
12.28706080909867
 20
-13.65687967244803
 30
0.0
 10
12.2821131333965
 20
-13.65682216495262
 30
0.0
 10
12.27716582772311
 20
-13.65674204888478
 30
0.0
 10
12.27221917817062
 20
-13.656661943442
 30
0.0
 10
12.26727289854868
 20
-13.6565592354233
 30
0.0
 10
12.26232718105484
 20
-13.65643421487804
 30
0.0
 10
12.25738172252027
 20
-13.65630920087892
 30
0.0
 10
12.25243682605499
 20
-13.65616187668989
 30
0.0
 10
12.24749269579519
 20
-13.65599242735983
 30
0.0
 10
12.24254843843093
 20
-13.65582297367344
 30
0.0
 10
12.23760494731156
 20
-13.65563139370829
 30
0.0
 10
12.23266237621768
 20
-13.65541790471684
 30
0.0
 10
12.2227754591794
 20
-13.65499085007092
 30
0.0
 10
12.21289222356472
 20
-13.65447612784684
 30
0.0
 10
12.20301425131765
 20
-13.65387552744219
 30
0.0
 10
12.19313141357896
 20
-13.6532746312059
 30
0.0
 10
12.18325384439438
 20
-13.65258777216789
 30
0.0
 10
12.17338284072371
 20
-13.65181683015799
 30
0.0
 10
12.16350428737324
 20
-13.65104529850535
 30
0.0
 10
12.15363230958342
 20
-13.65018955521269
 30
0.0
 10
12.14376817892707
 20
-13.64925155990323
 30
0.0
 10
12.13389399481861
 20
-13.64831260859564
 30
0.0
 10
12.12402767384709
 20
-13.64729123752449
 30
0.0
 10
12.11417030023828
 20
-13.6461894637496
 30
0.0
 10
12.10430054899204
 20
-13.64508630650726
 30
0.0
 10
12.09443976759232
 20
-13.64390254451536
 30
0.0
 10
12.08458923901607
 20
-13.64264028866311
 30
0.0
  0
SPLINE
  5
EF
330
70
100
AcDbEntity
  8
Layer 1
 62
    18
420
        0
370
     5
100
AcDbSpline
210
0.0
220
0.0
230
1.0
 70
     8
 71
     3
 72
    41
 73
    37
 74
     0
 42
0.0000000001
 43
0.0000000001
 40
0.0
 40
0.0
 40
0.0
 40
0.0
 40
1.0
 40
1.0
 40
1.0
 40
2.0
 40
2.0
 40
2.0
 40
3.0
 40
3.0
 40
3.0
 40
4.0
 40
4.0
 40
4.0
 40
5.0
 40
5.0
 40
5.0
 40
6.0
 40
6.0
 40
6.0
 40
7.0
 40
7.0
 40
7.0
 40
8.0
 40
8.0
 40
8.0
 40
9.0
 40
9.0
 40
9.0
 40
10.0
 40
10.0
 40
10.0
 40
11.0
 40
11.0
 40
11.0
 40
12.0
 40
12.0
 40
12.0
 40
12.0
 10
12.32170695689855
 20
-13.65692441457503
 30
0.0
 10
12.32665742050777
 20
-13.65692441457503
 30
0.0
 10
12.3316078583984
 20
-13.65694488145706
 30
0.0
 10
12.33655832207842
 20
-13.65695201204468
 30
0.0
 10
12.33903298913391
 20
-13.6569555765248
 30
0.0
 10
12.34150766263383
 20
-13.65695580845287
 30
0.0
 10
12.34398232282693
 20
-13.65694997177502
 30
0.0
 10
12.34645666374647
 20
-13.65694413585023
 30
0.0
 10
12.34893099136262
 20
-13.65693223288541
 30
0.0
 10
12.35140528229127
 20
-13.65691471094692
 30
0.0
 10
12.35635310469853
 20
-13.65687967244803
 30
0.0
 10
12.36130078040065
 20
-13.65682216495262
 30
0.0
 10
12.36624808607409
 20
-13.65674204888478
 30
0.0
 10
12.37119473562673
 20
-13.656661943442
 30
0.0
 10
12.37614101524862
 20
-13.6565592354233
 30
0.0
 10
12.3810867327561
 20
-13.65643421487804
 30
0.0
 10
12.38603219130437
 20
-13.65630920087892
 30
0.0
 10
12.39097708779738
 20
-13.65616187668989
 30
0.0
 10
12.39592121807092
 20
-13.65599242735983
 30
0.0
 10
12.40086547544893
 20
-13.65582297367344
 30
0.0
 10
12.40580896656825
 20
-13.65563139370829
 30
0.0
 10
12.41075153766218
 20
-13.65541790471684
 30
0.0
 10
12.42063845470046
 20
-13.65499085007092
 30
0.0
 10
12.43052169031514
 20
-13.65447612784684
 30
0.0
 10
12.44039966254831
 20
-13.65387552744219
 30
0.0
 10
12.45028250027326
 20
-13.6532746312059
 30
0.0
 10
12.46016006943025
 20
-13.65258777216789
 30
0.0
 10
12.47003107308723
 20
-13.65181683015799
 30
0.0
 10
12.47990962642401
 20
-13.65104529850535
 30
0.0
 10
12.48978160421378
 20
-13.65018955521269
 30
0.0
 10
12.49964573488382
 20
-13.64925155990323
 30
0.0
 10
12.50951991900607
 20
-13.64831260859564
 30
0.0
 10
12.51938624000513
 20
-13.64729123752449
 30
0.0
 10
12.52924361362779
 20
-13.6461894637496
 30
0.0
 10
12.53911336488782
 20
-13.64508630650726
 30
0.0
 10
12.54897414628754
 20
-13.64390254451536
 30
0.0
 10
12.5588246748638
 20
-13.64264028866311
 30
0.0
  0
SPLINE
  5
F0
330
70
100
AcDbEntity
  8
Layer 1
 62
    18
420
        0
370
     5
100
AcDbSpline
210
0.0
220
0.0
230
1.0
 70
     8
 71
     3
 72
   107
 73
   103
 74
     0
 42
0.0000000001
 43
0.0000000001
 40
0.0
 40
0.0
 40
0.0
 40
0.0
 40
1.0
 40
1.0
 40
1.0
 40
2.0
 40
2.0
 40
2.0
 40
3.0
 40
3.0
 40
3.0
 40
4.0
 40
4.0
 40
4.0
 40
5.0
 40
5.0
 40
5.0
 40
6.0
 40
6.0
 40
6.0
 40
7.0
 40
7.0
 40
7.0
 40
8.0
 40
8.0
 40
8.0
 40
9.0
 40
9.0
 40
9.0
 40
10.0
 40
10.0
 40
10.0
 40
11.0
 40
11.0
 40
11.0
 40
12.0
 40
12.0
 40
12.0
 40
13.0
 40
13.0
 40
13.0
 40
14.0
 40
14.0
 40
14.0
 40
15.0
 40
15.0
 40
15.0
 40
16.0
 40
16.0
 40
16.0
 40
17.0
 40
17.0
 40
17.0
 40
18.0
 40
18.0
 40
18.0
 40
19.0
 40
19.0
 40
19.0
 40
20.0
 40
20.0
 40
20.0
 40
21.0
 40
21.0
 40
21.0
 40
22.0
 40
22.0
 40
22.0
 40
23.0
 40
23.0
 40
23.0
 40
24.0
 40
24.0
 40
24.0
 40
25.0
 40
25.0
 40
25.0
 40
26.0
 40
26.0
 40
26.0
 40
27.0
 40
27.0
 40
27.0
 40
28.0
 40
28.0
 40
28.0
 40
29.0
 40
29.0
 40
29.0
 40
30.0
 40
30.0
 40
30.0
 40
31.0
 40
31.0
 40
31.0
 40
32.0
 40
32.0
 40
32.0
 40
33.0
 40
33.0
 40
33.0
 40
34.0
 40
34.0
 40
34.0
 40
34.0
 10
16.53724349107172
 20
-8.235733654917137
 30
0.0
 10
16.53672164370396
 20
-8.256369267200398
 30
0.0
 10
16.5361954537188
 20
-8.277004767482127
 30
0.0
 10
16.53567780077295
 20
-8.297640488018309
 30
0.0
 10
16.5351658644277
 20
-8.31804832195227
 30
0.0
 10
16.53466227760848
 20
-8.338456371302843
 30
0.0
 10
16.53418368712694
 20
-8.358865013877196
 30
0.0
 10
16.53370918840154
 20
-8.379099170761667
 30
0.0
 10
16.53325926042346
 20
-8.39933391076963
 30
0.0
 10
16.53283395163786
 20
-8.419569163508475
 30
0.0
 10
16.53241125129635
 20
-8.439680312237555
 30
0.0
 10
16.53201286909123
 20
-8.459791967427525
 30
0.0
 10
16.5316284550366
 20
-8.479903880747832
 30
0.0
 10
16.53086307869004
 20
-8.519947116820983
 30
0.0
 10
16.53015307437575
 20
-8.559991376164386
 30
0.0
 10
16.52942779622931
 20
-8.600035373186074
 30
0.0
 10
16.52870110505419
 20
-8.640157386233617
 30
0.0
 10
16.52795908047437
 20
-8.680279135936164
 30
0.0
 10
16.52713014940264
 20
-8.720399178872993
 30
0.0
 10
16.52629169435679
 20
-8.760980179616403
 30
0.0
 10
16.52536432432857
 20
-8.801559434149137
 30
0.0
 10
16.5242825939095
 20
-8.842134780845373
 30
0.0
 10
16.52317832055961
 20
-8.883555705350948
 30
0.0
 10
16.52191318613464
 20
-8.924972557446734
 30
0.0
 10
16.52043220906171
 20
-8.966381662024533
 30
0.0
 10
16.51967605347408
 20
-8.9875242754942
 30
0.0
 10
16.5188636296995
 20
-9.008664869257371
 30
0.0
 10
16.51798941790594
 20
-9.029802920667281
 30
0.0
 10
16.51710044524927
 20
-9.051297883164098
 30
0.0
 10
16.51614758040548
 20
-9.072790216728863
 30
0.0
 10
16.51512607410621
 20
-9.094279305397144
 30
0.0
 10
16.51408527540439
 20
-9.11617424192981
 30
0.0
 10
16.51297321800701
 20
-9.138065809840883
 30
0.0
 10
16.51178556266253
 20
-9.159953251369818
 30
0.0
 10
16.51118264342535
 20
-9.171064521668212
 30
0.0
 10
16.51056024156494
 20
-9.182174728541667
 30
0.0
 10
16.5099186768266
 20
-9.193283820959852
 30
0.0
 10
16.50927035895251
 20
-9.204509848123178
 30
0.0
 10
16.50860247265877
 20
-9.215734737246217
 30
0.0
 10
16.50790675885097
 20
-9.22695797252825
 30
0.0
 10
16.50649842911697
 20
-9.249677107577932
 30
0.0
 10
16.50497606866368
 20
-9.27238946556867
 30
0.0
 10
16.50326283777889
 20
-9.295087846437278
 30
0.0
 10
16.50153503381226
 20
-9.317979304238935
 30
0.0
 10
16.49961309844007
 20
-9.340856546122873
 30
0.0
 10
16.49741712399393
 20
-9.363708133169337
 30
0.0
 10
16.49522150198986
 20
-9.386556052658381
 30
0.0
 10
16.49275192886837
 20
-9.409378325544366
 30
0.0
 10
16.48991944780765
 20
-9.432156498113373
 30
0.0
 10
16.48711023215385
 20
-9.454747575537238
 30
0.0
 10
16.48394404577655
 20
-9.477295274130558
 30
0.0
 10
16.48031963935662
 20
-9.499770607178383
 30
0.0
 10
16.47675187144356
 20
-9.521894718768786
 30
0.0
 10
16.47274009277549
 20
-9.543948708850821
 30
0.0
 10
16.46816752890001
 20
-9.565888125871323
 30
0.0
 10
16.46369668896977
 20
-9.58733946571735
 30
0.0
 10
16.45868973740875
 20
-9.608681273517705
 30
0.0
 10
16.4530129467482
 20
-9.629846719814899
 30
0.0
 10
16.44749362445681
 20
-9.650425058270583
 30
0.0
 10
16.44134110896119
 20
-9.670836683697162
 30
0.0
 10
16.43440572305149
 20
-9.690984054755643
 30
0.0
 10
16.42768889571253
 20
-9.710496510802967
 30
0.0
 10
16.42023776252649
 20
-9.729761105232075
 30
0.0
 10
16.41189568815823
 20
-9.748637796162912
 30
0.0
 10
16.40382585820705
 20
-9.766898444429797
 30
0.0
 10
16.39492229008283
 20
-9.784796094599414
 30
0.0
 10
16.38503267217195
 20
-9.802145609942296
 30
0.0
 10
16.3754375517731
 20
-9.818978483575721
 30
0.0
 10
16.36491423327404
 20
-9.835295381533821
 30
0.0
 10
16.35336650547763
 20
-9.850845161447598
 30
0.0
 10
16.3476913155852
 20
-9.858487180323511
 30
0.0
 10
16.34176870203095
 20
-9.865943918612678
 30
0.0
 10
16.3355915625852
 20
-9.873184859337698
 30
0.0
 10
16.3294605865083
 20
-9.88037168663042
 30
0.0
 10
16.32307887460097
 20
-9.887345929729537
 30
0.0
 10
16.31644701822309
 20
-9.894074116425928
 30
0.0
 10
16.30983616307579
 20
-9.900780996840795
 30
0.0
 10
16.30297674522434
 20
-9.907243376768947
 30
0.0
 10
16.2958766013172
 20
-9.91343014074861
 30
0.0
 10
16.28876211983197
 20
-9.919629397885348
 30
0.0
 10
16.2814059390958
 20
-9.925551924827029
 30
0.0
 10
16.27382404056258
 20
-9.931170140616863
 30
0.0
 10
16.26618166969047
 20
-9.936833166640932
 30
0.0
 10
16.25830996606479
 20
-9.942187007853867
 30
0.0
 10
16.2502346251587
 20
-9.947213556704152
 30
0.0
 10
16.24204264902517
 20
-9.952312705915927
 30
0.0
 10
16.23364111070845
 20
-9.957075040071533
 30
0.0
 10
16.22506177918815
 20
-9.961491471957009
 30
0.0
 10
16.21630173360331
 20
-9.966000931062175
 30
0.0
 10
16.20735632589872
 20
-9.970149762332614
 30
0.0
 10
16.19826157025105
 20
-9.973938751113438
 30
0.0
 10
16.18891625611473
 20
-9.977832125689575
 30
0.0
 10
16.17941325167673
 20
-9.981345557498645
 30
0.0
 10
16.1697900671225
 20
-9.98449026114152
 30
0.0
 10
16.15984314146539
 20
-9.987740758227319
 30
0.0
 10
16.14976781352889
 20
-9.990597300484447
 30
0.0
 10
16.13960333864573
 20
-9.993080868901314
 30
0.0
 10
16.12904113373456
 20
-9.995661617915148
 30
0.0
 10
16.1183826688457
 20
-9.997839633522517
 30
0.0
 10
16.10765745356037
 20
-9.999645441271846
 30
0.0
 10
16.08474364296747
 20
-10.00350344650847
 30
0.0
 10
16.06152515763379
 20
-10.00566255048491
 30
0.0
 10
16.03831248917443
 20
-10.00643594758321
 30
0.0
  0
SPLINE
  5
F1
330
70
100
AcDbEntity
  8
Layer 1
 62
    18
420
        0
370
     5
100
AcDbSpline
210
0.0
220
0.0
230
1.0
 70
     8
 71
     3
 72
   107
 73
   103
 74
     0
 42
0.0000000001
 43
0.0000000001
 40
0.0
 40
0.0
 40
0.0
 40
0.0
 40
1.0
 40
1.0
 40
1.0
 40
2.0
 40
2.0
 40
2.0
 40
3.0
 40
3.0
 40
3.0
 40
4.0
 40
4.0
 40
4.0
 40
5.0
 40
5.0
 40
5.0
 40
6.0
 40
6.0
 40
6.0
 40
7.0
 40
7.0
 40
7.0
 40
8.0
 40
8.0
 40
8.0
 40
9.0
 40
9.0
 40
9.0
 40
10.0
 40
10.0
 40
10.0
 40
11.0
 40
11.0
 40
11.0
 40
12.0
 40
12.0
 40
12.0
 40
13.0
 40
13.0
 40
13.0
 40
14.0
 40
14.0
 40
14.0
 40
15.0
 40
15.0
 40
15.0
 40
16.0
 40
16.0
 40
16.0
 40
17.0
 40
17.0
 40
17.0
 40
18.0
 40
18.0
 40
18.0
 40
19.0
 40
19.0
 40
19.0
 40
20.0
 40
20.0
 40
20.0
 40
21.0
 40
21.0
 40
21.0
 40
22.0
 40
22.0
 40
22.0
 40
23.0
 40
23.0
 40
23.0
 40
24.0
 40
24.0
 40
24.0
 40
25.0
 40
25.0
 40
25.0
 40
26.0
 40
26.0
 40
26.0
 40
27.0
 40
27.0
 40
27.0
 40
28.0
 40
28.0
 40
28.0
 40
29.0
 40
29.0
 40
29.0
 40
30.0
 40
30.0
 40
30.0
 40
31.0
 40
31.0
 40
31.0
 40
32.0
 40
32.0
 40
32.0
 40
33.0
 40
33.0
 40
33.0
 40
34.0
 40
34.0
 40
34.0
 40
34.0
 10
16.53724349107172
 20
-13.59205168229464
 30
0.0
 10
16.53672164370396
 20
-13.57141606992867
 30
0.0
 10
16.5361954537188
 20
-13.55078056964695
 30
0.0
 10
16.53567780077295
 20
-13.53014484912478
 30
0.0
 10
16.5351658644277
 20
-13.50973701520456
 30
0.0
 10
16.53466227760848
 20
-13.48932896588159
 30
0.0
 10
16.53418368712694
 20
-13.46892032332084
 30
0.0
 10
16.53370918840154
 20
-13.44868616645011
 30
0.0
 10
16.53325926042346
 20
-13.42845142644215
 30
0.0
 10
16.53283395163786
 20
-13.40821617369281
 30
0.0
 10
16.53241125129635
 20
-13.38810502495342
 30
0.0
 10
16.53201286909123
 20
-13.36799336974271
 30
0.0
 10
16.5316284550366
 20
-13.34788145640871
 30
0.0
 10
16.53086307869004
 20
-13.30783822030811
 30
0.0
 10
16.53015307437575
 20
-13.26779396096458
 30
0.0
 10
16.52942779622931
 20
-13.22774996394297
 30
0.0
 10
16.52870110505419
 20
-13.18762795089547
 30
0.0
 10
16.52795908047437
 20
-13.14750620119283
 30
0.0
 10
16.52713014940264
 20
-13.10738615825618
 30
0.0
 10
16.52629169435679
 20
-13.06680515751266
 30
0.0
 10
16.52536432432857
 20
-13.02622590298003
 30
0.0
 10
16.5242825939095
 20
-12.98565055629981
 30
0.0
 10
16.52317832055961
 20
-12.94422963181061
 30
0.0
 10
16.52191318613464
 20
-12.90281277974794
 30
0.0
 10
16.52043220906171
 20
-12.86140367518139
 30
0.0
 10
16.51967605347408
 20
-12.8402610617175
 30
0.0
 10
16.5188636296995
 20
-12.81912046795441
 30
0.0
 10
16.51798941790594
 20
-12.79798241653111
 30
0.0
 10
16.51710044524927
 20
-12.77648745402062
 30
0.0
 10
16.51614758040548
 20
-12.75499512042837
 30
0.0
 10
16.51512607410621
 20
-12.73350603176219
 30
0.0
 10
16.51408527540439
 20
-12.71161109523187
 30
0.0
 10
16.51297321800701
 20
-12.68971952735392
 30
0.0
 10
16.51178556266253
 20
-12.66783208583615
 30
0.0
 10
16.51118264342535
 20
-12.65672081554347
 30
0.0
 10
16.51056024156494
 20
-12.64561060867014
 30
0.0
 10
16.5099186768266
 20
-12.63450151625185
 30
0.0
 10
16.50927035895251
 20
-12.62327548908855
 30
0.0
 10
16.50860247265877
 20
-12.61205059996541
 30
0.0
 10
16.50790675885097
 20
-12.60082736468361
 30
0.0
 10
16.50649842911697
 20
-12.5781082296338
 30
0.0
 10
16.50497606866368
 20
-12.55539587164314
 30
0.0
 10
16.50326283777889
 20
-12.53269749077443
 30
0.0
 10
16.50153503381226
 20
-12.50980603297287
 30
0.0
 10
16.49961309844007
 20
-12.48692879108888
 30
0.0
 10
16.49741712399393
 20
-12.46407720402857
 30
0.0
 10
16.49522150198986
 20
-12.44122928452566
 30
0.0
 10
16.49275192886837
 20
-12.41840701161206
 30
0.0
 10
16.48991944780765
 20
-12.39562883902926
 30
0.0
 10
16.48711023215385
 20
-12.37303776159183
 30
0.0
 10
16.48394404577655
 20
-12.35049006299851
 30
0.0
 10
16.48031963935662
 20
-12.32801472995068
 30
0.0
 10
16.47675187144356
 20
-12.30589061836036
 30
0.0
 10
16.47274009277549
 20
-12.28383662827817
 30
0.0
 10
16.46816752890001
 20
-12.26189721125772
 30
0.0
 10
16.46369668896977
 20
-12.24044587141176
 30
0.0
 10
16.45868973740875
 20
-12.21910406361129
 30
0.0
 10
16.4530129467482
 20
-12.19793861731409
 30
0.0
 10
16.44749362445681
 20
-12.17736027885851
 30
0.0
 10
16.44134110896119
 20
-12.15694865343188
 30
0.0
 10
16.43440572305149
 20
-12.13680128238782
 30
0.0
 10
16.42768889571253
 20
-12.11728882635455
 30
0.0
 10
16.42023776252649
 20
-12.09802423195295
 30
0.0
 10
16.41189568815823
 20
-12.07914754103575
 30
0.0
 10
16.40382585820705
 20
-12.06088689278196
 30
0.0
 10
16.39492229008283
 20
-12.04298924261232
 30
0.0
 10
16.38503267217195
 20
-12.0256397272522
 30
0.0
 10
16.3754375517731
 20
-12.00880685360216
 30
0.0
 10
16.36491423327404
 20
-11.99248995561141
 30
0.0
 10
16.35336650547763
 20
-11.97694017571476
 30
0.0
 10
16.3476913155852
 20
-11.96929815684732
 30
0.0
 10
16.34176870203095
 20
-11.96184141857876
 30
0.0
 10
16.3355915625852
 20
-11.95460047786388
 30
0.0
 10
16.3294605865083
 20
-11.94741365058131
 30
0.0
 10
16.32307887460097
 20
-11.94043940748227
 30
0.0
 10
16.31644701822309
 20
-11.93371122077201
 30
0.0
 10
16.30983616307579
 20
-11.92700434034332
 30
0.0
 10
16.30297674522434
 20
-11.92054196038768
 30
0.0
 10
16.2958766013172
 20
-11.91435519640797
 30
0.0
 10
16.28876211983197
 20
-11.90815593927125
 30
0.0
 10
16.2814059390958
 20
-11.90223341235689
 30
0.0
 10
16.27382404056258
 20
-11.8966151965674
 30
0.0
 10
16.26618166969047
 20
-11.89095217054346
 30
0.0
 10
16.25830996606479
 20
-11.88559832930314
 30
0.0
 10
16.2502346251587
 20
-11.88057178043899
 30
0.0
 10
16.24204264902517
 20
-11.87547263121317
 30
0.0
 10
16.23364111070845
 20
-11.87071029705761
 30
0.0
 10
16.22506177918815
 20
-11.86629386517201
 30
0.0
 10
16.21630173360331
 20
-11.86178440606689
 30
0.0
 10
16.20735632589872
 20
-11.85763557479648
 30
0.0
 10
16.19826157025105
 20
-11.85384658602882
 30
0.0
 10
16.18891625611473
 20
-11.8499532114662
 30
0.0
 10
16.17941325167673
 20
-11.84643977968464
 30
0.0
 10
16.1697900671225
 20
-11.84329507605573
 30
0.0
 10
16.15984314146539
 20
-11.84004457898439
 30
0.0
 10
16.14976781352889
 20
-11.83718803672726
 30
0.0
 10
16.13960333864573
 20
-11.83470446830089
 30
0.0
 10
16.12904113373456
 20
-11.83212371927713
 30
0.0
 10
16.1183826688457
 20
-11.82994570364975
 30
0.0
 10
16.10765745356037
 20
-11.82813989589504
 30
0.0
 10
16.08474364296747
 20
-11.82428189064697
 30
0.0
 10
16.06152515763379
 20
-11.82212278672682
 30
0.0
 10
16.03831248917443
 20
-11.82134938962854
 30
0.0
  0
LINE
  5
F2
330
70
100
AcDbEntity
  8
Layer 1
 62
    40
420
 16695056
370
     5
100
AcDbLine
 10
5.012584039059611
 20
-2.684805737963276
 30
0.0
 11
5.012584039059611
 21
-2.689928961166401
 31
0.0
  0
LINE
  5
F3
330
70
100
AcDbEntity
  8
Layer 1
 62
    40
420
 16695056
370
     5
100
AcDbLine
 10
5.863841254590889
 20
-2.689928961166401
 30
0.0
 11
5.863841254590889
 21
-2.684805737963276
 31
0.0
  0
LINE
  5
F4
330
70
100
AcDbEntity
  8
Layer 1
 62
    40
420
 16695056
370
     5
100
AcDbLine
 10
16.52532771695147
 20
-13.02137412453281
 30
0.0
 11
16.52519678954205
 21
-13.02137412453281
 31
0.0
  0
LINE
  5
F5
330
70
100
AcDbEntity
  8
Layer 1
 62
    40
420
 16695056
370
     5
100
AcDbLine
 10
16.50376474712372
 20
-12.53541369469553
 30
0.0
 11
16.50346696577925
 21
-12.53541369469553
 31
0.0
  0
LINE
  5
F6
330
70
100
AcDbEntity
  8
Layer 1
 62
    40
420
 16695056
370
     5
100
AcDbLine
 10
16.51006653437157
 20
-10.53682738232305
 30
0.0
 11
16.51077140245403
 21
-10.53682738232305
 31
0.0
  0
LINE
  5
F7
330
70
100
AcDbEntity
  8
Layer 1
 62
    40
420
 16695056
370
     5
100
AcDbLine
 10
16.50105033167008
 20
-10.43434369240905
 30
0.0
 11
16.51464760226756
 21
-10.43434369240905
 31
0.0
  0
LINE
  5
F8
330
70
100
AcDbEntity
  8
Layer 1
 62
    40
420
 16695056
370
     5
100
AcDbLine
 10
16.51794384111862
 20
-10.20623981717937
 30
0.0
 11
16.50707962561526
 21
-10.20623981717937
 31
0.0
  0
LINE
  5
F9
330
70
100
AcDbEntity
  8
Layer 1
 62
    40
420
 16695056
370
     5
100
AcDbLine
 10
16.52166694571052
 20
-8.93038071008646
 30
0.0
 11
16.52307366016026
 21
-8.93038071008646
 31
0.0
  0
LINE
  5
FA
330
70
100
AcDbEntity
  8
Layer 1
 62
    40
420
 16695056
370
     5
100
AcDbLine
 10
16.52819688336346
 20
-8.707235614752965
 30
0.0
 11
16.52739912047364
 21
-8.707235614752965
 31
0.0
  0
LINE
  5
FB
330
70
100
AcDbEntity
  8
Layer 1
 62
    18
420
        0
370
     5
100
AcDbLine
 10
4.761339190980467
 20
-5.840034326412819
 30
0.0
 11
4.761339190980467
 21
-5.823505060091873
 31
0.0
  0
LINE
  5
FC
330
70
100
AcDbEntity
  8
Layer 1
 62
    18
420
        0
370
     5
100
AcDbLine
 10
6.115086102669983
 20
-5.840034326412819
 30
0.0
 11
6.115086102669983
 21
-5.823505060091873
 31
0.0
  0
LINE
  5
FD
330
70
100
AcDbEntity
  8
Layer 1
 62
    18
420
        0
370
     5
100
AcDbLine
 10
13.3894975612349
 20
-11.59076612445063
 30
0.0
 11
13.37296829491384
 21
-11.59076612445063
 31
0.0
  0
LINE
  5
FE
330
70
100
AcDbEntity
  8
Layer 1
 62
    18
420
        0
370
     5
100
AcDbLine
 10
13.3894975612349
 20
-10.23701921276112
 30
0.0
 11
13.37296829491384
 21
-10.23701921276112
 31
0.0
  0
SPLINE
  5
FF
330
70
100
AcDbEntity
  8
Layer 1
 62
    18
420
        0
370
     5
100
AcDbSpline
210
0.0
220
0.0
230
1.0
 70
     8
 71
     3
 72
    41
 73
    37
 74
     0
 42
0.0000000001
 43
0.0000000001
 40
0.0
 40
0.0
 40
0.0
 40
0.0
 40
1.0
 40
1.0
 40
1.0
 40
2.0
 40
2.0
 40
2.0
 40
3.0
 40
3.0
 40
3.0
 40
4.0
 40
4.0
 40
4.0
 40
5.0
 40
5.0
 40
5.0
 40
6.0
 40
6.0
 40
6.0
 40
7.0
 40
7.0
 40
7.0
 40
8.0
 40
8.0
 40
8.0
 40
9.0
 40
9.0
 40
9.0
 40
10.0
 40
10.0
 40
10.0
 40
11.0
 40
11.0
 40
11.0
 40
12.0
 40
12.0
 40
12.0
 40
12.0
 10
5.438212646825212
 20
-13.65692441457503
 30
0.0
 10
5.433262183216066
 20
-13.65692441457503
 30
0.0
 10
5.428311745380609
 20
-13.65694488145706
 30
0.0
 10
5.4233612816913
 20
-13.65695201204468
 30
0.0
 10
5.420886614631209
 20
-13.6569555765248
 30
0.0
 10
5.418411941110623
 20
-13.65695580845287
 30
0.0
 10
5.415937280907213
 20
-13.65694997177502
 30
0.0
 10
5.413462939977319
 20
-13.65694413585023
 30
0.0
 10
5.410988612361165
 20
-13.65693223288541
 30
0.0
 10
5.408514321432562
 20
-13.65691471094692
 30
0.0
 10
5.403566499025284
 20
-13.65687967244803
 30
0.0
 10
5.398618823323141
 20
-13.65682216495262
 30
0.0
 10
5.393671517649699
 20
-13.65674204888478
 30
0.0
 10
5.388724868097154
 20
-13.656661943442
 30
0.0
 10
5.383778588475264
 20
-13.6565592354233
 30
0.0
 10
5.378832870981479
 20
-13.65643421487804
 30
0.0
 10
5.373887412446909
 20
-13.65630920087892
 30
0.0
 10
5.368942515981605
 20
-13.65616187668989
 30
0.0
 10
5.363998385721881
 20
-13.65599242735983
 30
0.0
 10
5.359054128357519
 20
-13.65582297367344
 30
0.0
 10
5.354110637238199
 20
-13.65563139370829
 30
0.0
 10
5.349168066144291
 20
-13.65541790471684
 30
0.0
 10
5.339281149105986
 20
-13.65499085007092
 30
0.0
 10
5.329397913491283
 20
-13.65447612784684
 30
0.0
 10
5.319519941244341
 20
-13.65387552744219
 30
0.0
 10
5.309637103505653
 20
-13.6532746312059
 30
0.0
 10
5.29975953432112
 20
-13.65258777216789
 30
0.0
 10
5.289888530650298
 20
-13.65181683015799
 30
0.0
 10
5.280009977299831
 20
-13.65104529850535
 30
0.0
 10
5.270137999510059
 20
-13.65018955521269
 30
0.0
 10
5.260273868853712
 20
-13.64925155990323
 30
0.0
 10
5.250399684745249
 20
-13.64831260859564
 30
0.0
 10
5.240533363773831
 20
-13.64729123752449
 30
0.0
 10
5.230675990164917
 20
-13.6461894637496
 30
0.0
 10
5.220806238918675
 20
-13.64508630650726
 30
0.0
 10
5.21094545751896
 20
-13.64390254451536
 30
0.0
 10
5.201094928860091
 20
-13.64264028866311
 30
0.0
  0
SPLINE
  5
100
330
70
100
AcDbEntity
  8
Layer 1
 62
    18
420
        0
370
     5
100
AcDbSpline
210
0.0
220
0.0
230
1.0
 70
     8
 71
     3
 72
    41
 73
    37
 74
     0
 42
0.0000000001
 43
0.0000000001
 40
0.0
 40
0.0
 40
0.0
 40
0.0
 40
1.0
 40
1.0
 40
1.0
 40
2.0
 40
2.0
 40
2.0
 40
3.0
 40
3.0
 40
3.0
 40
4.0
 40
4.0
 40
4.0
 40
5.0
 40
5.0
 40
5.0
 40
6.0
 40
6.0
 40
6.0
 40
7.0
 40
7.0
 40
7.0
 40
8.0
 40
8.0
 40
8.0
 40
9.0
 40
9.0
 40
9.0
 40
10.0
 40
10.0
 40
10.0
 40
11.0
 40
11.0
 40
11.0
 40
12.0
 40
12.0
 40
12.0
 40
12.0
 10
5.438212646825212
 20
-13.65692441457503
 30
0.0
 10
5.44316311043441
 20
-13.65692441457503
 30
0.0
 10
5.448113548324966
 20
-13.65694488145706
 30
0.0
 10
5.453064012005003
 20
-13.65695201204468
 30
0.0
 10
5.455538679060547
 20
-13.6569555765248
 30
0.0
 10
5.458013352560416
 20
-13.65695580845287
 30
0.0
 10
5.46048801275357
 20
-13.65694997177502
 30
0.0
 10
5.462962353673106
 20
-13.65694413585023
 30
0.0
 10
5.46543668128926
 20
-13.65693223288541
 30
0.0
 10
5.467910972217914
 20
-13.65691471094692
 30
0.0
 10
5.472858794625166
 20
-13.65687967244803
 30
0.0
 10
5.47780647032736
 20
-13.65682216495262
 30
0.0
 10
5.482753776000777
 20
-13.65674204888478
 30
0.0
 10
5.487700425553271
 20
-13.656661943442
 30
0.0
 10
5.492646705175212
 20
-13.6565592354233
 30
0.0
 10
5.497592422682739
 20
-13.65643421487804
 30
0.0
 10
5.502537881231104
 20
-13.65630920087892
 30
0.0
 10
5.507482777723945
 20
-13.65616187668989
 30
0.0
 10
5.512426907997514
 20
-13.65599242735983
 30
0.0
 10
5.517371165375569
 20
-13.65582297367344
 30
0.0
 10
5.522314656494914
 20
-13.65563139370829
 30
0.0
 10
5.527257227588771
 20
-13.65541790471684
 30
0.0
 10
5.53714414462705
 20
-13.65499085007092
 30
0.0
 10
5.54702738024178
 20
-13.65447612784684
 30
0.0
 10
5.556905352475003
 20
-13.65387552744219
 30
0.0
 10
5.566788190199897
 20
-13.6532746312059
 30
0.0
 10
5.576665759356942
 20
-13.65258777216789
 30
0.0
 10
5.586536763013921
 20
-13.65181683015799
 30
0.0
 10
5.596415316350619
 20
-13.65104529850535
 30
0.0
 10
5.606287294140391
 20
-13.65018955521269
 30
0.0
 10
5.616151424810507
 20
-13.64925155990323
 30
0.0
 10
5.626025608932764
 20
-13.64831260859564
 30
0.0
 10
5.635891929931694
 20
-13.64729123752449
 30
0.0
 10
5.645749303554351
 20
-13.6461894637496
 30
0.0
 10
5.655619054814388
 20
-13.64508630650726
 30
0.0
 10
5.665479836214128
 20
-13.64390254451536
 30
0.0
 10
5.675330364790384
 20
-13.64264028866311
 30
0.0
  0
ENDSEC
  0
SECTION
  2
OBJECTS
  0
DICTIONARY
  5
C
330
0
100
AcDbDictionary
281
     1
  3
ACAD_COLOR
350
63
  3
ACAD_DETAILVIEWSTYLE
350
6A
  3
ACAD_GROUP
350
D
  3
ACAD_LAYOUT
350
62
  3
ACAD_MATERIAL
350
10
  3
ACAD_MLEADERSTYLE
350
66
  3
ACAD_MLINESTYLE
350
5F
  3
ACAD_PLOTSETTINGS
350
61
  3
ACAD_PLOTSTYLENAME
350
E
  3
ACAD_SCALELIST
350
42
  3
ACAD_SECTIONVIEWSTYLE
350
68
  3
ACAD_TABLESTYLE
350
64
  3
ACAD_VISUALSTYLE
350
29
  3
ACDB_RECOMPOSE_DATA
350
109
  3
AcDbVariableDictionary
350
101
  0
DICTIONARY
  5
63
102
{ACAD_REACTORS
330
C
102
}
330
C
100
AcDbDictionary
281
     1
  0
DICTIONARY
  5
6A
102
{ACAD_REACTORS
330
C
102
}
330
C
100
AcDbDictionary
281
     1
  3
Imperial24
350
6B
  0
DICTIONARY
  5
D
102
{ACAD_REACTORS
330
C
102
}
330
C
100
AcDbDictionary
281
     1
  0
DICTIONARY
  5
62
102
{ACAD_REACTORS
330
C
102
}
330
C
100
AcDbDictionary
281
     1
  3
Layout1
350
6F
  3
Layout2
350
77
  3
Model
350
73
  0
DICTIONARY
  5
10
102
{ACAD_REACTORS
330
C
102
}
330
C
100
AcDbDictionary
281
     1
  3
ByBlock
350
19
  3
ByLayer
350
11
  3
Global
350
21
  0
DICTIONARY
  5
66
102
{ACAD_REACTORS
330
C
102
}
330
C
100
AcDbDictionary
281
     1
  3
Standard
350
67
  0
DICTIONARY
  5
5F
102
{ACAD_REACTORS
330
C
102
}
330
C
100
AcDbDictionary
281
     1
  3
Standard
350
60
  0
DICTIONARY
  5
61
102
{ACAD_REACTORS
330
C
102
}
330
C
100
AcDbDictionary
281
     1
  0
ACDBDICTIONARYWDFLT
  5
E
102
{ACAD_REACTORS
330
C
102
}
330
C
100
AcDbDictionary
281
     1
  3
Normal
350
F
100
AcDbDictionaryWithDefault
340
F
  0
DICTIONARY
  5
42
102
{ACAD_REACTORS
330
C
102
}
330
C
100
AcDbDictionary
281
     1
  3
A0
350
43
  3
A1
350
44
  3
A2
350
45
  3
A3
350
46
  3
A4
350
47
  3
A5
350
48
  3
A6
350
49
  3
A7
350
4A
  3
A8
350
4B
  3
A9
350
4C
  3
B0
350
4D
  3
B1
350
4E
  3
B2
350
4F
  3
B3
350
50
  3
B4
350
51
  3
B5
350
52
  3
B6
350
53
  0
DICTIONARY
  5
68
102
{ACAD_REACTORS
330
C
102
}
330
C
100
AcDbDictionary
281
     1
  3
Imperial24
350
69
  0
DICTIONARY
  5
64
102
{ACAD_REACTORS
330
C
102
}
330
C
100
AcDbDictionary
281
     1
  3
Standard
350
65
  0
DICTIONARY
  5
29
102
{ACAD_REACTORS
330
C
102
}
330
C
100
AcDbDictionary
281
     1
  3
2dWireframe
350
2F
  3
Basic
350
2E
  3
Brighten
350
35
  3
ColorChange
350
39
  3
Conceptual
350
32
  3
Dim
350
34
  3
EdgeColorOff
350
41
  3
Facepattern
350
38
  3
Flat
350
2A
  3
FlatWithEdges
350
2B
  3
Gouraud
350
2C
  3
GouraudWithEdges
350
2D
  3
Hidden
350
31
  3
JitterOff
350
3F
  3
Linepattern
350
37
  3
OverhangOff
350
40
  3
Realistic
350
33
  3
Shaded
350
3E
  3
Shaded with edges
350
3D
  3
Shades of Gray
350
3A
  3
Sketchy
350
3B
  3
Thicken
350
36
  3
Wireframe
350
30
  3
X-Ray
350
3C
  0
XRECORD
  5
109
102
{ACAD_REACTORS
330
C
102
}
330
C
100
AcDbXrecord
280
     1
 90
        1
330
65
  0
DICTIONARY
  5
101
102
{ACAD_REACTORS
330
C
102
}
330
C
100
AcDbDictionary
281
     1
  3
CANNOSCALE
350
106
  3
CMLEADERSTYLE
350
103
  3
CTABLESTYLE
350
102
  3
CVIEWDETAILSTYLE
350
104
  3
CVIEWSECTIONSTYLE
350
105
  0
ACDBDETAILVIEWSTYLE
  5
6B
102
{ACAD_REACTORS
330
6A
102
}
330
6A
100
AcDbModelDocViewStyle
 70
     0
  3
Imperial24
290
     1
300
Imperial24
 90
        0
100
AcDbDetailViewStyle
 70
     0
 71
     0
 90
        3
 71
     1
340
55
 62
   256
 40
0.24
340
0
 62
   256
 40
0.24
300

 40
0.36
280
     3
 71
     2
340
5D
 90
       25
 62
   256
 71
     3
340
55
 62
   256
 40
0.24
 90
        1
 40
0.75
 90
        1
300
%<\AcVar ViewType \f "%tc1">% %<\AcVar ViewDetailId>%\PSCALE %<\AcVar ViewScale \f "%sn">%
 71
     4
340
5D
 90
       25
 62
   256
340
5D
 90
       25
 62
   256
280
     0
  0
LAYOUT
  5
6F
102
{ACAD_REACTORS
330
62
102
}
330
62
100
AcDbPlotSettings
  1

  2

  4

  6

 40
0.0
 41
0.0
 42
0.0
 43
0.0
 44
0.0
 45
0.0
 46
0.0
 47
0.0
 48
0.0
 49
0.0
140
0.0
141
0.0
142
1.0
143
1.0
 70
   688
 72
     0
 73
     0
 74
     5
  7

 75
    16
147
1.0
 76
     0
 77
     2
 78
   300
148
0.0
149
0.0
100
AcDbLayout
  1
Layout1
 70
     1
 71
     1
 10
0.0
 20
0.0
 11
12.0
 21
9.0
 12
0.0
 22
0.0
 32
0.0
 14
0.0
 24
0.0
 34
0.0
 15
0.0
 25
0.0
 35
0.0
146
0.0
 13
0.0
 23
0.0
 33
0.0
 16
1.0
 26
0.0
 36
0.0
 17
0.0
 27
1.0
 37
0.0
 76
     0
330
6C
  0
LAYOUT
  5
77
102
{ACAD_REACTORS
330
62
102
}
330
62
100
AcDbPlotSettings
  1

  2

  4

  6

 40
0.0
 41
0.0
 42
0.0
 43
0.0
 44
0.0
 45
0.0
 46
0.0
 47
0.0
 48
0.0
 49
0.0
140
0.0
141
0.0
142
1.0
143
1.0
 70
   688
 72
     0
 73
     0
 74
     5
  7

 75
    16
147
1.0
 76
     0
 77
     2
 78
   300
148
0.0
149
0.0
100
AcDbLayout
  1
Layout2
 70
     1
 71
     2
 10
0.0
 20
0.0
 11
12.0
 21
9.0
 12
0.0
 22
0.0
 32
0.0
 14
0.0
 24
0.0
 34
0.0
 15
0.0
 25
0.0
 35
0.0
146
0.0
 13
0.0
 23
0.0
 33
0.0
 16
1.0
 26
0.0
 36
0.0
 17
0.0
 27
1.0
 37
0.0
 76
     0
330
74
  0
LAYOUT
  5
73
102
{ACAD_REACTORS
330
62
102
}
330
62
100
AcDbPlotSettings
  1

  2

  4

  6

 40
0.0
 41
0.0
 42
0.0
 43
0.0
 44
0.0
 45
0.0
 46
0.0
 47
0.0
 48
0.0
 49
0.0
140
0.0
141
0.0
142
1.0
143
1.0
 70
  1712
 72
     0
 73
     0
 74
     0
  7

 75
     0
147
1.0
 76
     0
 77
     2
 78
   300
148
0.0
149
0.0
100
AcDbLayout
  1
Model
 70
     1
 71
     0
 10
0.0
 20
0.0
 11
12.0
 21
9.0
 12
0.0
 22
0.0
 32
0.0
 14
0.0
 24
0.0
 34
0.0
 15
0.0
 25
0.0
 35
0.0
146
0.0
 13
0.0
 23
0.0
 33
0.0
 16
1.0
 26
0.0
 36
0.0
 17
0.0
 27
1.0
 37
0.0
 76
     0
330
70
  0
MATERIAL
  5
19
102
{ACAD_XDICTIONARY
360
1A
102
}
102
{ACAD_REACTORS
330
10
102
}
330
10
100
AcDbMaterial
  1
ByBlock
 72
     0
 43
0.0208333333333333
 43
0.0
 43
0.0
 43
0.0
 43
0.0
 43
0.0208333333333333
 43
0.0
 43
0.0
 43
0.0
 43
0.0
 43
1.0
 43
0.0
 43
0.0
 43
0.0
 43
0.0
 43
1.0
 77
     0
 47
0.0208333333333333
 47
0.0
 47
0.0
 47
0.0
 47
0.0
 47
0.0208333333333333
 47
0.0
 47
0.0
 47
0.0
 47
0.0
 47
1.0
 47
0.0
 47
0.0
 47
0.0
 47
0.0
 47
1.0
171
     0
 49
0.0208333333333333
 49
0.0
 49
0.0
 49
0.0
 49
0.0
 49
0.0208333333333333
 49
0.0
 49
0.0
 49
0.0
 49
0.0
 49
1.0
 49
0.0
 49
0.0
 49
0.0
 49
0.0
 49
1.0
175
     0
142
0.0208333333333333
142
0.0
142
0.0
142
0.0
142
0.0
142
0.0208333333333333
142
0.0
142
0.0
142
0.0
142
0.0
142
1.0
142
0.0
142
0.0
142
0.0
142
0.0
142
1.0
179
     0
144
0.0208333333333333
144
0.0
144
0.0
144
0.0
144
0.0
144
0.0208333333333333
144
0.0
144
0.0
144
0.0
144
0.0
144
1.0
144
0.0
144
0.0
144
0.0
144
0.0
144
1.0
147
0.0208333333333333
147
0.0
147
0.0
147
0.0
147
0.0
147
0.0208333333333333
147
0.0
147
0.0
147
0.0
147
0.0
147
1.0
147
0.0
147
0.0
147
0.0
147
0.0
147
1.0
  0
MATERIAL
  5
11
102
{ACAD_XDICTIONARY
360
12
102
}
102
{ACAD_REACTORS
330
10
102
}
330
10
100
AcDbMaterial
  1
ByLayer
 72
     0
 43
0.0208333333333333
 43
0.0
 43
0.0
 43
0.0
 43
0.0
 43
0.0208333333333333
 43
0.0
 43
0.0
 43
0.0
 43
0.0
 43
1.0
 43
0.0
 43
0.0
 43
0.0
 43
0.0
 43
1.0
 77
     0
 47
0.0208333333333333
 47
0.0
 47
0.0
 47
0.0
 47
0.0
 47
0.0208333333333333
 47
0.0
 47
0.0
 47
0.0
 47
0.0
 47
1.0
 47
0.0
 47
0.0
 47
0.0
 47
0.0
 47
1.0
171
     0
 49
0.0208333333333333
 49
0.0
 49
0.0
 49
0.0
 49
0.0
 49
0.0208333333333333
 49
0.0
 49
0.0
 49
0.0
 49
0.0
 49
1.0
 49
0.0
 49
0.0
 49
0.0
 49
0.0
 49
1.0
175
     0
142
0.0208333333333333
142
0.0
142
0.0
142
0.0
142
0.0
142
0.0208333333333333
142
0.0
142
0.0
142
0.0
142
0.0
142
1.0
142
0.0
142
0.0
142
0.0
142
0.0
142
1.0
179
     0
144
0.0208333333333333
144
0.0
144
0.0
144
0.0
144
0.0
144
0.0208333333333333
144
0.0
144
0.0
144
0.0
144
0.0
144
1.0
144
0.0
144
0.0
144
0.0
144
0.0
144
1.0
147
0.0208333333333333
147
0.0
147
0.0
147
0.0
147
0.0
147
0.0208333333333333
147
0.0
147
0.0
147
0.0
147
0.0
147
1.0
147
0.0
147
0.0
147
0.0
147
0.0
147
1.0
  0
MATERIAL
  5
21
102
{ACAD_XDICTIONARY
360
22
102
}
102
{ACAD_REACTORS
330
10
102
}
330
10
100
AcDbMaterial
  1
Global
 72
     0
 43
0.0208333333333333
 43
0.0
 43
0.0
 43
0.0
 43
0.0
 43
0.0208333333333333
 43
0.0
 43
0.0
 43
0.0
 43
0.0
 43
1.0
 43
0.0
 43
0.0
 43
0.0
 43
0.0
 43
1.0
 77
     0
 47
0.0208333333333333
 47
0.0
 47
0.0
 47
0.0
 47
0.0
 47
0.0208333333333333
 47
0.0
 47
0.0
 47
0.0
 47
0.0
 47
1.0
 47
0.0
 47
0.0
 47
0.0
 47
0.0
 47
1.0
171
     0
 49
0.0208333333333333
 49
0.0
 49
0.0
 49
0.0
 49
0.0
 49
0.0208333333333333
 49
0.0
 49
0.0
 49
0.0
 49
0.0
 49
1.0
 49
0.0
 49
0.0
 49
0.0
 49
0.0
 49
1.0
175
     0
142
0.0208333333333333
142
0.0
142
0.0
142
0.0
142
0.0
142
0.0208333333333333
142
0.0
142
0.0
142
0.0
142
0.0
142
1.0
142
0.0
142
0.0
142
0.0
142
0.0
142
1.0
179
     0
144
0.0208333333333333
144
0.0
144
0.0
144
0.0
144
0.0
144
0.0208333333333333
144
0.0
144
0.0
144
0.0
144
0.0
144
1.0
144
0.0
144
0.0
144
0.0
144
0.0
144
1.0
147
0.0208333333333333
147
0.0
147
0.0
147
0.0
147
0.0
147
0.0208333333333333
147
0.0
147
0.0
147
0.0
147
0.0
147
1.0
147
0.0
147
0.0
147
0.0
147
0.0
147
1.0
  0
MLEADERSTYLE
  5
67
102
{ACAD_REACTORS
330
66
102
}
330
66
100
AcDbMLeaderStyle
179
     2
170
     2
171
     1
172
     0
 90
        2
 40
0.0
 41
0.0
173
     1
 91
-1056964608
340
5B
 92
       -2
290
     1
 42
0.09
291
     1
 43
0.36
  3
Standard
 44
0.18
300

342
55
174
     1
178
     6
175
     1
176
     0
 93
-1056964608
 45
0.18
292
     0
297
     0
 46
0.18
 94
-1056964608
 47
1.0
 49
1.0
140
1.0
293
     1
141
0.0
294
     1
177
     0
142
1.0
295
     1
296
     0
143
0.125
271
     0
272
     9
273
     9
298
     1
  0
MLINESTYLE
  5
60
102
{ACAD_REACTORS
330
5F
102
}
330
5F
100
AcDbMlineStyle
  2
STANDARD
 70
     0
  3

 62
   256
 51
90.0
 52
90.0
 71
     2
 49
0.5
 62
   256
  6
BYLAYER
 49
-0.5
 62
   256
  6
BYLAYER
  0
ACDBPLACEHOLDER
  5
F
102
{ACAD_REACTORS
330
E
102
}
330
E
  0
SCALE
  5
43
102
{ACAD_REACTORS
330
42
102
}
330
42
100
AcDbScale
 70
     0
300
1:1
140
1.0
141
1.0
290
     1
  0
SCALE
  5
44
102
{ACAD_REACTORS
330
42
102
}
330
42
100
AcDbScale
 70
     0
300
1/128" = 1'-0"
140
0.0078125
141
12.0
290
     0
  0
SCALE
  5
45
102
{ACAD_REACTORS
330
42
102
}
330
42
100
AcDbScale
 70
     0
300
1/64" = 1'-0"
140
0.015625
141
12.0
290
     0
  0
SCALE
  5
46
102
{ACAD_REACTORS
330
42
102
}
330
42
100
AcDbScale
 70
     0
300
1/32" = 1'-0"
140
0.03125
141
12.0
290
     0
  0
SCALE
  5
47
102
{ACAD_REACTORS
330
42
102
}
330
42
100
AcDbScale
 70
     0
300
1/16" = 1'-0"
140
0.0625
141
12.0
290
     0
  0
SCALE
  5
48
102
{ACAD_REACTORS
330
42
102
}
330
42
100
AcDbScale
 70
     0
300
3/32" = 1'-0"
140
0.09375
141
12.0
290
     0
  0
SCALE
  5
49
102
{ACAD_REACTORS
330
42
102
}
330
42
100
AcDbScale
 70
     0
300
1/8" = 1'-0"
140
0.125
141
12.0
290
     0
  0
SCALE
  5
4A
102
{ACAD_REACTORS
330
42
102
}
330
42
100
AcDbScale
 70
     0
300
3/16" = 1'-0"
140
0.1875
141
12.0
290
     0
  0
SCALE
  5
4B
102
{ACAD_REACTORS
330
42
102
}
330
42
100
AcDbScale
 70
     0
300
1/4" = 1'-0"
140
0.25
141
12.0
290
     0
  0
SCALE
  5
4C
102
{ACAD_REACTORS
330
42
102
}
330
42
100
AcDbScale
 70
     0
300
3/8" = 1'-0"
140
0.375
141
12.0
290
     0
  0
SCALE
  5
4D
102
{ACAD_REACTORS
330
42
102
}
330
42
100
AcDbScale
 70
     0
300
1/2" = 1'-0"
140
0.5
141
12.0
290
     0
  0
SCALE
  5
4E
102
{ACAD_REACTORS
330
42
102
}
330
42
100
AcDbScale
 70
     0
300
3/4" = 1'-0"
140
0.75
141
12.0
290
     0
  0
SCALE
  5
4F
102
{ACAD_REACTORS
330
42
102
}
330
42
100
AcDbScale
 70
     0
300
1" = 1'-0"
140
1.0
141
12.0
290
     0
  0
SCALE
  5
50
102
{ACAD_REACTORS
330
42
102
}
330
42
100
AcDbScale
 70
     0
300
1-1/2" = 1'-0"
140
1.5
141
12.0
290
     0
  0
SCALE
  5
51
102
{ACAD_REACTORS
330
42
102
}
330
42
100
AcDbScale
 70
     0
300
3" = 1'-0"
140
3.0
141
12.0
290
     0
  0
SCALE
  5
52
102
{ACAD_REACTORS
330
42
102
}
330
42
100
AcDbScale
 70
     0
300
6" = 1'-0"
140
6.0
141
12.0
290
     0
  0
SCALE
  5
53
102
{ACAD_REACTORS
330
42
102
}
330
42
100
AcDbScale
 70
     0
300
1'-0" = 1'-0"
140
12.0
141
12.0
290
     0
  0
ACDBSECTIONVIEWSTYLE
  5
69
102
{ACAD_REACTORS
330
68
102
}
330
68
100
AcDbModelDocViewStyle
 70
     0
  3
Imperial24
290
     1
300
Imperial24
 90
        0
100
AcDbSectionViewStyle
 70
     0
 71
     0
 90
       78
 71
     1
340
55
 62
   256
 40
0.24
340
0
340
0
 62
   256
 40
0.24
300
I, O, Q, S, X, Z
 40
0.48
 90
        3
 40
0.18
 90
        1
 71
     2
340
5D
 90
       25
 62
   256
340
5D
 90
       50
 62
   256
 40
0.24
 40
0.0
 40
0.24
 71
     3
340
55
 62
   256
 40
0.24
 90
        1
 40
0.75
 90
        1
300
%<\AcVar ViewType \f "%tc1">% %<\AcVar ViewSectionStartId>%-%<\AcVar ViewSectionEndId>%\PSCALE %<\AcVar ViewScale \f "%sn">%
 71
     4
 62
   256
 62
   257
300
ANSI31
 40
1.0
 90
        0
290
     0
290
     0
 90
        6
 40
0.0
 40
1.570796326794896
 40
0.2617993877991494
 40
1.308996938995747
 40
-0.2617993877991494
 40
1.832595714594046
  0
TABLESTYLE
  5
65
102
{ACAD_XDICTIONARY
360
107
102
}
102
{ACAD_REACTORS
330
64
102
}
330
64
100
AcDbTableStyle
280
     0
  3
Standard
 70
     0
 71
     0
 40
0.06
 41
0.06
280
     0
281
     0
  7
Standard
140
0.18
170
     2
 62
     0
 63
     7
283
     0
 90
      512
 91
        0
  1

274
    -2
284
     1
 64
     0
275
    -2
285
     1
 65
     0
276
    -2
286
     1
 66
     0
277
    -2
287
     1
 67
     0
278
    -2
288
     1
 68
     0
279
    -2
289
     1
 69
     0
  7
Standard
140
0.25
170
     5
 62
     0
 63
     7
283
     0
 90
      512
 91
        0
  1

274
    -2
284
     1
 64
     0
275
    -2
285
     1
 65
     0
276
    -2
286
     1
 66
     0
277
    -2
287
     1
 67
     0
278
    -2
288
     1
 68
     0
279
    -2
289
     1
 69
     0
  7
Standard
140
0.18
170
     5
 62
     0
 63
     7
283
     0
 90
      512
 91
        0
  1

274
    -2
284
     1
 64
     0
275
    -2
285
     1
 65
     0
276
    -2
286
     1
 66
     0
277
    -2
287
     1
 67
     0
278
    -2
288
     1
 68
     0
279
    -2
289
     1
 69
     0
  0
VISUALSTYLE
  5
2F
102
{ACAD_REACTORS
330
29
102
}
330
29
100
AcDbVisualStyle
  2
2dWireframe
 70
     4
177
     3
291
     0
 70
    58
 90
        0
176
     1
 90
        2
176
     1
 90
        0
176
     1
 90
        0
176
     1
 40
0.6
176
     1
 40
30.0
176
     1
 62
     7
420
 16777215
176
     1
 90
        1
176
     1
 90
        4
176
     1
 62
     7
176
     1
 62
   257
176
     1
 90
        1
176
     1
 90
        1
176
     1
 40
1.0
176
     1
 90
        0
176
     1
 62
   257
176
     1
 40
1.0
176
     1
 90
        1
176
     1
 90
        6
176
     1
 90
        2
176
     1
 62
     7
176
     1
 90
        5
176
     1
 90
        0
176
     1
 90
        0
176
     1
290
     0
176
     1
 90
        1
176
     1
 40
0.0
176
     1
 90
        0
176
     1
290
     1
176
     1
290
     1
176
     1
290
     0
176
     1
290
     0
176
     1
290
     0
176
     1
290
     0
176
     1
290
     0
176
     1
290
     0
176
     1
290
     0
176
     1
 90
       50
176
     1
 40
0.0
176
     1
 40
1.0
176
     1
 90
        0
176
     1
 62
    18
420
        0
176
     1
 90
       50
176
     1
 90
        3
176
     1
 62
     5
420
      255
176
     1
290
     0
176
     1
 90
       50
176
     1
 90
       50
176
     1
 90
       50
176
     1
290
     0
176
     1
 90
       50
176
     1
 62
   256
176
     0
 40
1.0
176
     0
 90
        2
176
     1
  1
strokes_ogs.tif
176
     1
290
     0
176
     1
 40
1.0
176
     1
 40
1.0
176
     1
  0
VISUALSTYLE
  5
2E
102
{ACAD_REACTORS
330
29
102
}
330
29
100
AcDbVisualStyle
  2
Basic
 70
     7
177
     3
291
     1
 70
    58
 90
        1
176
     1
 90
        0
176
     1
 90
        1
176
     1
 90
        0
176
     1
 40
0.6
176
     1
 40
30.0
176
     1
 62
     7
420
 16777215
176
     1
 90
        0
176
     1
 90
        4
176
     1
 62
     7
176
     1
 62
   257
176
     1
 90
        1
176
     1
 90
        1
176
     1
 40
1.0
176
     1
 90
        8
176
     1
 62
     7
176
     1
 40
1.0
176
     1
 90
        1
176
     1
 90
        6
176
     1
 90
        2
176
     1
 62
     7
176
     1
 90
        5
176
     1
 90
        0
176
     1
 90
        0
176
     1
290
     0
176
     1
 90
        1
176
     1
 40
0.0
176
     1
 90
        0
176
     1
290
     0
176
     1
290
     1
176
     1
290
     1
176
     1
290
     0
176
     1
290
     0
176
     1
290
     0
176
     1
290
     0
176
     1
290
     0
176
     1
290
     0
176
     1
 90
       50
176
     1
 40
0.0
176
     1
 40
1.0
176
     1
 90
        0
176
     1
 62
    18
420
        0
176
     1
 90
       50
176
     1
 90
        3
176
     1
 62
     5
420
      255
176
     1
290
     0
176
     1
 90
       50
176
     1
 90
       50
176
     1
 90
       50
176
     1
290
     0
176
     1
 90
       50
176
     1
 62
   256
176
     0
 40
1.0
176
     0
 90
        2
176
     1
  1
strokes_ogs.tif
176
     1
290
     0
176
     1
 40
1.0
176
     1
 40
1.0
176
     1
  0
VISUALSTYLE
  5
35
102
{ACAD_REACTORS
330
29
102
}
330
29
100
AcDbVisualStyle
  2
Brighten
 70
    12
177
     3
291
     1
 70
    58
 90
        2
176
     1
 90
        2
176
     1
 90
        0
176
     1
 90
        0
176
     1
 40
0.6
176
     1
 40
30.0
176
     1
 62
     7
420
 16777215
176
     1
 90
        1
176
     1
 90
        4
176
     1
 62
     7
176
     1
 62
   257
176
     1
 90
        1
176
     1
 90
        1
176
     1
 40
1.0
176
     1
 90
        8
176
     1
 62
     7
176
     1
 40
1.0
176
     1
 90
        1
176
     1
 90
        6
176
     1
 90
        2
176
     1
 62
     7
176
     1
 90
        5
176
     1
 90
        0
176
     1
 90
        0
176
     1
290
     0
176
     1
 90
        1
176
     1
 40
50.0
176
     1
 90
        0
176
     1
290
     0
176
     1
290
     1
176
     1
290
     1
176
     1
290
     0
176
     1
290
     0
176
     1
290
     0
176
     1
290
     0
176
     1
290
     0
176
     1
290
     0
176
     1
 90
       50
176
     1
 40
0.0
176
     1
 40
1.0
176
     1
 90
        0
176
     1
 62
    18
420
        0
176
     1
 90
       50
176
     1
 90
        3
176
     1
 62
     5
420
      255
176
     1
290
     0
176
     1
 90
       50
176
     1
 90
       50
176
     1
 90
       50
176
     1
290
     0
176
     1
 90
       50
176
     1
 62
   256
176
     0
 40
1.0
176
     0
 90
        2
176
     1
  1
strokes_ogs.tif
176
     1
290
     0
176
     1
 40
1.0
176
     1
 40
1.0
176
     1
  0
VISUALSTYLE
  5
39
102
{ACAD_REACTORS
330
29
102
}
330
29
100
AcDbVisualStyle
  2
ColorChange
 70
    16
177
     3
291
     1
 70
    58
 90
        2
176
     1
 90
        2
176
     1
 90
        3
176
     1
 90
        0
176
     1
 40
0.6
176
     1
 40
30.0
176
     1
 62
     8
420
  8421504
176
     1
 90
        1
176
     1
 90
        4
176
     1
 62
     7
176
     1
 62
   257
176
     1
 90
        1
176
     1
 90
        1
176
     1
 40
1.0
176
     1
 90
        8
176
     1
 62
     8
420
  8421504
176
     1
 40
1.0
176
     1
 90
        1
176
     1
 90
        6
176
     1
 90
        2
176
     1
 62
     7
176
     1
 90
        5
176
     1
 90
        0
176
     1
 90
        0
176
     1
290
     0
176
     1
 90
        1
176
     1
 40
0.0
176
     1
 90
        0
176
     1
290
     0
176
     1
290
     1
176
     1
290
     1
176
     1
290
     0
176
     1
290
     0
176
     1
290
     0
176
     1
290
     0
176
     1
290
     0
176
     1
290
     0
176
     1
 90
       50
176
     1
 40
0.0
176
     1
 40
1.0
176
     1
 90
        0
176
     1
 62
    18
420
        0
176
     1
 90
       50
176
     1
 90
        3
176
     1
 62
     5
420
      255
176
     1
290
     0
176
     1
 90
       50
176
     1
 90
       50
176
     1
 90
       50
176
     1
290
     0
176
     1
 90
       50
176
     1
 62
   256
176
     0
 40
1.0
176
     0
 90
        2
176
     1
  1
strokes_ogs.tif
176
     1
290
     0
176
     1
 40
1.0
176
     1
 40
1.0
176
     1
  0
VISUALSTYLE
  5
32
102
{ACAD_REACTORS
330
29
102
}
330
29
100
AcDbVisualStyle
  2
Conceptual
 70
     9
177
     3
291
     0
 70
    58
 90
        3
176
     1
 90
        2
176
     1
 90
        0
176
     1
 90
        0
176
     1
 40
0.6
176
     1
 40
30.0
176
     1
 62
     7
420
 16777215
176
     1
 90
        2
176
     1
 90
        2
176
     1
 62
     7
176
     1
 62
   257
176
     1
 90
        1
176
     1
 90
        1
176
     1
 40
179.0
176
     1
 90
        8
176
     1
 62
     7
176
     1
 40
1.0
176
     1
 90
        1
176
     1
 90
        6
176
     1
 90
        2
176
     1
 62
     7
176
     1
 90
        3
176
     1
 90
        0
176
     1
 90
        0
176
     1
290
     0
176
     1
 90
        1
176
     1
 40
0.0
176
     1
 90
        0
176
     1
290
     0
176
     1
290
     1
176
     1
290
     1
176
     1
290
     0
176
     1
290
     0
176
     1
290
     0
176
     1
290
     0
176
     1
290
     0
176
     1
290
     0
176
     1
 90
       50
176
     1
 40
0.0
176
     1
 40
1.0
176
     1
 90
        0
176
     1
 62
    18
420
        0
176
     1
 90
       50
176
     1
 90
        3
176
     1
 62
     5
420
      255
176
     1
290
     0
176
     1
 90
       50
176
     1
 90
       50
176
     1
 90
       50
176
     1
290
     0
176
     1
 90
       50
176
     1
 62
   256
176
     0
 40
1.0
176
     0
 90
        2
176
     1
  1
strokes_ogs.tif
176
     1
290
     0
176
     1
 40
1.0
176
     1
 40
1.0
176
     1
  0
VISUALSTYLE
  5
34
102
{ACAD_REACTORS
330
29
102
}
330
29
100
AcDbVisualStyle
  2
Dim
 70
    11
177
     3
291
     1
 70
    58
 90
        2
176
     1
 90
        2
176
     1
 90
        0
176
     1
 90
        0
176
     1
 40
0.6
176
     1
 40
30.0
176
     1
 62
     7
420
 16777215
176
     1
 90
        1
176
     1
 90
        4
176
     1
 62
     7
176
     1
 62
   257
176
     1
 90
        1
176
     1
 90
        1
176
     1
 40
1.0
176
     1
 90
        8
176
     1
 62
     7
176
     1
 40
1.0
176
     1
 90
        1
176
     1
 90
        6
176
     1
 90
        2
176
     1
 62
     7
176
     1
 90
        5
176
     1
 90
        0
176
     1
 90
        0
176
     1
290
     0
176
     1
 90
        1
176
     1
 40
-50.0
176
     1
 90
        0
176
     1
290
     0
176
     1
290
     1
176
     1
290
     1
176
     1
290
     0
176
     1
290
     0
176
     1
290
     0
176
     1
290
     0
176
     1
290
     0
176
     1
290
     0
176
     1
 90
       50
176
     1
 40
0.0
176
     1
 40
1.0
176
     1
 90
        0
176
     1
 62
    18
420
        0
176
     1
 90
       50
176
     1
 90
        3
176
     1
 62
     5
420
      255
176
     1
290
     0
176
     1
 90
       50
176
     1
 90
       50
176
     1
 90
       50
176
     1
290
     0
176
     1
 90
       50
176
     1
 62
   256
176
     0
 40
1.0
176
     0
 90
        2
176
     1
  1
strokes_ogs.tif
176
     1
290
     0
176
     1
 40
1.0
176
     1
 40
1.0
176
     1
  0
VISUALSTYLE
  5
41
102
{ACAD_REACTORS
330
29
102
}
330
29
100
AcDbVisualStyle
  2
EdgeColorOff
 70
    22
177
     3
291
     1
 70
    58
 90
        2
176
     0
 90
        2
176
     0
 90
        0
176
     0
 90
        0
176
     0
 40
0.6
176
     0
 40
30.0
176
     0
 62
     7
420
 16777215
176
     0
 90
        1
176
     0
 90
        4
176
     0
 62
     7
176
     0
 62
   257
176
     0
 90
        1
176
     0
 90
        1
176
     0
 40
1.0
176
     0
 90
        8
176
     2
 62
     7
176
     0
 40
1.0
176
     0
 90
        1
176
     0
 90
        6
176
     0
 90
        2
176
     0
 62
     7
176
     0
 90
        5
176
     0
 90
        0
176
     0
 90
        0
176
     0
290
     0
176
     0
 90
        1
176
     0
 40
0.0
176
     0
 90
        0
176
     0
290
     0
176
     0
290
     1
176
     0
290
     1
176
     0
290
     0
176
     0
290
     0
176
     0
290
     0
176
     0
290
     0
176
     0
290
     0
176
     0
290
     0
176
     0
 90
       50
176
     0
 40
0.0
176
     0
 40
1.0
176
     0
 90
        0
176
     0
 62
    18
420
        0
176
     0
 90
       50
176
     0
 90
        3
176
     0
 62
     5
420
      255
176
     0
290
     0
176
     0
 90
       50
176
     0
 90
       50
176
     0
 90
       50
176
     0
290
     0
176
     0
 90
       50
176
     0
 62
   256
176
     0
 40
1.0
176
     0
 90
        2
176
     0
  1
strokes_ogs.tif
176
     0
290
     0
176
     0
 40
1.0
176
     0
 40
1.0
176
     0
  0
VISUALSTYLE
  5
38
102
{ACAD_REACTORS
330
29
102
}
330
29
100
AcDbVisualStyle
  2
Facepattern
 70
    15
177
     3
291
     1
 70
    58
 90
        2
176
     1
 90
        2
176
     1
 90
        0
176
     1
 90
        0
176
     1
 40
0.6
176
     1
 40
30.0
176
     1
 62
     7
420
 16777215
176
     1
 90
        1
176
     1
 90
        4
176
     1
 62
     7
176
     1
 62
   257
176
     1
 90
        1
176
     1
 90
        1
176
     1
 40
1.0
176
     1
 90
        8
176
     1
 62
     7
176
     1
 40
1.0
176
     1
 90
        1
176
     1
 90
        6
176
     1
 90
        2
176
     1
 62
     7
176
     1
 90
        5
176
     1
 90
        0
176
     1
 90
        0
176
     1
290
     0
176
     1
 90
        1
176
     1
 40
0.0
176
     1
 90
        0
176
     1
290
     0
176
     1
290
     1
176
     1
290
     1
176
     1
290
     0
176
     1
290
     0
176
     1
290
     0
176
     1
290
     0
176
     1
290
     0
176
     1
290
     0
176
     1
 90
       50
176
     1
 40
0.0
176
     1
 40
1.0
176
     1
 90
        0
176
     1
 62
    18
420
        0
176
     1
 90
       50
176
     1
 90
        3
176
     1
 62
     5
420
      255
176
     1
290
     0
176
     1
 90
       50
176
     1
 90
       50
176
     1
 90
       50
176
     1
290
     0
176
     1
 90
       50
176
     1
 62
   256
176
     0
 40
1.0
176
     0
 90
        2
176
     1
  1
strokes_ogs.tif
176
     1
290
     0
176
     1
 40
1.0
176
     1
 40
1.0
176
     1
  0
VISUALSTYLE
  5
2A
102
{ACAD_REACTORS
330
29
102
}
330
29
100
AcDbVisualStyle
  2
Flat
 70
     0
177
     3
291
     1
 70
    58
 90
        2
176
     1
 90
        1
176
     1
 90
        1
176
     1
 90
        2
176
     1
 40
0.6
176
     1
 40
30.0
176
     1
 62
     7
420
 16777215
176
     1
 90
        0
176
     1
 90
        0
176
     1
 62
     7
176
     1
 62
   257
176
     1
 90
        1
176
     1
 90
        1
176
     1
 40
1.0
176
     1
 90
        8
176
     1
 62
     7
176
     1
 40
1.0
176
     1
 90
        1
176
     1
 90
        6
176
     1
 90
        2
176
     1
 62
     7
176
     1
 90
        5
176
     1
 90
        0
176
     1
 90
        0
176
     1
290
     0
176
     1
 90
       13
176
     1
 40
0.0
176
     1
 90
        0
176
     1
290
     0
176
     1
290
     1
176
     1
290
     1
176
     1
290
     0
176
     1
290
     0
176
     1
290
     0
176
     1
290
     0
176
     1
290
     0
176
     1
290
     0
176
     1
 90
       50
176
     1
 40
0.0
176
     1
 40
1.0
176
     1
 90
        0
176
     1
 62
    18
420
        0
176
     1
 90
       50
176
     1
 90
        3
176
     1
 62
     5
420
      255
176
     1
290
     0
176
     1
 90
       50
176
     1
 90
       50
176
     1
 90
       50
176
     1
290
     0
176
     1
 90
       50
176
     1
 62
   256
176
     0
 40
1.0
176
     0
 90
        2
176
     1
  1
strokes_ogs.tif
176
     1
290
     0
176
     1
 40
1.0
176
     1
 40
1.0
176
     1
  0
VISUALSTYLE
  5
2B
102
{ACAD_REACTORS
330
29
102
}
330
29
100
AcDbVisualStyle
  2
FlatWithEdges
 70
     1
177
     3
291
     1
 70
    58
 90
        2
176
     1
 90
        1
176
     1
 90
        1
176
     1
 90
        2
176
     1
 40
0.6
176
     1
 40
30.0
176
     1
 62
     7
420
 16777215
176
     1
 90
        1
176
     1
 90
        0
176
     1
 62
     7
176
     1
 62
   257
176
     1
 90
        1
176
     1
 90
        1
176
     1
 40
1.0
176
     1
 90
        0
176
     1
 62
   257
176
     1
 40
1.0
176
     1
 90
        1
176
     1
 90
        6
176
     1
 90
        2
176
     1
 62
     7
176
     1
 90
        5
176
     1
 90
        0
176
     1
 90
        0
176
     1
290
     0
176
     1
 90
       13
176
     1
 40
0.0
176
     1
 90
        0
176
     1
290
     0
176
     1
290
     1
176
     1
290
     1
176
     1
290
     0
176
     1
290
     0
176
     1
290
     0
176
     1
290
     0
176
     1
290
     0
176
     1
290
     0
176
     1
 90
       50
176
     1
 40
0.0
176
     1
 40
1.0
176
     1
 90
        0
176
     1
 62
    18
420
        0
176
     1
 90
       50
176
     1
 90
        3
176
     1
 62
     5
420
      255
176
     1
290
     0
176
     1
 90
       50
176
     1
 90
       50
176
     1
 90
       50
176
     1
290
     0
176
     1
 90
       50
176
     1
 62
   256
176
     0
 40
1.0
176
     0
 90
        2
176
     1
  1
strokes_ogs.tif
176
     1
290
     0
176
     1
 40
1.0
176
     1
 40
1.0
176
     1
  0
VISUALSTYLE
  5
2C
102
{ACAD_REACTORS
330
29
102
}
330
29
100
AcDbVisualStyle
  2
Gouraud
 70
     2
177
     3
291
     1
 70
    58
 90
        2
176
     1
 90
        2
176
     1
 90
        1
176
     1
 90
        2
176
     1
 40
0.6
176
     1
 40
30.0
176
     1
 62
     7
420
 16777215
176
     1
 90
        0
176
     1
 90
        0
176
     1
 62
     7
176
     1
 62
   257
176
     1
 90
        1
176
     1
 90
        1
176
     1
 40
1.0
176
     1
 90
        0
176
     1
 62
     7
176
     1
 40
1.0
176
     1
 90
        1
176
     1
 90
        6
176
     1
 90
        2
176
     1
 62
     7
176
     1
 90
        5
176
     1
 90
        0
176
     1
 90
        0
176
     1
290
     0
176
     1
 90
       13
176
     1
 40
0.0
176
     1
 90
        0
176
     1
290
     0
176
     1
290
     1
176
     1
290
     1
176
     1
290
     0
176
     1
290
     0
176
     1
290
     0
176
     1
290
     0
176
     1
290
     0
176
     1
290
     0
176
     1
 90
       50
176
     1
 40
0.0
176
     1
 40
1.0
176
     1
 90
        0
176
     1
 62
    18
420
        0
176
     1
 90
       50
176
     1
 90
        3
176
     1
 62
     5
420
      255
176
     1
290
     0
176
     1
 90
       50
176
     1
 90
       50
176
     1
 90
       50
176
     1
290
     0
176
     1
 90
       50
176
     1
 62
   256
176
     0
 40
1.0
176
     0
 90
        2
176
     1
  1
strokes_ogs.tif
176
     1
290
     0
176
     1
 40
1.0
176
     1
 40
1.0
176
     1
  0
VISUALSTYLE
  5
2D
102
{ACAD_REACTORS
330
29
102
}
330
29
100
AcDbVisualStyle
  2
GouraudWithEdges
 70
     3
177
     3
291
     1
 70
    58
 90
        2
176
     1
 90
        2
176
     1
 90
        1
176
     1
 90
        2
176
     1
 40
0.6
176
     1
 40
30.0
176
     1
 62
     7
420
 16777215
176
     1
 90
        1
176
     1
 90
        0
176
     1
 62
     7
176
     1
 62
   257
176
     1
 90
        1
176
     1
 90
        1
176
     1
 40
1.0
176
     1
 90
        0
176
     1
 62
   257
176
     1
 40
1.0
176
     1
 90
        1
176
     1
 90
        6
176
     1
 90
        2
176
     1
 62
     7
176
     1
 90
        5
176
     1
 90
        0
176
     1
 90
        0
176
     1
290
     0
176
     1
 90
       13
176
     1
 40
0.0
176
     1
 90
        0
176
     1
290
     0
176
     1
290
     1
176
     1
290
     1
176
     1
290
     0
176
     1
290
     0
176
     1
290
     0
176
     1
290
     0
176
     1
290
     0
176
     1
290
     0
176
     1
 90
       50
176
     1
 40
0.0
176
     1
 40
1.0
176
     1
 90
        0
176
     1
 62
    18
420
        0
176
     1
 90
       50
176
     1
 90
        3
176
     1
 62
     5
420
      255
176
     1
290
     0
176
     1
 90
       50
176
     1
 90
       50
176
     1
 90
       50
176
     1
290
     0
176
     1
 90
       50
176
     1
 62
   256
176
     0
 40
1.0
176
     0
 90
        2
176
     1
  1
strokes_ogs.tif
176
     1
290
     0
176
     1
 40
1.0
176
     1
 40
1.0
176
     1
  0
VISUALSTYLE
  5
31
102
{ACAD_REACTORS
330
29
102
}
330
29
100
AcDbVisualStyle
  2
Hidden
 70
     6
177
     3
291
     0
 70
    58
 90
        1
176
     1
 90
        2
176
     1
 90
        2
176
     1
 90
        0
176
     1
 40
0.6
176
     1
 40
30.0
176
     1
 62
     7
420
 16777215
176
     1
 90
        2
176
     1
 90
        2
176
     1
 62
     7
176
     1
 62
   257
176
     1
 90
        2
176
     1
 90
        1
176
     1
 40
40.0
176
     1
 90
        0
176
     1
 62
   257
176
     1
 40
1.0
176
     1
 90
        1
176
     1
 90
        6
176
     1
 90
        2
176
     1
 62
     7
176
     1
 90
        3
176
     1
 90
        0
176
     1
 90
        0
176
     1
290
     0
176
     1
 90
        1
176
     1
 40
0.0
176
     1
 90
        0
176
     1
290
     0
176
     1
290
     1
176
     1
290
     1
176
     1
290
     0
176
     1
290
     0
176
     1
290
     0
176
     1
290
     0
176
     1
290
     0
176
     1
290
     0
176
     1
 90
       50
176
     1
 40
0.0
176
     1
 40
1.0
176
     1
 90
        0
176
     1
 62
    18
420
        0
176
     1
 90
       50
176
     1
 90
        3
176
     1
 62
     5
420
      255
176
     1
290
     0
176
     1
 90
       50
176
     1
 90
       50
176
     1
 90
       50
176
     1
290
     0
176
     1
 90
       50
176
     1
 62
   256
176
     0
 40
1.0
176
     0
 90
        2
176
     1
  1
strokes_ogs.tif
176
     1
290
     0
176
     1
 40
1.0
176
     1
 40
1.0
176
     1
  0
VISUALSTYLE
  5
3F
102
{ACAD_REACTORS
330
29
102
}
330
29
100
AcDbVisualStyle
  2
JitterOff
 70
    20
177
     3
291
     1
 70
    58
 90
        2
176
     0
 90
        2
176
     0
 90
        0
176
     0
 90
        0
176
     0
 40
0.6
176
     0
 40
30.0
176
     0
 62
     7
420
 16777215
176
     0
 90
        1
176
     0
 90
        4
176
     0
 62
     7
176
     0
 62
   257
176
     0
 90
        1
176
     0
 90
        1
176
     0
 40
1.0
176
     0
 90
       10
176
     2
 62
     7
176
     0
 40
1.0
176
     0
 90
        1
176
     0
 90
        6
176
     0
 90
        2
176
     0
 62
     7
176
     0
 90
        5
176
     0
 90
        0
176
     0
 90
        0
176
     0
290
     0
176
     0
 90
        1
176
     0
 40
0.0
176
     0
 90
        0
176
     0
290
     0
176
     0
290
     1
176
     0
290
     1
176
     0
290
     0
176
     0
290
     0
176
     0
290
     0
176
     0
290
     0
176
     0
290
     0
176
     0
290
     0
176
     0
 90
       50
176
     0
 40
0.0
176
     0
 40
1.0
176
     0
 90
        0
176
     0
 62
    18
420
        0
176
     0
 90
       50
176
     0
 90
        3
176
     0
 62
     5
420
      255
176
     0
290
     0
176
     0
 90
       50
176
     0
 90
       50
176
     0
 90
       50
176
     0
290
     0
176
     0
 90
       50
176
     0
 62
   256
176
     0
 40
1.0
176
     0
 90
        2
176
     0
  1
strokes_ogs.tif
176
     0
290
     0
176
     0
 40
1.0
176
     0
 40
1.0
176
     0
  0
VISUALSTYLE
  5
37
102
{ACAD_REACTORS
330
29
102
}
330
29
100
AcDbVisualStyle
  2
Linepattern
 70
    14
177
     3
291
     1
 70
    58
 90
        2
176
     1
 90
        2
176
     1
 90
        0
176
     1
 90
        0
176
     1
 40
0.6
176
     1
 40
30.0
176
     1
 62
     7
420
 16777215
176
     1
 90
        1
176
     1
 90
        4
176
     1
 62
     7
176
     1
 62
   257
176
     1
 90
        7
176
     1
 90
        7
176
     1
 40
1.0
176
     1
 90
        8
176
     1
 62
     7
176
     1
 40
1.0
176
     1
 90
        1
176
     1
 90
        6
176
     1
 90
        2
176
     1
 62
     7
176
     1
 90
        5
176
     1
 90
        0
176
     1
 90
        0
176
     1
290
     0
176
     1
 90
        1
176
     1
 40
0.0
176
     1
 90
        0
176
     1
290
     0
176
     1
290
     1
176
     1
290
     1
176
     1
290
     0
176
     1
290
     0
176
     1
290
     0
176
     1
290
     0
176
     1
290
     0
176
     1
290
     0
176
     1
 90
       50
176
     1
 40
0.0
176
     1
 40
1.0
176
     1
 90
        0
176
     1
 62
    18
420
        0
176
     1
 90
       50
176
     1
 90
        3
176
     1
 62
     5
420
      255
176
     1
290
     0
176
     1
 90
       50
176
     1
 90
       50
176
     1
 90
       50
176
     1
290
     0
176
     1
 90
       50
176
     1
 62
   256
176
     0
 40
1.0
176
     0
 90
        2
176
     1
  1
strokes_ogs.tif
176
     1
290
     0
176
     1
 40
1.0
176
     1
 40
1.0
176
     1
  0
VISUALSTYLE
  5
40
102
{ACAD_REACTORS
330
29
102
}
330
29
100
AcDbVisualStyle
  2
OverhangOff
 70
    21
177
     3
291
     1
 70
    58
 90
        2
176
     0
 90
        2
176
     0
 90
        0
176
     0
 90
        0
176
     0
 40
0.6
176
     0
 40
30.0
176
     0
 62
     7
420
 16777215
176
     0
 90
        1
176
     0
 90
        4
176
     0
 62
     7
176
     0
 62
   257
176
     0
 90
        1
176
     0
 90
        1
176
     0
 40
1.0
176
     0
 90
        9
176
     2
 62
     7
176
     0
 40
1.0
176
     0
 90
        1
176
     0
 90
        6
176
     0
 90
        2
176
     0
 62
     7
176
     0
 90
        5
176
     0
 90
        0
176
     0
 90
        0
176
     0
290
     0
176
     0
 90
        1
176
     0
 40
0.0
176
     0
 90
        0
176
     0
290
     0
176
     0
290
     1
176
     0
290
     1
176
     0
290
     0
176
     0
290
     0
176
     0
290
     0
176
     0
290
     0
176
     0
290
     0
176
     0
290
     0
176
     0
 90
       50
176
     0
 40
0.0
176
     0
 40
1.0
176
     0
 90
        0
176
     0
 62
    18
420
        0
176
     0
 90
       50
176
     0
 90
        3
176
     0
 62
     5
420
      255
176
     0
290
     0
176
     0
 90
       50
176
     0
 90
       50
176
     0
 90
       50
176
     0
290
     0
176
     0
 90
       50
176
     0
 62
   256
176
     0
 40
1.0
176
     0
 90
        2
176
     0
  1
strokes_ogs.tif
176
     0
290
     0
176
     0
 40
1.0
176
     0
 40
1.0
176
     0
  0
VISUALSTYLE
  5
33
102
{ACAD_REACTORS
330
29
102
}
330
29
100
AcDbVisualStyle
  2
Realistic
 70
     8
177
     3
291
     0
 70
    58
 90
        2
176
     1
 90
        3
176
     1
 90
        0
176
     1
 90
        2
176
     1
 40
0.6
176
     1
 40
30.0
176
     1
 62
     7
420
 16777215
176
     1
 90
        0
176
     1
 90
        0
176
     1
 62
     7
176
     1
 62
   257
176
     1
 90
        1
176
     1
 90
        1
176
     1
 40
1.0
176
     1
 90
        8
176
     1
 62
   257
176
     1
 40
1.0
176
     1
 90
        1
176
     1
 90
        6
176
     1
 90
        2
176
     1
 62
     7
176
     1
 90
        3
176
     1
 90
        0
176
     1
 90
        0
176
     1
290
     0
176
     1
 90
       13
176
     1
 40
0.0
176
     1
 90
        0
176
     1
290
     0
176
     1
290
     1
176
     1
290
     1
176
     1
290
     0
176
     1
290
     0
176
     1
290
     0
176
     1
290
     0
176
     1
290
     0
176
     1
290
     0
176
     1
 90
       50
176
     1
 40
0.0
176
     1
 40
1.0
176
     1
 90
        0
176
     1
 62
    18
420
        0
176
     1
 90
       50
176
     1
 90
        3
176
     1
 62
     5
420
      255
176
     1
290
     0
176
     1
 90
       50
176
     1
 90
       50
176
     1
 90
       50
176
     1
290
     0
176
     1
 90
       50
176
     1
 62
   256
176
     0
 40
1.0
176
     0
 90
        2
176
     1
  1
strokes_ogs.tif
176
     1
290
     0
176
     1
 40
1.0
176
     1
 40
1.0
176
     1
  0
VISUALSTYLE
  5
3E
102
{ACAD_REACTORS
330
29
102
}
330
29
100
AcDbVisualStyle
  2
Shaded
 70
    27
177
     3
291
     0
 70
    58
 90
        2
176
     1
 90
        2
176
     1
 90
        1
176
     1
 90
        2
176
     1
 40
0.6
176
     1
 40
30.0
176
     1
 62
     7
420
 16777215
176
     1
 90
        0
176
     1
 90
        4
176
     1
 62
     7
176
     1
 62
   257
176
     1
 90
        1
176
     1
 90
        1
176
     1
 40
1.0
176
     1
 90
        8
176
     1
 62
   257
176
     1
 40
1.0
176
     1
 90
        1
176
     1
 90
        6
176
     1
 90
        2
176
     1
 62
     8
420
  7895160
176
     1
 90
        3
176
     1
 90
        0
176
     1
 90
        0
176
     1
290
     0
176
     1
 90
        5
176
     1
 40
0.0
176
     1
 90
        0
176
     1
290
     0
176
     1
290
     1
176
     1
290
     1
176
     1
290
     0
176
     1
290
     0
176
     1
290
     0
176
     1
290
     0
176
     1
290
     0
176
     1
290
     0
176
     1
 90
       50
176
     1
 40
0.0
176
     1
 40
1.0
176
     1
 90
        0
176
     1
 62
    18
420
        0
176
     1
 90
       50
176
     1
 90
        3
176
     1
 62
     5
420
      255
176
     1
290
     0
176
     1
 90
       50
176
     1
 90
       50
176
     1
 90
       50
176
     1
290
     0
176
     1
 90
       50
176
     1
 62
   256
176
     0
 40
1.0
176
     0
 90
        2
176
     1
  1
strokes_ogs.tif
176
     1
290
     0
176
     1
 40
1.0
176
     1
 40
1.0
176
     1
  0
VISUALSTYLE
  5
3D
102
{ACAD_REACTORS
330
29
102
}
330
29
100
AcDbVisualStyle
  2
Shaded with edges
 70
    26
177
     3
291
     0
 70
    58
 90
        2
176
     1
 90
        2
176
     1
 90
        1
176
     1
 90
        2
176
     1
 40
0.6
176
     1
 40
30.0
176
     1
 62
     7
420
 16777215
176
     1
 90
        1
176
     1
 90
        2
176
     1
 62
     7
176
     1
 62
   257
176
     1
 90
        2
176
     1
 90
        1
176
     1
 40
1.0
176
     1
 90
        8
176
     1
 62
   257
176
     1
 40
1.0
176
     1
 90
        1
176
     1
 90
        6
176
     1
 90
        2
176
     1
 62
     7
176
     1
 90
        3
176
     1
 90
        0
176
     1
 90
        0
176
     1
290
     0
176
     1
 90
        5
176
     1
 40
0.0
176
     1
 90
        0
176
     1
290
     0
176
     1
290
     1
176
     1
290
     1
176
     1
290
     0
176
     1
290
     0
176
     1
290
     0
176
     1
290
     0
176
     1
290
     0
176
     1
290
     0
176
     1
 90
       50
176
     1
 40
0.0
176
     1
 40
1.0
176
     1
 90
        0
176
     1
 62
    18
420
        0
176
     1
 90
       50
176
     1
 90
        3
176
     1
 62
     5
420
      255
176
     1
290
     0
176
     1
 90
       50
176
     1
 90
       50
176
     1
 90
       50
176
     1
290
     0
176
     1
 90
       50
176
     1
 62
   256
176
     0
 40
1.0
176
     0
 90
        2
176
     1
  1
strokes_ogs.tif
176
     1
290
     0
176
     1
 40
1.0
176
     1
 40
1.0
176
     1
  0
VISUALSTYLE
  5
3A
102
{ACAD_REACTORS
330
29
102
}
330
29
100
AcDbVisualStyle
  2
Shades of Gray
 70
    23
177
     3
291
     0
 70
    58
 90
        2
176
     1
 90
        2
176
     1
 90
        3
176
     1
 90
        0
176
     1
 40
0.6
176
     1
 40
30.0
176
     1
 62
     7
420
 16777215
176
     1
 90
        2
176
     1
 90
        2
176
     1
 62
     7
176
     1
 62
     7
176
     1
 90
        1
176
     1
 90
        1
176
     1
 40
40.0
176
     1
 90
        8
176
     1
 62
     7
176
     1
 40
1.0
176
     1
 90
        1
176
     1
 90
        6
176
     1
 90
        2
176
     1
 62
     7
176
     1
 90
        3
176
     1
 90
        0
176
     1
 90
        0
176
     1
290
     0
176
     1
 90
        1
176
     1
 40
0.0
176
     1
 90
        0
176
     1
290
     0
176
     1
290
     1
176
     1
290
     1
176
     1
290
     0
176
     1
290
     0
176
     1
290
     0
176
     1
290
     0
176
     1
290
     0
176
     1
290
     0
176
     1
 90
       50
176
     1
 40
0.0
176
     1
 40
1.0
176
     1
 90
        0
176
     1
 62
    18
420
        0
176
     1
 90
       50
176
     1
 90
        3
176
     1
 62
     5
420
      255
176
     1
290
     0
176
     1
 90
       50
176
     1
 90
       50
176
     1
 90
       50
176
     1
290
     0
176
     1
 90
       50
176
     1
 62
   256
176
     0
 40
1.0
176
     0
 90
        2
176
     1
  1
strokes_ogs.tif
176
     1
290
     0
176
     1
 40
1.0
176
     1
 40
1.0
176
     1
  0
VISUALSTYLE
  5
3B
102
{ACAD_REACTORS
330
29
102
}
330
29
100
AcDbVisualStyle
  2
Sketchy
 70
    24
177
     3
291
     0
 70
    58
 90
        1
176
     1
 90
        2
176
     1
 90
        2
176
     1
 90
        0
176
     1
 40
0.6
176
     1
 40
30.0
176
     1
 62
     7
420
 16777215
176
     1
 90
        2
176
     1
 90
        2
176
     1
 62
     7
176
     1
 62
     7
176
     1
 90
        1
176
     1
 90
        1
176
     1
 40
40.0
176
     1
 90
       11
176
     1
 62
     7
176
     1
 40
1.0
176
     1
 90
        1
176
     1
 90
        6
176
     1
 90
        2
176
     1
 62
     7
176
     1
 90
        6
176
     1
 90
        0
176
     1
 90
        0
176
     1
290
     0
176
     1
 90
        1
176
     1
 40
0.0
176
     1
 90
        0
176
     1
290
     0
176
     1
290
     1
176
     1
290
     1
176
     1
290
     0
176
     1
290
     0
176
     1
290
     0
176
     1
290
     0
176
     1
290
     0
176
     1
290
     0
176
     1
 90
       50
176
     1
 40
0.0
176
     1
 40
1.0
176
     1
 90
        0
176
     1
 62
    18
420
        0
176
     1
 90
       50
176
     1
 90
        3
176
     1
 62
     5
420
      255
176
     1
290
     0
176
     1
 90
       50
176
     1
 90
       50
176
     1
 90
       50
176
     1
290
     0
176
     1
 90
       50
176
     1
 62
   256
176
     0
 40
1.0
176
     0
 90
        2
176
     1
  1
strokes_ogs.tif
176
     1
290
     0
176
     1
 40
1.0
176
     1
 40
1.0
176
     1
  0
VISUALSTYLE
  5
36
102
{ACAD_REACTORS
330
29
102
}
330
29
100
AcDbVisualStyle
  2
Thicken
 70
    13
177
     3
291
     1
 70
    58
 90
        2
176
     1
 90
        2
176
     1
 90
        0
176
     1
 90
        0
176
     1
 40
0.6
176
     1
 40
30.0
176
     1
 62
     7
420
 16777215
176
     1
 90
        1
176
     1
 90
        4
176
     1
 62
     7
176
     1
 62
   257
176
     1
 90
        1
176
     1
 90
        1
176
     1
 40
1.0
176
     1
 90
       12
176
     1
 62
     7
176
     1
 40
1.0
176
     1
 90
        1
176
     1
 90
        6
176
     1
 90
        2
176
     1
 62
     7
176
     1
 90
        5
176
     1
 90
        0
176
     1
 90
        0
176
     1
290
     0
176
     1
 90
        1
176
     1
 40
0.0
176
     1
 90
        0
176
     1
290
     0
176
     1
290
     1
176
     1
290
     1
176
     1
290
     0
176
     1
290
     0
176
     1
290
     0
176
     1
290
     0
176
     1
290
     0
176
     1
290
     0
176
     1
 90
       50
176
     1
 40
0.0
176
     1
 40
1.0
176
     1
 90
        0
176
     1
 62
    18
420
        0
176
     1
 90
       50
176
     1
 90
        3
176
     1
 62
     5
420
      255
176
     1
290
     0
176
     1
 90
       50
176
     1
 90
       50
176
     1
 90
       50
176
     1
290
     0
176
     1
 90
       50
176
     1
 62
   256
176
     0
 40
1.0
176
     0
 90
        2
176
     1
  1
strokes_ogs.tif
176
     1
290
     0
176
     1
 40
1.0
176
     1
 40
1.0
176
     1
  0
VISUALSTYLE
  5
30
102
{ACAD_REACTORS
330
29
102
}
330
29
100
AcDbVisualStyle
  2
Wireframe
 70
     5
177
     3
291
     0
 70
    58
 90
        0
176
     1
 90
        2
176
     1
 90
        0
176
     1
 90
        0
176
     1
 40
0.6
176
     1
 40
30.0
176
     1
 62
     7
420
 16777215
176
     1
 90
        1
176
     1
 90
        4
176
     1
 62
     7
176
     1
 62
   257
176
     1
 90
        1
176
     1
 90
        1
176
     1
 40
1.0
176
     1
 90
        0
176
     1
 62
   257
176
     1
 40
1.0
176
     1
 90
        1
176
     1
 90
        6
176
     1
 90
        2
176
     1
 62
     7
176
     1
 90
        3
176
     1
 90
        0
176
     1
 90
        0
176
     1
290
     0
176
     1
 90
        1
176
     1
 40
0.0
176
     1
 90
        0
176
     1
290
     0
176
     1
290
     1
176
     1
290
     1
176
     1
290
     0
176
     1
290
     0
176
     1
290
     0
176
     1
290
     0
176
     1
290
     0
176
     1
290
     0
176
     1
 90
       50
176
     1
 40
0.0
176
     1
 40
1.0
176
     1
 90
        0
176
     1
 62
    18
420
        0
176
     1
 90
       50
176
     1
 90
        3
176
     1
 62
     5
420
      255
176
     1
290
     0
176
     1
 90
       50
176
     1
 90
       50
176
     1
 90
       50
176
     1
290
     0
176
     1
 90
       50
176
     1
 62
   256
176
     0
 40
1.0
176
     0
 90
        2
176
     1
  1
strokes_ogs.tif
176
     1
290
     0
176
     1
 40
1.0
176
     1
 40
1.0
176
     1
  0
VISUALSTYLE
  5
3C
102
{ACAD_REACTORS
330
29
102
}
330
29
100
AcDbVisualStyle
  2
X-Ray
 70
    25
177
     3
291
     0
 70
    58
 90
        2
176
     1
 90
        2
176
     1
 90
        1
176
     1
 90
        1
176
     1
 40
0.5
176
     1
 40
30.0
176
     1
 62
     7
420
 16777215
176
     1
 90
        1
176
     1
 90
        0
176
     1
 62
     7
176
     1
 62
   257
176
     1
 90
        1
176
     1
 90
        1
176
     1
 40
1.0
176
     1
 90
        8
176
     1
 62
     7
176
     1
 40
1.0
176
     1
 90
        1
176
     1
 90
        6
176
     1
 90
        2
176
     1
 62
     7
176
     1
 90
        3
176
     1
 90
        0
176
     1
 90
        0
176
     1
290
     0
176
     1
 90
       13
176
     1
 40
0.0
176
     1
 90
        0
176
     1
290
     0
176
     1
290
     1
176
     1
290
     1
176
     1
290
     0
176
     1
290
     0
176
     1
290
     0
176
     1
290
     0
176
     1
290
     0
176
     1
290
     0
176
     1
 90
       50
176
     1
 40
0.0
176
     1
 40
1.0
176
     1
 90
        0
176
     1
 62
    18
420
        0
176
     1
 90
       50
176
     1
 90
        3
176
     1
 62
     5
420
      255
176
     1
290
     0
176
     1
 90
       50
176
     1
 90
       50
176
     1
 90
       50
176
     1
290
     0
176
     1
 90
       50
176
     1
 62
   256
176
     0
 40
1.0
176
     0
 90
        2
176
     1
  1
strokes_ogs.tif
176
     1
290
     0
176
     1
 40
1.0
176
     1
 40
1.0
176
     1
  0
DICTIONARYVAR
  5
106
102
{ACAD_REACTORS
330
101
102
}
330
101
100
DictionaryVariables
280
     0
  1
1:1
  0
DICTIONARYVAR
  5
103
102
{ACAD_REACTORS
330
101
102
}
330
101
100
DictionaryVariables
280
     0
  1
STANDARD
  0
DICTIONARYVAR
  5
102
102
{ACAD_REACTORS
330
101
102
}
330
101
100
DictionaryVariables
280
     0
  1
STANDARD
  0
DICTIONARYVAR
  5
104
102
{ACAD_REACTORS
330
101
102
}
330
101
100
DictionaryVariables
280
     0
  1
Imperial24
  0
DICTIONARYVAR
  5
105
102
{ACAD_REACTORS
330
101
102
}
330
101
100
DictionaryVariables
280
     0
  1
Imperial24
  0
DICTIONARY
  5
1A
330
19
100
AcDbDictionary
280
     1
281
     1
  3
BUMPTILE
360
1C
  3
DIFFUSETILE
360
1B
  3
OPACITYTILE
360
1F
  3
REFLECTIONTILE
360
1E
  3
REFRACTIONTILE
360
20
  3
SPECULARTILE
360
1D
  0
DICTIONARY
  5
12
330
11
100
AcDbDictionary
280
     1
281
     1
  3
BUMPTILE
360
14
  3
DIFFUSETILE
360
13
  3
OPACITYTILE
360
17
  3
REFLECTIONTILE
360
16
  3
REFRACTIONTILE
360
18
  3
SPECULARTILE
360
15
  0
DICTIONARY
  5
22
330
21
100
AcDbDictionary
280
     1
281
     1
  3
BUMPTILE
360
24
  3
DIFFUSETILE
360
23
  3
OPACITYTILE
360
27
  3
REFLECTIONTILE
360
26
  3
REFRACTIONTILE
360
28
  3
SPECULARTILE
360
25
  0
DICTIONARY
  5
107
330
65
100
AcDbDictionary
280
     1
281
     1
  3
ACAD_ROUNDTRIP_2008_TABLESTYLE_CELLSTYLEMAP
360
108
  0
XRECORD
  5
1C
102
{ACAD_REACTORS
330
1A
102
}
330
1A
100
AcDbXrecord
280
     1
270
     1
271
     1
  0
XRECORD
  5
1B
102
{ACAD_REACTORS
330
1A
102
}
330
1A
100
AcDbXrecord
280
     1
270
     1
271
     1
  0
XRECORD
  5
1F
102
{ACAD_REACTORS
330
1A
102
}
330
1A
100
AcDbXrecord
280
     1
270
     1
271
     1
  0
XRECORD
  5
1E
102
{ACAD_REACTORS
330
1A
102
}
330
1A
100
AcDbXrecord
280
     1
270
     1
271
     1
  0
XRECORD
  5
20
102
{ACAD_REACTORS
330
1A
102
}
330
1A
100
AcDbXrecord
280
     1
270
     1
271
     1
  0
XRECORD
  5
1D
102
{ACAD_REACTORS
330
1A
102
}
330
1A
100
AcDbXrecord
280
     1
270
     1
271
     1
  0
XRECORD
  5
14
102
{ACAD_REACTORS
330
12
102
}
330
12
100
AcDbXrecord
280
     1
270
     1
271
     1
  0
XRECORD
  5
13
102
{ACAD_REACTORS
330
12
102
}
330
12
100
AcDbXrecord
280
     1
270
     1
271
     1
  0
XRECORD
  5
17
102
{ACAD_REACTORS
330
12
102
}
330
12
100
AcDbXrecord
280
     1
270
     1
271
     1
  0
XRECORD
  5
16
102
{ACAD_REACTORS
330
12
102
}
330
12
100
AcDbXrecord
280
     1
270
     1
271
     1
  0
XRECORD
  5
18
102
{ACAD_REACTORS
330
12
102
}
330
12
100
AcDbXrecord
280
     1
270
     1
271
     1
  0
XRECORD
  5
15
102
{ACAD_REACTORS
330
12
102
}
330
12
100
AcDbXrecord
280
     1
270
     1
271
     1
  0
XRECORD
  5
24
102
{ACAD_REACTORS
330
22
102
}
330
22
100
AcDbXrecord
280
     1
270
     1
271
     1
  0
XRECORD
  5
23
102
{ACAD_REACTORS
330
22
102
}
330
22
100
AcDbXrecord
280
     1
270
     1
271
     1
  0
XRECORD
  5
27
102
{ACAD_REACTORS
330
22
102
}
330
22
100
AcDbXrecord
280
     1
270
     1
271
     1
  0
XRECORD
  5
26
102
{ACAD_REACTORS
330
22
102
}
330
22
100
AcDbXrecord
280
     1
270
     1
271
     1
  0
XRECORD
  5
28
102
{ACAD_REACTORS
330
22
102
}
330
22
100
AcDbXrecord
280
     1
270
     1
271
     1
  0
XRECORD
  5
25
102
{ACAD_REACTORS
330
22
102
}
330
22
100
AcDbXrecord
280
     1
270
     1
271
     1
  0
CELLSTYLEMAP
  5
108
102
{ACAD_REACTORS
330
107
102
}
330
107
100
AcDbCellStyleMap
 90
        3
300
CELLSTYLE
  1
TABLEFORMAT_BEGIN
 90
        5
170
     1
 91
        0
 92
    32768
 62
   257
 93
        1
300
CONTENTFORMAT
  1
CONTENTFORMAT_BEGIN
 90
        0
 91
        0
 92
      512
 93
        0
300

 40
0.0
140
1.0
 94
        5
 62
     0
340
55
144
0.25
309
CONTENTFORMAT_END
171
     0
 94
        0
309
TABLEFORMAT_END
  1
CELLSTYLE_BEGIN
 90
        1
 91
        1
300
_TITLE
309
CELLSTYLE_END
300
CELLSTYLE
  1
TABLEFORMAT_BEGIN
 90
        5
170
     1
 91
        0
 92
        0
 62
   257
 93
        1
300
CONTENTFORMAT
  1
CONTENTFORMAT_BEGIN
 90
        0
 91
        0
 92
      512
 93
        0
300

 40
0.0
140
1.0
 94
        5
 62
     0
340
55
144
0.18
309
CONTENTFORMAT_END
171
     0
 94
        0
309
TABLEFORMAT_END
  1
CELLSTYLE_BEGIN
 90
        2
 91
        1
300
_HEADER
309
CELLSTYLE_END
300
CELLSTYLE
  1
TABLEFORMAT_BEGIN
 90
        5
170
     1
 91
        0
 92
        0
 62
   257
 93
        1
300
CONTENTFORMAT
  1
CONTENTFORMAT_BEGIN
 90
        0
 91
        0
 92
      512
 93
        0
300

 40
0.0
140
1.0
 94
        2
 62
     0
340
55
144
0.18
309
CONTENTFORMAT_END
171
     0
 94
        0
309
TABLEFORMAT_END
  1
CELLSTYLE_BEGIN
 90
        3
 91
        2
300
_DATA
309
CELLSTYLE_END
  0
ENDSEC
  0
EOF
