  0
SECTION
  2
HEADER
  9
$ACADVER
  1
AC1032
  9
$ACADMAINTVER
 90
      329
  9
$DWGCODEPAGE
  3
ANSI_936
  9
$REQUIREDVERSIONS
160
                 0
  9
$INSBASE
 10
0.0
 20
0.0
 30
0.0
  9
$EXTMIN
 10
1.000000000000000E+20
 20
1.000000000000000E+20
 30
1.000000000000000E+20
  9
$EXTMAX
 10
-1.000000000000000E+20
 20
-1.000000000000000E+20
 30
-1.000000000000000E+20
  9
$LIMMIN
 10
0.0
 20
0.0
  9
$LIMMAX
 10
12.0
 20
9.0
  9
$ORTHOMODE
 70
     0
  9
$REGENMODE
 70
     1
  9
$FILLMODE
 70
     1
  9
$QTEXTMODE
 70
     0
  9
$MIRRTEXT
 70
     0
  9
$LTSCALE
 40
1.0
  9
$ATTMODE
 70
     1
  9
$TEXTSIZE
 40
0.2
  9
$TRACEWID
 40
0.05
  9
$TEXTSTYLE
  7
Standard
  9
$CLAYER
  8
0
  9
$CELTYPE
  6
ByLayer
  9
$CECOLOR
 62
   256
  9
$CELTSCALE
 40
1.0
  9
$DISPSILH
 70
     0
  9
$DIMSCALE
 40
1.0
  9
$DIMASZ
 40
0.18
  9
$DIMEXO
 40
0.0625
  9
$DIMDLI
 40
0.38
  9
$DIMRND
 40
0.0
  9
$DIMDLE
 40
0.0
  9
$DIMEXE
 40
0.18
  9
$DIMTP
 40
0.0
  9
$DIMTM
 40
0.0
  9
$DIMTXT
 40
0.18
  9
$DIMCEN
 40
0.09
  9
$DIMTSZ
 40
0.0
  9
$DIMTOL
 70
     0
  9
$DIMLIM
 70
     0
  9
$DIMTIH
 70
     1
  9
$DIMTOH
 70
     1
  9
$DIMSE1
 70
     0
  9
$DIMSE2
 70
     0
  9
$DIMTAD
 70
     0
  9
$DIMZIN
 70
     0
  9
$DIMBLK
  1

  9
$DIMASO
 70
     1
  9
$DIMSHO
 70
     1
  9
$DIMPOST
  1

  9
$DIMAPOST
  1

  9
$DIMALT
 70
     0
  9
$DIMALTD
 70
     2
  9
$DIMALTF
 40
25.4
  9
$DIMLFAC
 40
1.0
  9
$DIMTOFL
 70
     0
  9
$DIMTVP
 40
0.0
  9
$DIMTIX
 70
     0
  9
$DIMSOXD
 70
     0
  9
$DIMSAH
 70
     0
  9
$DIMBLK1
  1

  9
$DIMBLK2
  1

  9
$DIMSTYLE
  2
Standard
  9
$DIMCLRD
 70
     0
  9
$DIMCLRE
 70
     0
  9
$DIMCLRT
 70
     0
  9
$DIMTFAC
 40
1.0
  9
$DIMGAP
 40
0.09
  9
$DIMJUST
 70
     0
  9
$DIMSD1
 70
     0
  9
$DIMSD2
 70
     0
  9
$DIMTOLJ
 70
     1
  9
$DIMTZIN
 70
     0
  9
$DIMALTZ
 70
     0
  9
$DIMALTTZ
 70
     0
  9
$DIMUPT
 70
     0
  9
$DIMDEC
 70
     4
  9
$DIMTDEC
 70
     4
  9
$DIMALTU
 70
     2
  9
$DIMALTTD
 70
     2
  9
$DIMTXSTY
  7
Standard
  9
$DIMAUNIT
 70
     0
  9
$DIMADEC
 70
     0
  9
$DIMALTRND
 40
0.0
  9
$DIMAZIN
 70
     0
  9
$DIMDSEP
 70
    46
  9
$DIMATFIT
 70
     3
  9
$DIMFRAC
 70
     0
  9
$DIMLDRBLK
  1

  9
$DIMLUNIT
 70
     2
  9
$DIMLWD
 70
    -2
  9
$DIMLWE
 70
    -2
  9
$DIMTMOVE
 70
     0
  9
$DIMFXL
 40
1.0
  9
$DIMFXLON
 70
     0
  9
$DIMJOGANG
 40
0.7853981633974483
  9
$DIMTFILL
 70
     0
  9
$DIMTFILLCLR
 70
     0
  9
$DIMARCSYM
 70
     0
  9
$DIMLTYPE
  6

  9
$DIMLTEX1
  6

  9
$DIMLTEX2
  6

  9
$DIMTXTDIRECTION
 70
     0
  9
$LUNITS
 70
     2
  9
$LUPREC
 70
     4
  9
$SKETCHINC
 40
0.1
  9
$FILLETRAD
 40
0.0
  9
$AUNITS
 70
     0
  9
$AUPREC
 70
     0
  9
$MENU
  1
.
  9
$ELEVATION
 40
0.0
  9
$PELEVATION
 40
0.0
  9
$THICKNESS
 40
0.0
  9
$LIMCHECK
 70
     0
  9
$CHAMFERA
 40
0.0
  9
$CHAMFERB
 40
0.0
  9
$CHAMFERC
 40
0.0
  9
$CHAMFERD
 40
0.0
  9
$SKPOLY
 70
     0
  9
$TDCREATE
 40
2460887.383368056
  9
$TDUCREATE
 40
2460887.050034723
  9
$TDUPDATE
 40
2460887.383368056
  9
$TDUUPDATE
 40
2460887.050034723
  9
$TDINDWG
 40
0.0000000000
  9
$TDUSRTIMER
 40
0.0000000000
  9
$USRTIMER
 70
     1
  9
$ANGBASE
 50
0.0
  9
$ANGDIR
 70
     0
  9
$PDMODE
 70
     0
  9
$PDSIZE
 40
0.0
  9
$PLINEWID
 40
0.0
  9
$SPLFRAME
 70
     0
  9
$SPLINETYPE
 70
     6
  9
$SPLINESEGS
 70
     8
  9
$HANDSEED
  5
132
  9
$SURFTAB1
 70
     6
  9
$SURFTAB2
 70
     6
  9
$SURFTYPE
 70
     6
  9
$SURFU
 70
     6
  9
$SURFV
 70
     6
  9
$UCSBASE
  2

  9
$UCSNAME
  2

  9
$UCSORG
 10
0.0
 20
0.0
 30
0.0
  9
$UCSXDIR
 10
1.0
 20
0.0
 30
0.0
  9
$UCSYDIR
 10
0.0
 20
1.0
 30
0.0
  9
$UCSORTHOREF
  2

  9
$UCSORTHOVIEW
 70
     0
  9
$UCSORGTOP
 10
0.0
 20
0.0
 30
0.0
  9
$UCSORGBOTTOM
 10
0.0
 20
0.0
 30
0.0
  9
$UCSORGLEFT
 10
0.0
 20
0.0
 30
0.0
  9
$UCSORGRIGHT
 10
0.0
 20
0.0
 30
0.0
  9
$UCSORGFRONT
 10
0.0
 20
0.0
 30
0.0
  9
$UCSORGBACK
 10
0.0
 20
0.0
 30
0.0
  9
$PUCSBASE
  2

  9
$PUCSNAME
  2

  9
$PUCSORG
 10
0.0
 20
0.0
 30
0.0
  9
$PUCSXDIR
 10
1.0
 20
0.0
 30
0.0
  9
$PUCSYDIR
 10
0.0
 20
1.0
 30
0.0
  9
$PUCSORTHOREF
  2

  9
$PUCSORTHOVIEW
 70
     0
  9
$PUCSORGTOP
 10
0.0
 20
0.0
 30
0.0
  9
$PUCSORGBOTTOM
 10
0.0
 20
0.0
 30
0.0
  9
$PUCSORGLEFT
 10
0.0
 20
0.0
 30
0.0
  9
$PUCSORGRIGHT
 10
0.0
 20
0.0
 30
0.0
  9
$PUCSORGFRONT
 10
0.0
 20
0.0
 30
0.0
  9
$PUCSORGBACK
 10
0.0
 20
0.0
 30
0.0
  9
$USERI1
 70
     0
  9
$USERI2
 70
     0
  9
$USERI3
 70
     0
  9
$USERI4
 70
     0
  9
$USERI5
 70
     0
  9
$USERR1
 40
0.0
  9
$USERR2
 40
0.0
  9
$USERR3
 40
0.0
  9
$USERR4
 40
0.0
  9
$USERR5
 40
0.0
  9
$WORLDVIEW
 70
     1
  9
$SHADEDGE
 70
     3
  9
$SHADEDIF
 70
    70
  9
$TILEMODE
 70
     1
  9
$MAXACTVP
 70
    64
  9
$PINSBASE
 10
0.0
 20
0.0
 30
0.0
  9
$PLIMCHECK
 70
     0
  9
$PEXTMIN
 10
1.000000000000000E+20
 20
1.000000000000000E+20
 30
1.000000000000000E+20
  9
$PEXTMAX
 10
-1.000000000000000E+20
 20
-1.000000000000000E+20
 30
-1.000000000000000E+20
  9
$PLIMMIN
 10
0.0
 20
0.0
  9
$PLIMMAX
 10
12.0
 20
9.0
  9
$UNITMODE
 70
     0
  9
$VISRETAIN
 70
     1
  9
$PLINEGEN
 70
     0
  9
$PSLTSCALE
 70
     1
  9
$TREEDEPTH
 70
  3020
  9
$CMLSTYLE
  2
Standard
  9
$CMLJUST
 70
     0
  9
$CMLSCALE
 40
1.0
  9
$PROXYGRAPHICS
 70
     1
  9
$MEASUREMENT
 70
     0
  9
$CELWEIGHT
370
    -1
  9
$ENDCAPS
280
     0
  9
$JOINSTYLE
280
     0
  9
$LWDISPLAY
290
     1
  9
$INSUNITS
 70
     1
  9
$HYPERLINKBASE
  1

  9
$STYLESHEET
  1

  9
$XEDIT
290
     1
  9
$CEPSNTYPE
380
     0
  9
$PSTYLEMODE
290
     1
  9
$FINGERPRINTGUID
  2
{E35033CD-7B19-DB46-AD1A-C329048C9561}
  9
$VERSIONGUID
  2
{8F18B472-99C9-F94B-8E2A-8632514C9623}
  9
$EXTNAMES
290
     1
  9
$PSVPSCALE
 40
0.0
  9
$OLESTARTUP
290
     0
  9
$SORTENTS
280
   127
  9
$INDEXCTL
280
     0
  9
$HIDETEXT
280
     1
  9
$XCLIPFRAME
280
     2
  9
$HALOGAP
280
     0
  9
$OBSCOLOR
 70
   257
  9
$OBSLTYPE
280
     0
  9
$INTERSECTIONDISPLAY
280
     0
  9
$INTERSECTIONCOLOR
 70
   257
  9
$DIMASSOC
280
     2
  9
$PROJECTNAME
  1

  9
$CAMERADISPLAY
290
     0
  9
$LENSLENGTH
 40
50.0
  9
$CAMERAHEIGHT
 40
0.0
  9
$STEPSPERSEC
 40
2.0
  9
$STEPSIZE
 40
6.0
  9
$3DDWFPREC
 40
2.0
  9
$PSOLWIDTH
 40
0.25
  9
$PSOLHEIGHT
 40
4.0
  9
$LOFTANG1
 40
1.570796326794896
  9
$LOFTANG2
 40
1.570796326794896
  9
$LOFTMAG1
 40
0.0
  9
$LOFTMAG2
 40
0.0
  9
$LOFTPARAM
 70
     7
  9
$LOFTNORMALS
280
     1
  9
$LATITUDE
 40
37.795
  9
$LONGITUDE
 40
-122.394
  9
$NORTHDIRECTION
 40
0.0
  9
$TIMEZONE
 70
 -8000
  9
$LIGHTGLYPHDISPLAY
280
     1
  9
$TILEMODELIGHTSYNCH
280
     1
  9
$CMATERIAL
347
11
  9
$SOLIDHIST
280
     0
  9
$SHOWHIST
280
     1
  9
$DWFFRAME
280
     2
  9
$DGNFRAME
280
     0
  9
$REALWORLDSCALE
290
     1
  9
$INTERFERECOLOR
 62
     1
  9
$INTERFEREOBJVS
345
33
  9
$INTERFEREVPVS
346
30
  9
$CSHADOW
280
     0
  9
$SHADOWPLANELOCATION
 40
0.0
  0
ENDSEC
  0
SECTION
  2
CLASSES
  0
CLASS
  1
ACDBDICTIONARYWDFLT
  2
AcDbDictionaryWithDefault
  3
ObjectDBX Classes
 90
        0
 91
        1
280
     0
281
     0
  0
CLASS
  1
MATERIAL
  2
AcDbMaterial
  3
ObjectDBX Classes
 90
     1153
 91
        3
280
     0
281
     0
  0
CLASS
  1
VISUALSTYLE
  2
AcDbVisualStyle
  3
ObjectDBX Classes
 90
     4095
 91
       24
280
     0
281
     0
  0
CLASS
  1
SCALE
  2
AcDbScale
  3
ObjectDBX Classes
 90
     1153
 91
       17
280
     0
281
     0
  0
CLASS
  1
TABLESTYLE
  2
AcDbTableStyle
  3
ObjectDBX Classes
 90
     4095
 91
        1
280
     0
281
     0
  0
CLASS
  1
MLEADERSTYLE
  2
AcDbMLeaderStyle
  3
ACDB_MLEADERSTYLE_CLASS
 90
     4095
 91
        1
280
     0
281
     0
  0
CLASS
  1
ACDBSECTIONVIEWSTYLE
  2
AcDbSectionViewStyle
  3
ObjectDBX Classes
 90
     1025
 91
        1
280
     0
281
     0
  0
CLASS
  1
ACDBDETAILVIEWSTYLE
  2
AcDbDetailViewStyle
  3
ObjectDBX Classes
 90
     1025
 91
        1
280
     0
281
     0
  0
CLASS
  1
DICTIONARYVAR
  2
AcDbDictionaryVar
  3
ObjectDBX Classes
 90
        0
 91
        5
280
     0
281
     0
  0
CLASS
  1
CELLSTYLEMAP
  2
AcDbCellStyleMap
  3
ObjectDBX Classes
 90
     1152
 91
        1
280
     0
281
     0
  0
ENDSEC
  0
SECTION
  2
TABLES
  0
TABLE
  2
VPORT
  5
8
330
0
100
AcDbSymbolTable
 70
     1
  0
VPORT
  5
57
330
8
100
AcDbSymbolTableRecord
100
AcDbViewportTableRecord
  2
*Active
 70
     0
 10
0.0
 20
0.0
 11
1.0
 21
1.0
 12
0.0
 22
0.0
 13
0.0
 23
0.0
 14
1.0
 24
1.0
 15
0.0
 25
0.0
 16
0.0
 26
0.0
 36
1.0
 17
12.0
 27
-10.0
 37
0.0
 40
20.4
 41
1.2
 42
50.0
 43
0.0
 44
0.0
 50
0.0
 51
0.0
 71
     0
 72
   100
 73
     1
 74
     1
 75
     0
 76
     0
 77
     0
 78
     0
281
     0
 65
     1
110
0.0
120
0.0
130
0.0
111
1.0
121
0.0
131
0.0
112
0.0
122
1.0
132
0.0
 79
     0
146
0.0
 60
     3
 61
     5
292
     1
282
     1
141
0.0
142
0.0
 63
   250
421
  3355443
  0
ENDTAB
  0
TABLE
  2
LTYPE
  5
5
330
0
100
AcDbSymbolTable
 70
     1
  0
LTYPE
  5
5B
330
5
100
AcDbSymbolTableRecord
100
AcDbLinetypeTableRecord
  2
ByBlock
 70
     0
  3

 72
    65
 73
     0
 40
0.0
  0
LTYPE
  5
5C
330
5
100
AcDbSymbolTableRecord
100
AcDbLinetypeTableRecord
  2
ByLayer
 70
     0
  3

 72
    65
 73
     0
 40
0.0
  0
LTYPE
  5
5D
330
5
100
AcDbSymbolTableRecord
100
AcDbLinetypeTableRecord
  2
Continuous
 70
     0
  3
Solid line
 72
    65
 73
     0
 40
0.0
  0
ENDTAB
  0
TABLE
  2
LAYER
  5
2
330
0
100
AcDbSymbolTable
 70
     2
  0
LAYER
  5
54
330
2
100
AcDbSymbolTableRecord
100
AcDbLayerTableRecord
  2
0
 70
     0
 62
     7
  6
Continuous
370
    -3
390
F
347
21
348
0
  0
LAYER
  5
78
330
2
100
AcDbSymbolTableRecord
100
AcDbLayerTableRecord
  2
Layer 1
 70
     0
 62
     7
  6
Continuous
370
     0
390
F
347
21
348
0
  0
ENDTAB
  0
TABLE
  2
STYLE
  5
3
330
0
100
AcDbSymbolTable
 70
     2
  0
STYLE
  5
55
330
3
100
AcDbSymbolTableRecord
100
AcDbTextStyleTableRecord
  2
Standard
 70
     0
 40
0.0
 41
1.0
 50
0.0
 71
     0
 42
0.2
  3
txt
  4

  0
STYLE
  5
5A
330
3
100
AcDbSymbolTableRecord
100
AcDbTextStyleTableRecord
  2
Annotative
 70
     0
 40
0.0
 41
1.0
 50
0.0
 71
     0
 42
0.2
  3
txt
  4

1001
AcadAnnotative
1000
AnnotativeData
1002
{
1070
     1
1070
     1
1002
}
  0
ENDTAB
  0
TABLE
  2
VIEW
  5
6
330
0
100
AcDbSymbolTable
 70
     0
  0
ENDTAB
  0
TABLE
  2
UCS
  5
7
330
0
100
AcDbSymbolTable
 70
     0
  0
ENDTAB
  0
TABLE
  2
APPID
  5
9
330
0
100
AcDbSymbolTable
 70
     2
  0
APPID
  5
56
330
9
100
AcDbSymbolTableRecord
100
AcDbRegAppTableRecord
  2
ACAD
 70
     0
  0
APPID
  5
5E
330
9
100
AcDbSymbolTableRecord
100
AcDbRegAppTableRecord
  2
AcadAnnotative
 70
     0
  0
ENDTAB
  0
TABLE
  2
DIMSTYLE
  5
A
330
0
100
AcDbSymbolTable
 70
     2
100
AcDbDimStyleTable
 71
     0
  0
DIMSTYLE
105
58
330
A
100
AcDbSymbolTableRecord
100
AcDbDimStyleTableRecord
  2
Standard
 70
     0
340
55
  0
DIMSTYLE
105
59
330
A
100
AcDbSymbolTableRecord
100
AcDbDimStyleTableRecord
  2
Annotative
 70
     0
340
55
1001
AcadAnnotative
1000
AnnotativeData
1002
{
1070
     1
1070
     1
1002
}
  0
ENDTAB
  0
TABLE
  2
BLOCK_RECORD
  5
1
330
0
100
AcDbSymbolTable
 70
     1
  0
BLOCK_RECORD
  5
70
330
1
100
AcDbSymbolTableRecord
100
AcDbBlockTableRecord
  2
*Model_Space
340
73
 70
     0
280
     1
281
     0
  0
BLOCK_RECORD
  5
6C
330
1
100
AcDbSymbolTableRecord
100
AcDbBlockTableRecord
  2
*Paper_Space
340
6F
 70
     0
280
     1
281
     0
  0
BLOCK_RECORD
  5
74
330
1
100
AcDbSymbolTableRecord
100
AcDbBlockTableRecord
  2
*Paper_Space0
340
77
 70
     0
280
     1
281
     0
  0
ENDTAB
  0
ENDSEC
  0
SECTION
  2
BLOCKS
  0
BLOCK
  5
71
330
70
100
AcDbEntity
  8
0
100
AcDbBlockBegin
  2
*Model_Space
 70
     0
 10
0.0
 20
0.0
 30
0.0
  3
*Model_Space
  1

  0
ENDBLK
  5
72
330
70
100
AcDbEntity
  8
0
100
AcDbBlockEnd
  0
BLOCK
  5
6D
330
6C
100
AcDbEntity
 67
     1
  8
0
100
AcDbBlockBegin
  2
*Paper_Space
 70
     0
 10
0.0
 20
0.0
 30
0.0
  3
*Paper_Space
  1

  0
ENDBLK
  5
6E
330
6C
100
AcDbEntity
 67
     1
  8
0
100
AcDbBlockEnd
  0
BLOCK
  5
75
330
74
100
AcDbEntity
 67
     1
  8
0
100
AcDbBlockBegin
  2
*Paper_Space0
 70
     0
 10
0.0
 20
0.0
 30
0.0
  3
*Paper_Space0
  1

  0
ENDBLK
  5
76
330
74
100
AcDbEntity
 67
     1
  8
0
100
AcDbBlockEnd
  0
ENDSEC
  0
SECTION
  2
ENTITIES
  0
LINE
  5
79
330
70
100
AcDbEntity
  8
Layer 1
 62
    18
420
        0
370
     5
100
AcDbLine
 10
1.109176962777281
 20
-14.9344581220887
 30
0.0
 11
1.109176962777281
 21
-15.40163933144294
 31
0.0
  0
LINE
  5
7A
330
70
100
AcDbEntity
  8
Layer 1
 62
    18
420
        0
370
     5
100
AcDbLine
 10
3.045120587677792
 20
-16.43752898659171
 30
0.0
 11
3.045120587677792
 21
-16.19907191098382
 31
0.0
  0
LINE
  5
7B
330
70
100
AcDbEntity
  8
Layer 1
 62
    18
420
        0
370
     5
100
AcDbLine
 10
3.098651767916281
 20
-16.16987308539923
 30
0.0
 11
3.098651767916281
 21
-16.1455407307454
 31
0.0
  0
LINE
  5
7C
330
70
100
AcDbEntity
  8
Layer 1
 62
    18
420
        0
370
     5
100
AcDbLine
 10
3.677761808678307
 20
-15.86815188769126
 30
0.0
 11
3.677761808678307
 21
-15.85355247489896
 31
0.0
  0
LINE
  5
7D
330
70
100
AcDbEntity
  8
Layer 1
 62
    18
420
        0
370
     5
100
AcDbLine
 10
3.784824169155323
 20
-15.60603111053542
 30
0.0
 11
3.784824169155323
 21
-15.83895306210666
 31
0.0
  0
LINE
  5
7E
330
70
100
AcDbEntity
  8
Layer 1
 62
    18
420
        0
370
     5
100
AcDbLine
 10
4.252005378509579
 20
-15.83895306210666
 30
0.0
 11
4.252005378509579
 21
-15.60603111053542
 31
0.0
  0
LINE
  5
7F
330
70
100
AcDbEntity
  8
Layer 1
 62
    18
420
        0
370
     5
100
AcDbLine
 10
4.359067738986595
 20
-15.86815188769126
 30
0.0
 11
4.359067738986595
 21
-15.85355247489896
 31
0.0
  0
LINE
  5
80
330
70
100
AcDbEntity
  8
Layer 1
 62
    18
420
        0
370
     5
100
AcDbLine
 10
4.938177779748608
 20
-16.16987308539923
 30
0.0
 11
4.938177779748608
 21
-16.1455407307454
 31
0.0
  0
LINE
  5
81
330
70
100
AcDbEntity
  8
Layer 1
 62
    18
420
        0
370
     5
100
AcDbLine
 10
4.991708959987136
 20
-16.43752898659171
 30
0.0
 11
4.991708959987136
 21
-16.19907191098382
 31
0.0
  0
LINE
  5
82
330
70
100
AcDbEntity
  8
Layer 1
 62
    18
420
        0
370
     5
100
AcDbLine
 10
6.938297332296466
 20
-16.19907191098382
 30
0.0
 11
6.938297332296466
 21
-16.43752898659171
 31
0.0
  0
LINE
  5
83
330
70
100
AcDbEntity
  8
Layer 1
 62
    18
420
        0
370
     5
100
AcDbLine
 10
6.991828512534993
 20
-16.1455407307454
 30
0.0
 11
6.991828512534993
 21
-16.16987308539923
 31
0.0
  0
LINE
  5
84
330
70
100
AcDbEntity
  8
Layer 1
 62
    18
420
        0
370
     5
100
AcDbLine
 10
7.532006785850853
 20
-13.04559874784276
 30
0.0
 11
7.532006785850853
 21
-14.01823791937093
 31
0.0
  0
LINE
  5
85
330
70
100
AcDbEntity
  8
Layer 1
 62
    18
420
        0
370
     5
100
AcDbLine
 10
7.532006785850853
 20
-15.65879242762816
 30
0.0
 11
7.532006785850853
 21
-14.01889293399737
 31
0.0
  0
LINE
  5
86
330
70
100
AcDbEntity
  8
Layer 1
 62
    18
420
        0
370
     5
100
AcDbLine
 10
8.291176251051499
 20
-13.04559874784276
 30
0.0
 11
8.291176251051499
 21
-14.01823791937093
 31
0.0
  0
LINE
  5
87
330
70
100
AcDbEntity
  8
Layer 1
 62
    18
420
        0
370
     5
100
AcDbLine
 10
8.291176251051499
 20
-15.65879242762816
 30
0.0
 11
8.291176251051499
 21
-14.01889293399737
 31
0.0
  0
LINE
  5
88
330
70
100
AcDbEntity
  8
Layer 1
 62
    18
420
        0
370
     5
100
AcDbLine
 10
8.831354524367307
 20
-16.1455407307454
 30
0.0
 11
8.831354524367307
 21
-16.16987308539923
 31
0.0
  0
LINE
  5
89
330
70
100
AcDbEntity
  8
Layer 1
 62
    18
420
        0
370
     5
100
AcDbLine
 10
8.884885704605823
 20
-16.19907191098382
 30
0.0
 11
8.884885704605823
 21
-16.43752898659171
 31
0.0
  0
LINE
  5
8A
330
70
100
AcDbEntity
  8
Layer 1
 62
    18
420
        0
370
     5
100
AcDbLine
 10
10.83147407691519
 20
-16.43752898659171
 30
0.0
 11
10.83147407691519
 21
-16.19907191098382
 31
0.0
  0
LINE
  5
8B
330
70
100
AcDbEntity
  8
Layer 1
 62
    18
420
        0
370
     5
100
AcDbLine
 10
10.8850052571537
 20
-16.16987308539923
 30
0.0
 11
10.8850052571537
 21
-16.1455407307454
 31
0.0
  0
LINE
  5
8C
330
70
100
AcDbEntity
  8
Layer 1
 62
    18
420
        0
370
     5
100
AcDbLine
 10
11.46411529791574
 20
-15.86815188769126
 30
0.0
 11
11.46411529791574
 21
-15.85355247489896
 31
0.0
  0
LINE
  5
8D
330
70
100
AcDbEntity
  8
Layer 1
 62
    18
420
        0
370
     5
100
AcDbLine
 10
11.57117765839272
 20
-15.83895306210666
 30
0.0
 11
11.57117765839272
 21
-15.60603111053542
 31
0.0
  0
LINE
  5
8E
330
70
100
AcDbEntity
  8
Layer 1
 62
    18
420
        0
370
     5
100
AcDbLine
 10
12.03835886774701
 20
-15.60603111053542
 30
0.0
 11
12.03835886774701
 21
-15.83895306210666
 31
0.0
  0
LINE
  5
8F
330
70
100
AcDbEntity
  8
Layer 1
 62
    18
420
        0
370
     5
100
AcDbLine
 10
12.14542122822402
 20
-15.86815188769126
 30
0.0
 11
12.14542122822402
 21
-15.85355247489896
 31
0.0
  0
LINE
  5
90
330
70
100
AcDbEntity
  8
Layer 1
 62
    18
420
        0
370
     5
100
AcDbLine
 10
12.72453126898603
 20
-16.16987308539923
 30
0.0
 11
12.72453126898603
 21
-16.1455407307454
 31
0.0
  0
LINE
  5
91
330
70
100
AcDbEntity
  8
Layer 1
 62
    18
420
        0
370
     5
100
AcDbLine
 10
12.77806244922456
 20
-16.43752898659171
 30
0.0
 11
12.77806244922456
 21
-16.19907191098382
 31
0.0
  0
LINE
  5
92
330
70
100
AcDbEntity
  8
Layer 1
 62
    18
420
        0
370
     5
100
AcDbLine
 10
14.71400607402766
 20
-15.40163933144294
 30
0.0
 11
14.71400607402766
 21
-14.9344581220887
 31
0.0
  0
LINE
  5
93
330
70
100
AcDbEntity
  8
Layer 1
 62
    18
420
        0
370
     5
100
AcDbLine
 10
12.76346303643226
 20
-16.45212839938408
 30
0.0
 11
10.8460734897075
 21
-16.45212839938408
 31
0.0
  0
LINE
  5
94
330
70
100
AcDbEntity
  8
Layer 1
 62
    18
420
        0
370
     5
100
AcDbLine
 10
8.870286291813524
 20
-16.45212839938408
 30
0.0
 11
6.952896745088802
 21
-16.45212839938408
 31
0.0
  0
LINE
  5
95
330
70
100
AcDbEntity
  8
Layer 1
 62
    18
420
        0
370
     5
100
AcDbLine
 10
4.9771095471948
 20
-16.45212839938408
 30
0.0
 11
3.05972000047009
 21
-16.45212839938408
 31
0.0
  0
LINE
  5
96
330
70
100
AcDbEntity
  8
Layer 1
 62
    18
420
        0
370
     5
100
AcDbLine
 10
8.870286291813524
 20
-16.1844724981915
 30
0.0
 11
6.952896745088802
 21
-16.1844724981915
 31
0.0
  0
LINE
  5
97
330
70
100
AcDbEntity
  8
Layer 1
 62
    18
420
        0
370
     5
100
AcDbLine
 10
3.05972000047009
 20
-16.1844724981915
 30
0.0
 11
4.9771095471948
 21
-16.1844724981915
 31
0.0
  0
LINE
  5
98
330
70
100
AcDbEntity
  8
Layer 1
 62
    18
420
        0
370
     5
100
AcDbLine
 10
10.8460734897075
 20
-16.1844724981915
 30
0.0
 11
12.76346303643226
 21
-16.1844724981915
 31
0.0
  0
LINE
  5
99
330
70
100
AcDbEntity
  8
Layer 1
 62
    18
420
        0
370
     5
100
AcDbLine
 10
8.816755111575009
 20
-16.13094131795305
 30
0.0
 11
7.006427925327329
 21
-16.13094131795305
 31
0.0
  0
LINE
  5
9A
330
70
100
AcDbEntity
  8
Layer 1
 62
    18
420
        0
370
     5
100
AcDbLine
 10
3.113251180708604
 20
-16.13094131795305
 30
0.0
 11
4.923578366956272
 21
-16.13094131795305
 31
0.0
  0
LINE
  5
9B
330
70
100
AcDbEntity
  8
Layer 1
 62
    18
420
        0
370
     5
100
AcDbLine
 10
10.899604669946
 20
-16.13094131795305
 30
0.0
 11
12.70993185619371
 21
-16.13094131795305
 31
0.0
  0
LINE
  5
9C
330
70
100
AcDbEntity
  8
Layer 1
 62
    18
420
        0
370
     5
100
AcDbLine
 10
3.692361221470643
 20
-15.83895306210666
 30
0.0
 11
4.34446832619426
 21
-15.83895306210666
 31
0.0
  0
LINE
  5
9D
330
70
100
AcDbEntity
  8
Layer 1
 62
    18
420
        0
370
     5
100
AcDbLine
 10
11.47871471070804
 20
-15.83895306210666
 30
0.0
 11
12.13082181543164
 21
-15.83895306210666
 31
0.0
  0
LINE
  5
9E
330
70
100
AcDbEntity
  8
Layer 1
 62
    18
420
        0
370
     5
100
AcDbLine
 10
3.580432390062848
 20
-15.40163933144294
 30
0.0
 11
1.109176962777281
 21
-15.40163933144294
 31
0.0
  0
LINE
  5
9F
330
70
100
AcDbEntity
  8
Layer 1
 62
    18
420
        0
370
     5
100
AcDbLine
 10
12.24275064683944
 20
-15.40163933144294
 30
0.0
 11
14.71400607402766
 21
-15.40163933144294
 31
0.0
  0
LINE
  5
A0
330
70
100
AcDbEntity
  8
Layer 1
 62
    18
420
        0
370
     5
100
AcDbLine
 10
3.580432390062848
 20
-14.9344581220887
 30
0.0
 11
1.109176962777281
 21
-14.9344581220887
 31
0.0
  0
LINE
  5
A1
330
70
100
AcDbEntity
  8
Layer 1
 62
    18
420
        0
370
     5
100
AcDbLine
 10
12.24275064683944
 20
-14.9344581220887
 30
0.0
 11
14.71400607402766
 21
-14.9344581220887
 31
0.0
  0
LINE
  5
A2
330
70
100
AcDbEntity
  8
Layer 1
 62
    18
420
        0
370
     5
100
AcDbLine
 10
1.109176962777281
 20
-4.853537192909684
 30
0.0
 11
1.109176962777281
 21
-5.320718402263953
 31
0.0
  0
LINE
  5
A3
330
70
100
AcDbEntity
  8
Layer 1
 62
    18
420
        0
370
     5
100
AcDbLine
 10
7.532006785850853
 20
-5.08712779758687
 30
0.0
 11
7.532006785850853
 21
-10.46216603677754
 31
0.0
  0
LINE
  5
A4
330
70
100
AcDbEntity
  8
Layer 1
 62
    18
420
        0
370
     5
100
AcDbLine
 10
8.291176251051499
 20
-5.08712779758687
 30
0.0
 11
8.291176251051499
 21
-10.46216603677754
 31
0.0
  0
LINE
  5
A5
330
70
100
AcDbEntity
  8
Layer 1
 62
    18
420
        0
370
     5
100
AcDbLine
 10
4.01841477383247
 20
-5.320718402263953
 30
0.0
 11
1.109176962777281
 21
-5.320718402263953
 31
0.0
  0
LINE
  5
A6
330
70
100
AcDbEntity
  8
Layer 1
 62
    18
420
        0
370
     5
100
AcDbLine
 10
11.80476826306986
 20
-5.320718402263953
 30
0.0
 11
14.71400607402766
 21
-5.320718402263953
 31
0.0
  0
LINE
  5
A7
330
70
100
AcDbEntity
  8
Layer 1
 62
    18
420
        0
370
     5
100
AcDbLine
 10
4.01841477383247
 20
-4.853537192909684
 30
0.0
 11
1.109176962777281
 21
-4.853537192909684
 31
0.0
  0
LINE
  5
A8
330
70
100
AcDbEntity
  8
Layer 1
 62
    18
420
        0
370
     5
100
AcDbLine
 10
11.80476826306986
 20
-4.853537192909684
 30
0.0
 11
14.71400607402766
 21
-4.853537192909684
 31
0.0
  0
LINE
  5
A9
330
70
100
AcDbEntity
  8
Layer 1
 62
    18
420
        0
370
     5
100
AcDbLine
 10
14.71400607402766
 20
-5.320718402263953
 30
0.0
 11
14.71400607402766
 21
-4.853537192909684
 31
0.0
  0
LINE
  5
AA
330
70
100
AcDbEntity
  8
Layer 1
 62
    18
420
        0
370
     5
100
AcDbLine
 10
22.93468940884046
 20
-13.91137686966628
 30
0.0
 11
22.82371831868664
 21
-13.53313546845051
 31
0.0
  0
LINE
  5
AB
330
70
100
AcDbEntity
  8
Layer 1
 62
    18
420
        0
370
     5
100
AcDbLine
 10
22.20622448782888
 20
-14.12509896924692
 30
0.0
 11
22.0952533976751
 21
-13.74685756793373
 31
0.0
  0
LINE
  5
AC
330
70
100
AcDbEntity
  8
Layer 1
 62
    18
420
        0
370
     5
100
AcDbLine
 10
18.16871289519006
 20
-16.4375289865284
 30
0.0
 11
18.16871289520077
 21
-16.19907191092051
 31
0.0
  0
LINE
  5
AD
330
70
100
AcDbEntity
  8
Layer 1
 62
    18
420
        0
370
     5
100
AcDbLine
 10
18.1151817149636
 20
-16.16987308533354
 30
0.0
 11
18.11518171496462
 21
-16.14554073067971
 31
0.0
  0
LINE
  5
AE
330
70
100
AcDbEntity
  8
Layer 1
 62
    18
420
        0
370
     5
100
AcDbLine
 10
17.57500344174433
 20
-14.01889293390743
 30
0.0
 11
17.57500344167071
 21
-15.65879242753817
 31
0.0
  0
LINE
  5
AF
330
70
100
AcDbEntity
  8
Layer 1
 62
    18
420
        0
370
     5
100
AcDbLine
 10
17.53607167421498
 20
-15.86815188759952
 30
0.0
 11
17.53607167421569
 21
-15.85355247480723
 31
0.0
  0
LINE
  5
B0
330
70
100
AcDbEntity
  8
Layer 1
 62
    18
420
        0
370
     5
100
AcDbLine
 10
17.4290093137694
 20
-15.16804872666934
 30
0.0
 11
17.42900931373934
 21
-15.83895306201013
 31
0.0
  0
LINE
  5
B1
330
70
100
AcDbEntity
  8
Layer 1
 62
    18
420
        0
370
     5
100
AcDbLine
 10
16.96182810441521
 20
-15.16804872664839
 30
0.0
 11
16.96182810438515
 21
-15.83895306198918
 31
0.0
  0
LINE
  5
B2
330
70
100
AcDbEntity
  8
Layer 1
 62
    18
420
        0
370
     5
100
AcDbLine
 10
16.85476574390673
 20
-15.86815188756898
 30
0.0
 11
16.85476574390749
 21
-15.85355247477671
 31
0.0
  0
LINE
  5
B3
330
70
100
AcDbEntity
  8
Layer 1
 62
    18
420
        0
370
     5
100
AcDbLine
 10
16.81583397654362
 20
-14.0188929338733
 30
0.0
 11
16.81583397647
 21
-15.65879242750409
 31
0.0
  0
LINE
  5
B4
330
70
100
AcDbEntity
  8
Layer 1
 62
    18
420
        0
370
     5
100
AcDbLine
 10
16.27565570313123
 20
-16.16987308525098
 30
0.0
 11
16.27565570313224
 21
-16.14554073059712
 31
0.0
  0
LINE
  5
B5
330
70
100
AcDbEntity
  8
Layer 1
 62
    18
420
        0
370
     5
100
AcDbLine
 10
16.22212452288067
 20
-16.43752898644098
 30
0.0
 11
16.22212452289134
 21
-16.19907191083312
 31
0.0
  0
LINE
  5
B6
330
70
100
AcDbEntity
  8
Layer 1
 62
    18
420
        0
370
     5
100
AcDbLine
 10
18.15411348239705
 20
-16.45212839932012
 30
0.0
 11
16.23672393567242
 21
-16.45212839923409
 31
0.0
  0
LINE
  5
B7
330
70
100
AcDbEntity
  8
Layer 1
 62
    18
420
        0
370
     5
100
AcDbLine
 10
16.23672393568434
 20
-16.18447249804151
 30
0.0
 11
18.15411348240903
 21
-16.18447249812756
 31
0.0
  0
LINE
  5
B8
330
70
100
AcDbEntity
  8
Layer 1
 62
    18
420
        0
370
     5
100
AcDbLine
 10
16.29025511592529
 20
-16.13094131780536
 30
0.0
 11
18.10058230217297
 21
-16.13094131788666
 31
0.0
  0
LINE
  5
B9
330
70
100
AcDbEntity
  8
Layer 1
 62
    18
420
        0
370
     5
100
AcDbLine
 10
16.86936515670034
 20
-15.83895306198499
 30
0.0
 11
17.52147226142405
 21
-15.8389530620143
 31
0.0
  0
LINE
  5
BA
330
70
100
AcDbEntity
  8
Layer 1
 62
    18
420
        0
370
     5
100
AcDbLine
 10
22.92479050844516
 20
-13.92949585088579
 30
0.0
 11
22.22434346904836
 21
-14.13499786964227
 31
0.0
  0
LINE
  5
BB
330
70
100
AcDbEntity
  8
Layer 1
 62
    18
420
        0
370
     5
100
AcDbLine
 10
21.66564588025044
 20
-13.42518348053674
 30
0.0
 11
18.16871289532532
 21
-13.4251834803797
 31
0.0
  0
LINE
  5
BC
330
70
100
AcDbEntity
  8
Layer 1
 62
    18
420
        0
370
     5
100
AcDbLine
 10
21.66564588028445
 20
-12.6660140153361
 30
0.0
 11
18.16871289535937
 21
-12.66601401517904
 31
0.0
  0
SPLINE
  5
BD
330
70
100
AcDbEntity
  8
Layer 1
 62
    18
420
        0
370
     5
100
AcDbSpline
210
0.0
220
0.0
230
1.0
 70
     8
 71
     3
 72
     8
 73
     4
 74
     0
 42
0.0000000001
 43
0.0000000001
 40
0.0
 40
0.0
 40
0.0
 40
0.0
 40
1.0
 40
1.0
 40
1.0
 40
1.0
 10
4.252005378509579
 20
-15.60603111053542
 30
0.0
 10
4.252005378509579
 20
-15.23513159061798
 30
0.0
 10
3.951331909980265
 20
-14.9344581220887
 30
0.0
 10
3.580432390062848
 20
-14.9344581220887
 30
0.0
  0
SPLINE
  5
BE
330
70
100
AcDbEntity
  8
Layer 1
 62
    18
420
        0
370
     5
100
AcDbSpline
210
0.0
220
0.0
230
1.0
 70
     8
 71
     3
 72
     8
 73
     4
 74
     0
 42
0.0000000001
 43
0.0000000001
 40
0.0
 40
0.0
 40
0.0
 40
0.0
 40
1.0
 40
1.0
 40
1.0
 40
1.0
 10
7.059857895428636
 20
-16.13094131795305
 30
0.0
 10
7.320618527204588
 20
-16.13094131795305
 30
0.0
 10
7.532006785753499
 20
-15.91955305940413
 30
0.0
 10
7.532006785753499
 20
-15.65879242762816
 30
0.0
  0
SPLINE
  5
BF
330
70
100
AcDbEntity
  8
Layer 1
 62
    18
420
        0
370
     5
100
AcDbSpline
210
0.0
220
0.0
230
1.0
 70
     8
 71
     3
 72
     8
 73
     4
 74
     0
 42
0.0000000001
 43
0.0000000001
 40
0.0
 40
0.0
 40
0.0
 40
0.0
 40
1.0
 40
1.0
 40
1.0
 40
1.0
 10
3.784824169155323
 20
-15.60603111053542
 30
0.0
 10
3.784824169155323
 20
-15.49314864795188
 30
0.0
 10
3.693314852646393
 20
-15.40163933144294
 30
0.0
 10
3.580432390062848
 20
-15.40163933144294
 30
0.0
  0
SPLINE
  5
C0
330
70
100
AcDbEntity
  8
Layer 1
 62
    18
420
        0
370
     5
100
AcDbSpline
210
0.0
220
0.0
230
1.0
 70
     8
 71
     3
 72
     8
 73
     4
 74
     0
 42
0.0000000001
 43
0.0000000001
 40
0.0
 40
0.0
 40
0.0
 40
0.0
 40
1.0
 40
1.0
 40
1.0
 40
1.0
 10
3.045120587677792
 20
-16.43752898659171
 30
0.0
 10
3.045120587677792
 20
-16.4455920196335
 30
0.0
 10
3.051656967428407
 20
-16.45212839938408
 30
0.0
 10
3.05972000047009
 20
-16.45212839938408
 30
0.0
  0
SPLINE
  5
C1
330
70
100
AcDbEntity
  8
Layer 1
 62
    18
420
        0
370
     5
100
AcDbSpline
210
0.0
220
0.0
230
1.0
 70
     8
 71
     3
 72
     8
 73
     4
 74
     0
 42
0.0000000001
 43
0.0000000001
 40
0.0
 40
0.0
 40
0.0
 40
0.0
 40
1.0
 40
1.0
 40
1.0
 40
1.0
 10
4.9771095471948
 20
-16.45212839938408
 30
0.0
 10
4.985172580236494
 20
-16.45212839938408
 30
0.0
 10
4.991708959987136
 20
-16.4455920196335
 30
0.0
 10
4.991708959987136
 20
-16.43752898659171
 30
0.0
  0
SPLINE
  5
C2
330
70
100
AcDbEntity
  8
Layer 1
 62
    18
420
        0
370
     5
100
AcDbSpline
210
0.0
220
0.0
230
1.0
 70
     8
 71
     3
 72
     8
 73
     4
 74
     0
 42
0.0000000001
 43
0.0000000001
 40
0.0
 40
0.0
 40
0.0
 40
0.0
 40
1.0
 40
1.0
 40
1.0
 40
1.0
 10
4.359067738986595
 20
-15.85355247489896
 30
0.0
 10
4.359067738986595
 20
-15.84548944185727
 30
0.0
 10
4.352531359235942
 20
-15.83895306210666
 30
0.0
 10
4.34446832619426
 20
-15.83895306210666
 30
0.0
  0
SPLINE
  5
C3
330
70
100
AcDbEntity
  8
Layer 1
 62
    18
420
        0
370
     5
100
AcDbSpline
210
0.0
220
0.0
230
1.0
 70
     8
 71
     3
 72
     8
 73
     4
 74
     0
 42
0.0000000001
 43
0.0000000001
 40
0.0
 40
0.0
 40
0.0
 40
0.0
 40
1.0
 40
1.0
 40
1.0
 40
1.0
 10
3.113251180708604
 20
-16.13094131795305
 30
0.0
 10
3.105188147666947
 20
-16.13094131795305
 30
0.0
 10
3.098651767916281
 20
-16.13747769770366
 30
0.0
 10
3.098651767916281
 20
-16.1455407307454
 30
0.0
  0
SPLINE
  5
C4
330
70
100
AcDbEntity
  8
Layer 1
 62
    18
420
        0
370
     5
100
AcDbSpline
210
0.0
220
0.0
230
1.0
 70
     8
 71
     3
 72
     8
 73
     4
 74
     0
 42
0.0000000001
 43
0.0000000001
 40
0.0
 40
0.0
 40
0.0
 40
0.0
 40
1.0
 40
1.0
 40
1.0
 40
1.0
 10
3.692361221470643
 20
-15.83895306210666
 30
0.0
 10
3.68429818842896
 20
-15.83895306210666
 30
0.0
 10
3.677761808678307
 20
-15.84548944185727
 30
0.0
 10
3.677761808678307
 20
-15.85355247489896
 30
0.0
  0
SPLINE
  5
C5
330
70
100
AcDbEntity
  8
Layer 1
 62
    18
420
        0
370
     5
100
AcDbSpline
210
0.0
220
0.0
230
1.0
 70
     8
 71
     3
 72
     8
 73
     4
 74
     0
 42
0.0000000001
 43
0.0000000001
 40
0.0
 40
0.0
 40
0.0
 40
0.0
 40
1.0
 40
1.0
 40
1.0
 40
1.0
 10
3.08405235512397
 20
-16.1844724981915
 30
0.0
 10
3.092115388165641
 20
-16.1844724981915
 30
0.0
 10
3.098651767916281
 20
-16.17793611844083
 30
0.0
 10
3.098651767916281
 20
-16.16987308539923
 30
0.0
  0
SPLINE
  5
C6
330
70
100
AcDbEntity
  8
Layer 1
 62
    18
420
        0
370
     5
100
AcDbSpline
210
0.0
220
0.0
230
1.0
 70
     8
 71
     3
 72
     8
 73
     4
 74
     0
 42
0.0000000001
 43
0.0000000001
 40
0.0
 40
0.0
 40
0.0
 40
0.0
 40
1.0
 40
1.0
 40
1.0
 40
1.0
 10
4.991708959987136
 20
-16.19907191098382
 30
0.0
 10
4.991708959987136
 20
-16.19100887794224
 30
0.0
 10
4.985172580236494
 20
-16.1844724981915
 30
0.0
 10
4.9771095471948
 20
-16.1844724981915
 30
0.0
  0
SPLINE
  5
C7
330
70
100
AcDbEntity
  8
Layer 1
 62
    18
420
        0
370
     5
100
AcDbSpline
210
0.0
220
0.0
230
1.0
 70
     8
 71
     3
 72
     8
 73
     4
 74
     0
 42
0.0000000001
 43
0.0000000001
 40
0.0
 40
0.0
 40
0.0
 40
0.0
 40
1.0
 40
1.0
 40
1.0
 40
1.0
 10
3.05972000047009
 20
-16.1844724981915
 30
0.0
 10
3.051656967428407
 20
-16.1844724981915
 30
0.0
 10
3.045120587677792
 20
-16.19100887794224
 30
0.0
 10
3.045120587677792
 20
-16.19907191098382
 30
0.0
  0
SPLINE
  5
C8
330
70
100
AcDbEntity
  8
Layer 1
 62
    18
420
        0
370
     5
100
AcDbSpline
210
0.0
220
0.0
230
1.0
 70
     8
 71
     3
 72
     8
 73
     4
 74
     0
 42
0.0000000001
 43
0.0000000001
 40
0.0
 40
0.0
 40
0.0
 40
0.0
 40
1.0
 40
1.0
 40
1.0
 40
1.0
 10
4.938177779748608
 20
-16.16987308539923
 30
0.0
 10
4.938177779748608
 20
-16.17793611844083
 30
0.0
 10
4.944714159499236
 20
-16.1844724981915
 30
0.0
 10
4.952777192540931
 20
-16.1844724981915
 30
0.0
  0
SPLINE
  5
C9
330
70
100
AcDbEntity
  8
Layer 1
 62
    18
420
        0
370
     5
100
AcDbSpline
210
0.0
220
0.0
230
1.0
 70
     8
 71
     3
 72
     8
 73
     4
 74
     0
 42
0.0000000001
 43
0.0000000001
 40
0.0
 40
0.0
 40
0.0
 40
0.0
 40
1.0
 40
1.0
 40
1.0
 40
1.0
 10
4.938177779748608
 20
-16.1455407307454
 30
0.0
 10
4.938177779748608
 20
-16.13747769770366
 30
0.0
 10
4.93164139999798
 20
-16.13094131795305
 30
0.0
 10
4.923578366956272
 20
-16.13094131795305
 30
0.0
  0
SPLINE
  5
CA
330
70
100
AcDbEntity
  8
Layer 1
 62
    18
420
        0
370
     5
100
AcDbSpline
210
0.0
220
0.0
230
1.0
 70
     8
 71
     3
 72
     8
 73
     4
 74
     0
 42
0.0000000001
 43
0.0000000001
 40
0.0
 40
0.0
 40
0.0
 40
0.0
 40
1.0
 40
1.0
 40
1.0
 40
1.0
 10
1.109176962777281
 20
-14.9344581220887
 30
0.0
 10
1.102776130183075
 20
-14.9344581220887
 30
0.0
 10
1.09712173698684
 20
-14.9386275280296
 30
0.0
 10
1.095229838801161
 20
-14.9447423771
 30
0.0
  0
SPLINE
  5
CB
330
70
100
AcDbEntity
  8
Layer 1
 62
    18
420
        0
370
     5
100
AcDbSpline
210
0.0
220
0.0
230
1.0
 70
     8
 71
     3
 72
     8
 73
     4
 74
     0
 42
0.0000000001
 43
0.0000000001
 40
0.0
 40
0.0
 40
0.0
 40
0.0
 40
1.0
 40
1.0
 40
1.0
 40
1.0
 10
1.095229838801161
 20
-15.39135507643158
 30
0.0
 10
1.09712173698684
 20
-15.39746992550201
 30
0.0
 10
1.102776130183075
 20
-15.40163933144294
 30
0.0
 10
1.109176962777281
 20
-15.40163933144294
 30
0.0
  0
SPLINE
  5
CC
330
70
100
AcDbEntity
  8
Layer 1
 62
    18
420
        0
370
     5
100
AcDbSpline
210
0.0
220
0.0
230
1.0
 70
     8
 71
     3
 72
     8
 73
     4
 74
     0
 42
0.0000000001
 43
0.0000000001
 40
0.0
 40
0.0
 40
0.0
 40
0.0
 40
1.0
 40
1.0
 40
1.0
 40
1.0
 10
6.977229099742682
 20
-16.1844724981915
 30
0.0
 10
6.985292132784289
 20
-16.1844724981915
 30
0.0
 10
6.991828512534917
 20
-16.17793611844099
 30
0.0
 10
6.991828512534993
 20
-16.16987308539933
 30
0.0
  0
SPLINE
  5
CD
330
70
100
AcDbEntity
  8
Layer 1
 62
    18
420
        0
370
     5
100
AcDbSpline
210
0.0
220
0.0
230
1.0
 70
     8
 71
     3
 72
     8
 73
     4
 74
     0
 42
0.0000000001
 43
0.0000000001
 40
0.0
 40
0.0
 40
0.0
 40
0.0
 40
1.0
 40
1.0
 40
1.0
 40
1.0
 10
6.938297332296466
 20
-16.43752898659171
 30
0.0
 10
6.938297332296466
 20
-16.4455920196335
 30
0.0
 10
6.944833712047132
 20
-16.45212839938408
 30
0.0
 10
6.952896745088802
 20
-16.45212839938408
 30
0.0
  0
SPLINE
  5
CE
330
70
100
AcDbEntity
  8
Layer 1
 62
    18
420
        0
370
     5
100
AcDbSpline
210
0.0
220
0.0
230
1.0
 70
     8
 71
     3
 72
     8
 73
     4
 74
     0
 42
0.0000000001
 43
0.0000000001
 40
0.0
 40
0.0
 40
0.0
 40
0.0
 40
1.0
 40
1.0
 40
1.0
 40
1.0
 10
6.952896745088802
 20
-16.1844724981915
 30
0.0
 10
6.944833712047132
 20
-16.1844724981915
 30
0.0
 10
6.938297332296466
 20
-16.19100887794224
 30
0.0
 10
6.938297332296466
 20
-16.19907191098382
 30
0.0
  0
SPLINE
  5
CF
330
70
100
AcDbEntity
  8
Layer 1
 62
    18
420
        0
370
     5
100
AcDbSpline
210
0.0
220
0.0
230
1.0
 70
     8
 71
     3
 72
     8
 73
     4
 74
     0
 42
0.0000000001
 43
0.0000000001
 40
0.0
 40
0.0
 40
0.0
 40
0.0
 40
1.0
 40
1.0
 40
1.0
 40
1.0
 10
7.006427925327329
 20
-16.13094131795305
 30
0.0
 10
6.998364892285634
 20
-16.13094131795305
 30
0.0
 10
6.991828512534993
 20
-16.13747769770366
 30
0.0
 10
6.991828512534993
 20
-16.1455407307454
 30
0.0
  0
SPLINE
  5
D0
330
70
100
AcDbEntity
  8
Layer 1
 62
    18
420
        0
370
     5
100
AcDbSpline
210
0.0
220
0.0
230
1.0
 70
     8
 71
     3
 72
     8
 73
     4
 74
     0
 42
0.0000000001
 43
0.0000000001
 40
0.0
 40
0.0
 40
0.0
 40
0.0
 40
1.0
 40
1.0
 40
1.0
 40
1.0
 10
12.24275064683944
 20
-14.9344581220887
 30
0.0
 10
11.87185112692205
 20
-14.9344581220887
 30
0.0
 10
11.57117765839272
 20
-15.23513159061798
 30
0.0
 10
11.57117765839272
 20
-15.60603111053542
 30
0.0
  0
SPLINE
  5
D1
330
70
100
AcDbEntity
  8
Layer 1
 62
    18
420
        0
370
     5
100
AcDbSpline
210
0.0
220
0.0
230
1.0
 70
     8
 71
     3
 72
     8
 73
     4
 74
     0
 42
0.0000000001
 43
0.0000000001
 40
0.0
 40
0.0
 40
0.0
 40
0.0
 40
1.0
 40
1.0
 40
1.0
 40
1.0
 10
8.291176251051499
 20
-15.65879242762816
 30
0.0
 10
8.291176251051499
 20
-15.91955305940413
 30
0.0
 10
8.502564509600409
 20
-16.13094131795305
 30
0.0
 10
8.763325141376348
 20
-16.13094131795305
 30
0.0
  0
SPLINE
  5
D2
330
70
100
AcDbEntity
  8
Layer 1
 62
    18
420
        0
370
     5
100
AcDbSpline
210
0.0
220
0.0
230
1.0
 70
     8
 71
     3
 72
     8
 73
     4
 74
     0
 42
0.0000000001
 43
0.0000000001
 40
0.0
 40
0.0
 40
0.0
 40
0.0
 40
1.0
 40
1.0
 40
1.0
 40
1.0
 10
12.24275064683944
 20
-15.40163933144294
 30
0.0
 10
12.12986818425588
 20
-15.40163933144294
 30
0.0
 10
12.03835886774701
 20
-15.49314864795188
 30
0.0
 10
12.03835886774701
 20
-15.60603111053542
 30
0.0
  0
SPLINE
  5
D3
330
70
100
AcDbEntity
  8
Layer 1
 62
    18
420
        0
370
     5
100
AcDbSpline
210
0.0
220
0.0
230
1.0
 70
     8
 71
     3
 72
     8
 73
     4
 74
     0
 42
0.0000000001
 43
0.0000000001
 40
0.0
 40
0.0
 40
0.0
 40
0.0
 40
1.0
 40
1.0
 40
1.0
 40
1.0
 10
12.76346303643226
 20
-16.45212839938408
 30
0.0
 10
12.77152606947392
 20
-16.45212839938408
 30
0.0
 10
12.77806244922456
 20
-16.4455920196335
 30
0.0
 10
12.77806244922456
 20
-16.43752898659171
 30
0.0
  0
SPLINE
  5
D4
330
70
100
AcDbEntity
  8
Layer 1
 62
    18
420
        0
370
     5
100
AcDbSpline
210
0.0
220
0.0
230
1.0
 70
     8
 71
     3
 72
     8
 73
     4
 74
     0
 42
0.0000000001
 43
0.0000000001
 40
0.0
 40
0.0
 40
0.0
 40
0.0
 40
1.0
 40
1.0
 40
1.0
 40
1.0
 10
10.83147407691519
 20
-16.43752898659171
 30
0.0
 10
10.83147407691519
 20
-16.4455920196335
 30
0.0
 10
10.83801045666583
 20
-16.45212839938408
 30
0.0
 10
10.8460734897075
 20
-16.45212839938408
 30
0.0
  0
SPLINE
  5
D5
330
70
100
AcDbEntity
  8
Layer 1
 62
    18
420
        0
370
     5
100
AcDbSpline
210
0.0
220
0.0
230
1.0
 70
     8
 71
     3
 72
     8
 73
     4
 74
     0
 42
0.0000000001
 43
0.0000000001
 40
0.0
 40
0.0
 40
0.0
 40
0.0
 40
1.0
 40
1.0
 40
1.0
 40
1.0
 10
12.72453126898603
 20
-16.1455407307454
 30
0.0
 10
12.72453126898603
 20
-16.13747769770366
 30
0.0
 10
12.71799488923539
 20
-16.13094131795305
 30
0.0
 10
12.70993185619371
 20
-16.13094131795305
 30
0.0
  0
SPLINE
  5
D6
330
70
100
AcDbEntity
  8
Layer 1
 62
    18
420
        0
370
     5
100
AcDbSpline
210
0.0
220
0.0
230
1.0
 70
     8
 71
     3
 72
     8
 73
     4
 74
     0
 42
0.0000000001
 43
0.0000000001
 40
0.0
 40
0.0
 40
0.0
 40
0.0
 40
1.0
 40
1.0
 40
1.0
 40
1.0
 10
11.47871471070804
 20
-15.83895306210666
 30
0.0
 10
11.47065167766637
 20
-15.83895306210666
 30
0.0
 10
11.46411529791574
 20
-15.84548944185727
 30
0.0
 10
11.46411529791574
 20
-15.85355247489896
 30
0.0
  0
SPLINE
  5
D7
330
70
100
AcDbEntity
  8
Layer 1
 62
    18
420
        0
370
     5
100
AcDbSpline
210
0.0
220
0.0
230
1.0
 70
     8
 71
     3
 72
     8
 73
     4
 74
     0
 42
0.0000000001
 43
0.0000000001
 40
0.0
 40
0.0
 40
0.0
 40
0.0
 40
1.0
 40
1.0
 40
1.0
 40
1.0
 10
12.14542122822402
 20
-15.85355247489896
 30
0.0
 10
12.14542122822402
 20
-15.84548944185727
 30
0.0
 10
12.13888484847333
 20
-15.83895306210666
 30
0.0
 10
12.13082181543164
 20
-15.83895306210666
 30
0.0
  0
SPLINE
  5
D8
330
70
100
AcDbEntity
  8
Layer 1
 62
    18
420
        0
370
     5
100
AcDbSpline
210
0.0
220
0.0
230
1.0
 70
     8
 71
     3
 72
     8
 73
     4
 74
     0
 42
0.0000000001
 43
0.0000000001
 40
0.0
 40
0.0
 40
0.0
 40
0.0
 40
1.0
 40
1.0
 40
1.0
 40
1.0
 10
12.72453126898603
 20
-16.16987308539923
 30
0.0
 10
12.72453126898603
 20
-16.17793611844083
 30
0.0
 10
12.73106764873665
 20
-16.1844724981915
 30
0.0
 10
12.73913068177833
 20
-16.1844724981915
 30
0.0
  0
SPLINE
  5
D9
330
70
100
AcDbEntity
  8
Layer 1
 62
    18
420
        0
370
     5
100
AcDbSpline
210
0.0
220
0.0
230
1.0
 70
     8
 71
     3
 72
     8
 73
     4
 74
     0
 42
0.0000000001
 43
0.0000000001
 40
0.0
 40
0.0
 40
0.0
 40
0.0
 40
1.0
 40
1.0
 40
1.0
 40
1.0
 10
12.77806244922456
 20
-16.19907191098382
 30
0.0
 10
12.77806244922456
 20
-16.19100887794224
 30
0.0
 10
12.77152606947392
 20
-16.1844724981915
 30
0.0
 10
12.76346303643226
 20
-16.1844724981915
 30
0.0
  0
SPLINE
  5
DA
330
70
100
AcDbEntity
  8
Layer 1
 62
    18
420
        0
370
     5
100
AcDbSpline
210
0.0
220
0.0
230
1.0
 70
     8
 71
     3
 72
     8
 73
     4
 74
     0
 42
0.0000000001
 43
0.0000000001
 40
0.0
 40
0.0
 40
0.0
 40
0.0
 40
1.0
 40
1.0
 40
1.0
 40
1.0
 10
10.8460734897075
 20
-16.1844724981915
 30
0.0
 10
10.83801045666583
 20
-16.1844724981915
 30
0.0
 10
10.83147407691519
 20
-16.19100887794224
 30
0.0
 10
10.83147407691519
 20
-16.19907191098382
 30
0.0
  0
SPLINE
  5
DB
330
70
100
AcDbEntity
  8
Layer 1
 62
    18
420
        0
370
     5
100
AcDbSpline
210
0.0
220
0.0
230
1.0
 70
     8
 71
     3
 72
     8
 73
     4
 74
     0
 42
0.0000000001
 43
0.0000000001
 40
0.0
 40
0.0
 40
0.0
 40
0.0
 40
1.0
 40
1.0
 40
1.0
 40
1.0
 10
10.87040584436135
 20
-16.1844724981915
 30
0.0
 10
10.87846887740305
 20
-16.1844724981915
 30
0.0
 10
10.8850052571537
 20
-16.17793611844083
 30
0.0
 10
10.8850052571537
 20
-16.16987308539923
 30
0.0
  0
SPLINE
  5
DC
330
70
100
AcDbEntity
  8
Layer 1
 62
    18
420
        0
370
     5
100
AcDbSpline
210
0.0
220
0.0
230
1.0
 70
     8
 71
     3
 72
     8
 73
     4
 74
     0
 42
0.0000000001
 43
0.0000000001
 40
0.0
 40
0.0
 40
0.0
 40
0.0
 40
1.0
 40
1.0
 40
1.0
 40
1.0
 10
10.899604669946
 20
-16.13094131795305
 30
0.0
 10
10.89154163690433
 20
-16.13094131795305
 30
0.0
 10
10.8850052571537
 20
-16.13747769770366
 30
0.0
 10
10.8850052571537
 20
-16.1455407307454
 30
0.0
  0
SPLINE
  5
DD
330
70
100
AcDbEntity
  8
Layer 1
 62
    18
420
        0
370
     5
100
AcDbSpline
210
0.0
220
0.0
230
1.0
 70
     8
 71
     3
 72
     8
 73
     4
 74
     0
 42
0.0000000001
 43
0.0000000001
 40
0.0
 40
0.0
 40
0.0
 40
0.0
 40
1.0
 40
1.0
 40
1.0
 40
1.0
 10
14.72795319800389
 20
-14.9447423771
 30
0.0
 10
14.72606129981816
 20
-14.9386275280296
 30
0.0
 10
14.72040690662192
 20
-14.9344581220887
 30
0.0
 10
14.71400607402766
 20
-14.9344581220887
 30
0.0
  0
SPLINE
  5
DE
330
70
100
AcDbEntity
  8
Layer 1
 62
    18
420
        0
370
     5
100
AcDbSpline
210
0.0
220
0.0
230
1.0
 70
     8
 71
     3
 72
     8
 73
     4
 74
     0
 42
0.0000000001
 43
0.0000000001
 40
0.0
 40
0.0
 40
0.0
 40
0.0
 40
1.0
 40
1.0
 40
1.0
 40
1.0
 10
14.71400607402766
 20
-15.40163933144294
 30
0.0
 10
14.72040690662192
 20
-15.40163933144294
 30
0.0
 10
14.72606129981816
 20
-15.39746992550201
 30
0.0
 10
14.72795319800389
 20
-15.39135507643158
 30
0.0
  0
SPLINE
  5
DF
330
70
100
AcDbEntity
  8
Layer 1
 62
    18
420
        0
370
     5
100
AcDbSpline
210
0.0
220
0.0
230
1.0
 70
     8
 71
     3
 72
     8
 73
     4
 74
     0
 42
0.0000000001
 43
0.0000000001
 40
0.0
 40
0.0
 40
0.0
 40
0.0
 40
1.0
 40
1.0
 40
1.0
 40
1.0
 10
8.831354524367307
 20
-16.16987308539923
 30
0.0
 10
8.831354524367307
 20
-16.17793611844083
 30
0.0
 10
8.837890904117898
 20
-16.18447249819142
 30
0.0
 10
8.845953937159542
 20
-16.1844724981915
 30
0.0
  0
SPLINE
  5
E0
330
70
100
AcDbEntity
  8
Layer 1
 62
    18
420
        0
370
     5
100
AcDbSpline
210
0.0
220
0.0
230
1.0
 70
     8
 71
     3
 72
     8
 73
     4
 74
     0
 42
0.0000000001
 43
0.0000000001
 40
0.0
 40
0.0
 40
0.0
 40
0.0
 40
1.0
 40
1.0
 40
1.0
 40
1.0
 10
8.870286291813524
 20
-16.45212839938408
 30
0.0
 10
8.878349324855207
 20
-16.45212839938408
 30
0.0
 10
8.884885704605823
 20
-16.4455920196335
 30
0.0
 10
8.884885704605823
 20
-16.43752898659171
 30
0.0
  0
SPLINE
  5
E1
330
70
100
AcDbEntity
  8
Layer 1
 62
    18
420
        0
370
     5
100
AcDbSpline
210
0.0
220
0.0
230
1.0
 70
     8
 71
     3
 72
     8
 73
     4
 74
     0
 42
0.0000000001
 43
0.0000000001
 40
0.0
 40
0.0
 40
0.0
 40
0.0
 40
1.0
 40
1.0
 40
1.0
 40
1.0
 10
8.884885704605823
 20
-16.19907191098382
 30
0.0
 10
8.884885704605823
 20
-16.19100887794224
 30
0.0
 10
8.878349324855207
 20
-16.1844724981915
 30
0.0
 10
8.870286291813524
 20
-16.1844724981915
 30
0.0
  0
SPLINE
  5
E2
330
70
100
AcDbEntity
  8
Layer 1
 62
    18
420
        0
370
     5
100
AcDbSpline
210
0.0
220
0.0
230
1.0
 70
     8
 71
     3
 72
     8
 73
     4
 74
     0
 42
0.0000000001
 43
0.0000000001
 40
0.0
 40
0.0
 40
0.0
 40
0.0
 40
1.0
 40
1.0
 40
1.0
 40
1.0
 10
8.831354524367345
 20
-16.1455407307454
 30
0.0
 10
8.831354524367345
 20
-16.13747769770366
 30
0.0
 10
8.824818144616704
 20
-16.13094131795305
 30
0.0
 10
8.816755111575009
 20
-16.13094131795305
 30
0.0
  0
SPLINE
  5
E3
330
70
100
AcDbEntity
  8
Layer 1
 62
    18
420
        0
370
     5
100
AcDbSpline
210
0.0
220
0.0
230
1.0
 70
     8
 71
     3
 72
    11
 73
     7
 74
     0
 42
0.0000000001
 43
0.0000000001
 40
0.0
 40
0.0
 40
0.0
 40
0.0
 40
1.0
 40
1.0
 40
1.0
 40
2.0
 40
2.0
 40
2.0
 40
2.0
 10
8.291176251051499
 20
-13.04559874784276
 30
0.0
 10
8.291176251051499
 20
-12.83595988875896
 30
0.0
 10
8.121230377534907
 20
-12.66601401524233
 30
0.0
 10
7.911591518451144
 20
-12.66601401524233
 30
0.0
 10
7.701952659367381
 20
-12.66601401524233
 30
0.0
 10
7.532006785850853
 20
-12.83595988875896
 30
0.0
 10
7.532006785850853
 20
-13.04559874784276
 30
0.0
  0
SPLINE
  5
E4
330
70
100
AcDbEntity
  8
Layer 1
 62
    18
420
        0
370
     5
100
AcDbSpline
210
0.0
220
0.0
230
1.0
 70
     8
 71
     3
 72
     8
 73
     4
 74
     0
 42
0.0000000001
 43
0.0000000001
 40
0.0
 40
0.0
 40
0.0
 40
0.0
 40
1.0
 40
1.0
 40
1.0
 40
1.0
 10
7.911591518409307
 20
-10.82639849722436
 30
0.0
 10
7.938002118807617
 20
-10.82639634005537
 30
0.0
 10
7.964346113105508
 20
-10.82374917296399
 30
0.0
 10
7.99022912973708
 20
-10.81849662423951
 30
0.0
  0
SPLINE
  5
E5
330
70
100
AcDbEntity
  8
Layer 1
 62
    18
420
        0
370
     5
100
AcDbSpline
210
0.0
220
0.0
230
1.0
 70
     8
 71
     3
 72
    17
 73
    13
 74
     0
 42
0.0000000001
 43
0.0000000001
 40
0.0
 40
0.0
 40
0.0
 40
0.0
 40
1.0
 40
1.0
 40
1.0
 40
2.0
 40
2.0
 40
2.0
 40
3.0
 40
3.0
 40
3.0
 40
4.0
 40
4.0
 40
4.0
 40
4.0
 10
3.073681408738454
 20
-5.321180017573333
 30
0.0
 10
3.202944880501023
 20
-5.842941847771119
 30
0.0
 10
3.73070516362121
 20
-6.161124634443441
 30
0.0
 10
4.252466993818958
 20
-6.031861162680885
 30
0.0
 10
4.774228824016719
 20
-5.902597690918228
 30
0.0
 10
5.092411610689067
 20
-5.374837407798079
 30
0.0
 10
4.963148138926473
 20
-4.853075577600305
 30
0.0
 10
4.833884667163866
 20
-4.331313747402583
 30
0.0
 10
4.306124384043717
 20
-4.01313096073021
 30
0.0
 10
3.784362553845956
 20
-4.142394432492841
 30
0.0
 10
3.434020280292202
 20
-4.229189701835517
 30
0.0
 10
3.160476678081156
 20
-4.502733304046538
 30
0.0
 10
3.073681408738454
 20
-4.853075577600305
 30
0.0
  0
SPLINE
  5
E6
330
70
100
AcDbEntity
  8
Layer 1
 62
    18
420
        0
370
     5
100
AcDbSpline
210
0.0
220
0.0
230
1.0
 70
     8
 71
     3
 72
    17
 73
    13
 74
     0
 42
0.0000000001
 43
0.0000000001
 40
0.0
 40
0.0
 40
0.0
 40
0.0
 40
1.0
 40
1.0
 40
1.0
 40
2.0
 40
2.0
 40
2.0
 40
3.0
 40
3.0
 40
3.0
 40
4.0
 40
4.0
 40
4.0
 40
4.0
 10
3.144000940458087
 20
-5.321054235426597
 30
0.0
 10
3.273194944659217
 20
-5.803979660640353
 30
0.0
 10
3.769415786458479
 20
-6.090735635162369
 30
0.0
 10
4.25234121167221
 20
-5.96154163096124
 30
0.0
 10
4.735266636885967
 20
-5.83234762676006
 30
0.0
 10
5.022022611407982
 20
-5.336126784960785
 30
0.0
 10
4.892828607206827
 20
-4.853201359747041
 30
0.0
 10
4.763634603005698
 20
-4.370275934533298
 30
0.0
 10
4.267413761206436
 20
-4.083519960011345
 30
0.0
 10
3.784488335992692
 20
-4.212713964212462
 30
0.0
 10
3.471842293975605
 20
-4.296354195098968
 30
0.0
 10
3.227641171344581
 20
-4.540555317729968
 30
0.0
 10
3.144000940458087
 20
-4.853201359747041
 30
0.0
  0
SPLINE
  5
E7
330
70
100
AcDbEntity
  8
Layer 1
 62
    18
420
        0
370
     5
100
AcDbSpline
210
0.0
220
0.0
230
1.0
 70
     8
 71
     3
 72
    17
 73
    13
 74
     0
 42
0.0000000001
 43
0.0000000001
 40
0.0
 40
0.0
 40
0.0
 40
0.0
 40
1.0
 40
1.0
 40
1.0
 40
2.0
 40
2.0
 40
2.0
 40
3.0
 40
3.0
 40
3.0
 40
4.0
 40
4.0
 40
4.0
 40
4.0
 10
3.771351541528878
 20
-5.321657543913399
 30
0.0
 10
3.900878743806742
 20
-5.458106799358599
 30
0.0
 10
4.116495264713863
 20
-5.463718232168237
 30
0.0
 10
4.252944520159037
 20
-5.334191029890385
 30
0.0
 10
4.389393775604187
 20
-5.204663827612547
 30
0.0
 10
4.395005208413875
 20
-4.989047306705414
 30
0.0
 10
4.265478006136037
 20
-4.852598051260239
 30
0.0
 10
4.135950803858198
 20
-4.716148795815064
 30
0.0
 10
3.920334282951026
 20
-4.710537363005388
 30
0.0
 10
3.78388502750589
 20
-4.840064565283278
 30
0.0
 10
3.779599196186495
 20
-4.844132976931379
 30
0.0
 10
3.775419953176992
 20
-4.848312219940857
 30
0.0
 10
3.771351541528878
 20
-4.852598051260239
 30
0.0
  0
SPLINE
  5
E8
330
70
100
AcDbEntity
  8
Layer 1
 62
    18
420
        0
370
     5
100
AcDbSpline
210
0.0
220
0.0
230
1.0
 70
     8
 71
     3
 72
    14
 73
    10
 74
     0
 42
0.0000000001
 43
0.0000000001
 40
0.0
 40
0.0
 40
0.0
 40
0.0
 40
1.0
 40
1.0
 40
1.0
 40
2.0
 40
2.0
 40
2.0
 40
3.0
 40
3.0
 40
3.0
 40
3.0
 10
3.925796960463559
 20
-5.321056767938872
 30
0.0
 10
4.054992363332631
 20
-5.372208173825192
 30
0.0
 10
4.201192338298192
 20
-5.308941013824778
 30
0.0
 10
4.252343744184523
 20
-5.179745610955743
 30
0.0
 10
4.303495150070817
 20
-5.05055020808662
 30
0.0
 10
4.240227990070378
 20
-4.904350233121097
 30
0.0
 10
4.111032587201344
 20
-4.853198827234765
 30
0.0
 10
4.051534197669891
 20
-4.829642058147656
 30
0.0
 10
3.985295349497088
 20
-4.82964205821175
 30
0.0
 10
3.925796960011186
 20
-4.853198827413873
 30
0.0
  0
SPLINE
  5
E9
330
70
100
AcDbEntity
  8
Layer 1
 62
    18
420
        0
370
     5
100
AcDbSpline
210
0.0
220
0.0
230
1.0
 70
     8
 71
     3
 72
    11
 73
     7
 74
     0
 42
0.0000000001
 43
0.0000000001
 40
0.0
 40
0.0
 40
0.0
 40
0.0
 40
1.0
 40
1.0
 40
1.0
 40
2.0
 40
2.0
 40
2.0
 40
2.0
 10
4.01841477383247
 20
-5.320718402263953
 30
0.0
 10
4.14742330249938
 20
-5.320718402263953
 30
0.0
 10
4.252005378509579
 20
-5.216136326253768
 30
0.0
 10
4.252005378509579
 20
-5.08712779758687
 30
0.0
 10
4.252005378509579
 20
-4.958119268919871
 30
0.0
 10
4.14742330249938
 20
-4.853537192909684
 30
0.0
 10
4.01841477383247
 20
-4.853537192909684
 30
0.0
  0
SPLINE
  5
EA
330
70
100
AcDbEntity
  8
Layer 1
 62
    18
420
        0
370
     5
100
AcDbSpline
210
0.0
220
0.0
230
1.0
 70
     8
 71
     3
 72
     8
 73
     4
 74
     0
 42
0.0000000001
 43
0.0000000001
 40
0.0
 40
0.0
 40
0.0
 40
0.0
 40
1.0
 40
1.0
 40
1.0
 40
1.0
 10
1.109176962777281
 20
-4.853537192909684
 30
0.0
 10
1.102776130183113
 20
-4.853537192909684
 30
0.0
 10
1.097121736986903
 20
-4.857706598850565
 30
0.0
 10
1.095229838801199
 20
-4.86382144792094
 30
0.0
  0
SPLINE
  5
EB
330
70
100
AcDbEntity
  8
Layer 1
 62
    18
420
        0
370
     5
100
AcDbSpline
210
0.0
220
0.0
230
1.0
 70
     8
 71
     3
 72
     8
 73
     4
 74
     0
 42
0.0000000001
 43
0.0000000001
 40
0.0
 40
0.0
 40
0.0
 40
0.0
 40
1.0
 40
1.0
 40
1.0
 40
1.0
 10
1.095229838801199
 20
-5.310434147252761
 30
0.0
 10
1.097121736986903
 20
-5.316548996323072
 30
0.0
 10
1.102776130183113
 20
-5.320718402263953
 30
0.0
 10
1.109176962777281
 20
-5.320718402263953
 30
0.0
  0
SPLINE
  5
EC
330
70
100
AcDbEntity
  8
Layer 1
 62
    18
420
        0
370
     5
100
AcDbSpline
210
0.0
220
0.0
230
1.0
 70
     8
 71
     3
 72
    17
 73
    13
 74
     0
 42
0.0000000001
 43
0.0000000001
 40
0.0
 40
0.0
 40
0.0
 40
0.0
 40
1.0
 40
1.0
 40
1.0
 40
2.0
 40
2.0
 40
2.0
 40
3.0
 40
3.0
 40
3.0
 40
4.0
 40
4.0
 40
4.0
 40
4.0
 10
8.292467693281233
 20
-5.982803471170351
 30
0.0
 10
8.787135708595807
 20
-5.772451368237802
 30
0.0
 10
9.017619294967225
 20
-5.200919638071417
 30
0.0
 10
8.807267192034689
 20
-4.706251622756743
 30
0.0
 10
8.596915089102164
 20
-4.211583607442157
 30
0.0
 10
8.025383358935691
 20
-3.981100021070751
 30
0.0
 10
7.530715343621105
 20
-4.191452124003287
 30
0.0
 10
7.036047328306494
 20
-4.401804226935862
 30
0.0
 10
6.805563741935101
 20
-4.973335957102285
 30
0.0
 10
7.015915844867612
 20
-5.468003972416895
 30
0.0
 10
7.11445839284512
 20
-5.699738506811867
 30
0.0
 10
7.298980809153767
 20
-5.884260923137326
 30
0.0
 10
7.530715343539807
 20
-5.982803471135778
 30
0.0
  0
SPLINE
  5
ED
330
70
100
AcDbEntity
  8
Layer 1
 62
    18
420
        0
370
     5
100
AcDbSpline
210
0.0
220
0.0
230
1.0
 70
     8
 71
     3
 72
    17
 73
    13
 74
     0
 42
0.0000000001
 43
0.0000000001
 40
0.0
 40
0.0
 40
0.0
 40
0.0
 40
1.0
 40
1.0
 40
1.0
 40
2.0
 40
2.0
 40
2.0
 40
3.0
 40
3.0
 40
3.0
 40
4.0
 40
4.0
 40
4.0
 40
4.0
 10
8.29262607806768
 20
-5.908184308854338
 30
0.0
 10
8.746083067989994
 20
-5.697744732419575
 30
0.0
 10
8.943087606153337
 20
-5.159550227892609
 30
0.0
 10
8.732648029718612
 20
-4.706093237970308
 30
0.0
 10
8.522208453283976
 20
-4.252636248047957
 30
0.0
 10
7.984013948756947
 20
-4.055631709884639
 30
0.0
 10
7.530556958834621
 20
-4.266071286319376
 30
0.0
 10
7.077099968912344
 20
-4.476510862754063
 30
0.0
 10
6.880095430748976
 20
-5.014705367281004
 30
0.0
 10
7.090535007183675
 20
-5.468162357203381
 30
0.0
 10
7.180597337488507
 20
-5.662229432880457
 30
0.0
 10
7.336489885419584
 20
-5.818121980329149
 30
0.0
 10
7.530556961375408
 20
-5.908184310033434
 30
0.0
  0
SPLINE
  5
EE
330
70
100
AcDbEntity
  8
Layer 1
 62
    18
420
        0
370
     5
100
AcDbSpline
210
0.0
220
0.0
230
1.0
 70
     8
 71
     3
 72
    11
 73
     7
 74
     0
 42
0.0000000001
 43
0.0000000001
 40
0.0
 40
0.0
 40
0.0
 40
0.0
 40
1.0
 40
1.0
 40
1.0
 40
2.0
 40
2.0
 40
2.0
 40
2.0
 10
8.291176251051499
 20
-5.08712779758687
 30
0.0
 10
8.291176251051499
 20
-4.877488938503057
 30
0.0
 10
8.121230377534907
 20
-4.707543064986528
 30
0.0
 10
7.911591518451144
 20
-4.707543064986528
 30
0.0
 10
7.701952659367381
 20
-4.707543064986528
 30
0.0
 10
7.532006785850853
 20
-4.877488938503057
 30
0.0
 10
7.532006785850853
 20
-5.08712779758687
 30
0.0
  0
SPLINE
  5
EF
330
70
100
AcDbEntity
  8
Layer 1
 62
    18
420
        0
370
     5
100
AcDbSpline
210
0.0
220
0.0
230
1.0
 70
     8
 71
     3
 72
     8
 73
     4
 74
     0
 42
0.0000000001
 43
0.0000000001
 40
0.0
 40
0.0
 40
0.0
 40
0.0
 40
1.0
 40
1.0
 40
1.0
 40
1.0
 10
14.71400607402766
 20
-5.320718402263953
 30
0.0
 10
14.72040690662187
 20
-5.320718402263953
 30
0.0
 10
14.72606129981811
 20
-5.316548996323072
 30
0.0
 10
14.72795319800389
 20
-5.310434147252761
 30
0.0
  0
SPLINE
  5
F0
330
70
100
AcDbEntity
  8
Layer 1
 62
    18
420
        0
370
     5
100
AcDbSpline
210
0.0
220
0.0
230
1.0
 70
     8
 71
     3
 72
    17
 73
    13
 74
     0
 42
0.0000000001
 43
0.0000000001
 40
0.0
 40
0.0
 40
0.0
 40
0.0
 40
1.0
 40
1.0
 40
1.0
 40
2.0
 40
2.0
 40
2.0
 40
3.0
 40
3.0
 40
3.0
 40
4.0
 40
4.0
 40
4.0
 40
4.0
 10
12.74950162816387
 20
-4.853075577600305
 30
0.0
 10
12.62023815640128
 20
-4.331313747402583
 30
0.0
 10
12.09247787328114
 20
-4.01313096073021
 30
0.0
 10
11.57071604308335
 20
-4.142394432492841
 30
0.0
 10
11.04895421288559
 20
-4.27165790425541
 30
0.0
 10
10.73077142621323
 20
-4.799418187375559
 30
0.0
 10
10.86003489797584
 20
-5.321180017573333
 30
0.0
 10
10.98929836973842
 20
-5.842941847771119
 30
0.0
 10
11.51705865285862
 20
-6.161124634443441
 30
0.0
 10
12.03882048305639
 20
-6.031861162680885
 30
0.0
 10
12.38916275661015
 20
-5.945065893338147
 30
0.0
 10
12.6627063588212
 20
-5.671522291127088
 30
0.0
 10
12.74950162816387
 20
-5.321180017573333
 30
0.0
  0
SPLINE
  5
F1
330
70
100
AcDbEntity
  8
Layer 1
 62
    18
420
        0
370
     5
100
AcDbSpline
210
0.0
220
0.0
230
1.0
 70
     8
 71
     3
 72
    17
 73
    13
 74
     0
 42
0.0000000001
 43
0.0000000001
 40
0.0
 40
0.0
 40
0.0
 40
0.0
 40
1.0
 40
1.0
 40
1.0
 40
2.0
 40
2.0
 40
2.0
 40
3.0
 40
3.0
 40
3.0
 40
4.0
 40
4.0
 40
4.0
 40
4.0
 10
12.67918209644421
 20
-4.853201359747041
 30
0.0
 10
12.54998809224308
 20
-4.370275934533298
 30
0.0
 10
12.05376725044382
 20
-4.083519960011345
 30
0.0
 10
11.57084182523008
 20
-4.212713964212462
 30
0.0
 10
11.08791640001633
 20
-4.341907968413604
 30
0.0
 10
10.80116042549434
 20
-4.838128810212865
 30
0.0
 10
10.93035442969548
 20
-5.321054235426597
 30
0.0
 10
11.05954843389661
 20
-5.803979660640353
 30
0.0
 10
11.55576927569588
 20
-6.090735635162369
 30
0.0
 10
12.03869470090964
 20
-5.96154163096124
 30
0.0
 10
12.35134074292672
 20
-5.877901400074758
 30
0.0
 10
12.59554186555776
 20
-5.633700277443709
 30
0.0
 10
12.67918209644421
 20
-5.321054235426597
 30
0.0
  0
SPLINE
  5
F2
330
70
100
AcDbEntity
  8
Layer 1
 62
    18
420
        0
370
     5
100
AcDbSpline
210
0.0
220
0.0
230
1.0
 70
     8
 71
     3
 72
    17
 73
    13
 74
     0
 42
0.0000000001
 43
0.0000000001
 40
0.0
 40
0.0
 40
0.0
 40
0.0
 40
1.0
 40
1.0
 40
1.0
 40
2.0
 40
2.0
 40
2.0
 40
3.0
 40
3.0
 40
3.0
 40
4.0
 40
4.0
 40
4.0
 40
4.0
 10
12.05183149537343
 20
-4.852598051260239
 30
0.0
 10
11.92230429309558
 20
-4.716148795815064
 30
0.0
 10
11.70668777218843
 20
-4.710537363005388
 30
0.0
 10
11.57023851674329
 20
-4.840064565283278
 30
0.0
 10
11.4337892612981
 20
-4.969591767561092
 30
0.0
 10
11.42817782848842
 20
-5.185208288468225
 30
0.0
 10
11.5577050307663
 20
-5.321657543913399
 30
0.0
 10
11.68723223304416
 20
-5.458106799358599
 30
0.0
 10
11.90284875395128
 20
-5.463718232168237
 30
0.0
 10
12.03929800939643
 20
-5.334191029890385
 30
0.0
 10
12.04358384071583
 20
-5.33012261824231
 30
0.0
 10
12.04776308372531
 20
-5.325943375232782
 30
0.0
 10
12.05183149537343
 20
-5.321657543913399
 30
0.0
  0
SPLINE
  5
F3
330
70
100
AcDbEntity
  8
Layer 1
 62
    18
420
        0
370
     5
100
AcDbSpline
210
0.0
220
0.0
230
1.0
 70
     8
 71
     3
 72
    14
 73
    10
 74
     0
 42
0.0000000001
 43
0.0000000001
 40
0.0
 40
0.0
 40
0.0
 40
0.0
 40
1.0
 40
1.0
 40
1.0
 40
2.0
 40
2.0
 40
2.0
 40
3.0
 40
3.0
 40
3.0
 40
3.0
 10
11.89738607643874
 20
-4.853198827234765
 30
0.0
 10
11.76819067356966
 20
-4.802047421348447
 30
0.0
 10
11.62199069860412
 20
-4.865314581348886
 30
0.0
 10
11.57083929271783
 20
-4.994509984217958
 30
0.0
 10
11.5196878868315
 20
-5.123705387087018
 30
0.0
 10
11.58295504683193
 20
-5.269905362052541
 30
0.0
 10
11.71215044970101
 20
-5.321056767938872
 30
0.0
 10
11.77164883923243
 20
-5.344613537025982
 30
0.0
 10
11.83788768740524
 20
-5.344613536961976
 30
0.0
 10
11.89738607689111
 20
-5.321056767759765
 30
0.0
  0
SPLINE
  5
F4
330
70
100
AcDbEntity
  8
Layer 1
 62
    18
420
        0
370
     5
100
AcDbSpline
210
0.0
220
0.0
230
1.0
 70
     8
 71
     3
 72
    11
 73
     7
 74
     0
 42
0.0000000001
 43
0.0000000001
 40
0.0
 40
0.0
 40
0.0
 40
0.0
 40
1.0
 40
1.0
 40
1.0
 40
2.0
 40
2.0
 40
2.0
 40
2.0
 10
11.80476826306986
 20
-4.853537192909684
 30
0.0
 10
11.67575973440292
 20
-4.853537192909684
 30
0.0
 10
11.57117765839272
 20
-4.958119268919871
 30
0.0
 10
11.57117765839272
 20
-5.08712779758687
 30
0.0
 10
11.57117765839272
 20
-5.216136326253768
 30
0.0
 10
11.67575973440292
 20
-5.320718402263953
 30
0.0
 10
11.80476826306986
 20
-5.320718402263953
 30
0.0
  0
SPLINE
  5
F5
330
70
100
AcDbEntity
  8
Layer 1
 62
    18
420
        0
370
     5
100
AcDbSpline
210
0.0
220
0.0
230
1.0
 70
     8
 71
     3
 72
     8
 73
     4
 74
     0
 42
0.0000000001
 43
0.0000000001
 40
0.0
 40
0.0
 40
0.0
 40
0.0
 40
1.0
 40
1.0
 40
1.0
 40
1.0
 10
14.72795319800389
 20
-4.86382144792094
 30
0.0
 10
14.72606129981811
 20
-4.857706598850565
 30
0.0
 10
14.72040690662187
 20
-4.853537192909684
 30
0.0
 10
14.71400607402766
 20
-4.853537192909684
 30
0.0
  0
SPLINE
  5
F6
330
70
100
AcDbEntity
  8
Layer 1
 62
    18
420
        0
370
     5
100
AcDbSpline
210
0.0
220
0.0
230
1.0
 70
     8
 71
     3
 72
     8
 73
     4
 74
     0
 42
0.0000000001
 43
0.0000000001
 40
0.0
 40
0.0
 40
0.0
 40
0.0
 40
1.0
 40
1.0
 40
1.0
 40
1.0
 10
18.16871289535937
 20
-12.66601401517904
 30
0.0
 10
17.42153850016337
 20
-12.66601401514549
 30
0.0
 10
16.81583397657717
 20
-13.27171853867733
 30
0.0
 10
16.81583397654362
 20
-14.0188929338733
 30
0.0
  0
SPLINE
  5
F7
330
70
100
AcDbEntity
  8
Layer 1
 62
    18
420
        0
370
     5
100
AcDbSpline
210
0.0
220
0.0
230
1.0
 70
     8
 71
     3
 72
     8
 73
     4
 74
     0
 42
0.0000000001
 43
0.0000000001
 40
0.0
 40
0.0
 40
0.0
 40
0.0
 40
1.0
 40
1.0
 40
1.0
 40
1.0
 10
16.31945394154152
 20
-16.13094131779871
 30
0.0
 10
16.3275254495841
 20
-16.13094162981019
 30
0.0
 10
16.33559678903243
 20
-16.13086753766015
 30
0.0
 10
16.34366693115205
 20
-16.13071905079159
 30
0.0
  0
SPLINE
  5
F8
330
70
100
AcDbEntity
  8
Layer 1
 62
    18
420
        0
370
     5
100
AcDbSpline
210
0.0
220
0.0
230
1.0
 70
     8
 71
     3
 72
     8
 73
     4
 74
     0
 42
0.0000000001
 43
0.0000000001
 40
0.0
 40
0.0
 40
0.0
 40
0.0
 40
1.0
 40
1.0
 40
1.0
 40
1.0
 10
18.04717048694621
 20
-16.13071905086808
 30
0.0
 10
18.05524062906574
 20
-16.13086753773728
 30
0.0
 10
18.06331196851417
 20
-16.13094162988816
 30
0.0
 10
18.0713834765568
 20
-16.13094131787741
 30
0.0
  0
SPLINE
  5
F9
330
70
100
AcDbEntity
  8
Layer 1
 62
    18
420
        0
370
     5
100
AcDbSpline
210
0.0
220
0.0
230
1.0
 70
     8
 71
     3
 72
     8
 73
     4
 74
     0
 42
0.0000000001
 43
0.0000000001
 40
0.0
 40
0.0
 40
0.0
 40
0.0
 40
1.0
 40
1.0
 40
1.0
 40
1.0
 10
16.34366693112295
 20
-16.13071905076223
 30
0.0
 10
16.34813528082623
 20
-16.13063682531631
 30
0.0
 10
16.35260317642557
 20
-16.13053154005357
 30
0.0
 10
16.35707043942592
 20
-16.13040319918023
 30
0.0
  0
SPLINE
  5
FA
330
70
100
AcDbEntity
  8
Layer 1
 62
    18
420
        0
370
     5
100
AcDbSpline
210
0.0
220
0.0
230
1.0
 70
     8
 71
     3
 72
     8
 73
     4
 74
     0
 42
0.0000000001
 43
0.0000000001
 40
0.0
 40
0.0
 40
0.0
 40
0.0
 40
1.0
 40
1.0
 40
1.0
 40
1.0
 10
18.03376697867225
 20
-16.13040319935294
 30
0.0
 10
18.0382342416734
 20
-16.1305315402266
 30
0.0
 10
18.04270213727361
 20
-16.13063682548977
 30
0.0
 10
18.04717048697754
 20
-16.13071905093607
 30
0.0
  0
SPLINE
  5
FB
330
70
100
AcDbEntity
  8
Layer 1
 62
    18
420
        0
370
     5
100
AcDbSpline
210
0.0
220
0.0
230
1.0
 70
     8
 71
     3
 72
     8
 73
     4
 74
     0
 42
0.0000000001
 43
0.0000000001
 40
0.0
 40
0.0
 40
0.0
 40
0.0
 40
1.0
 40
1.0
 40
1.0
 40
1.0
 10
22.82371831867127
 20
-13.53313546843934
 30
0.0
 10
22.67291177746241
 20
-13.01911620998079
 30
0.0
 10
22.20133087254928
 20
-12.66601401536006
 30
0.0
 10
21.66564588028445
 20
-12.6660140153361
 30
0.0
  0
SPLINE
  5
FC
330
70
100
AcDbEntity
  8
Layer 1
 62
    18
420
        0
370
     5
100
AcDbSpline
210
0.0
220
0.0
230
1.0
 70
     8
 71
     3
 72
     8
 73
     4
 74
     0
 42
0.0000000001
 43
0.0000000001
 40
0.0
 40
0.0
 40
0.0
 40
0.0
 40
1.0
 40
1.0
 40
1.0
 40
1.0
 10
18.16871289532532
 20
-13.4251834803797
 30
0.0
 10
17.84081621829692
 20
-13.42518348036499
 30
0.0
 10
17.57500344175893
 20
-13.69099625687899
 30
0.0
 10
17.57500344174433
 20
-14.01889293390743
 30
0.0
  0
SPLINE
  5
FD
330
70
100
AcDbEntity
  8
Layer 1
 62
    18
420
        0
370
     5
100
AcDbSpline
210
0.0
220
0.0
230
1.0
 70
     8
 71
     3
 72
     8
 73
     4
 74
     0
 42
0.0000000001
 43
0.0000000001
 40
0.0
 40
0.0
 40
0.0
 40
0.0
 40
1.0
 40
1.0
 40
1.0
 40
1.0
 10
17.57500344167071
 20
-15.65879242753817
 30
0.0
 10
17.57500344165919
 20
-15.91431615905804
 30
0.0
 10
17.77828482794494
 20
-16.12347212075726
 30
0.0
 10
18.03370489972121
 20
-16.13074977859886
 30
0.0
  0
SPLINE
  5
FE
330
70
100
AcDbEntity
  8
Layer 1
 62
    18
420
        0
370
     5
100
AcDbSpline
210
0.0
220
0.0
230
1.0
 70
     8
 71
     3
 72
     8
 73
     4
 74
     0
 42
0.0000000001
 43
0.0000000001
 40
0.0
 40
0.0
 40
0.0
 40
0.0
 40
1.0
 40
1.0
 40
1.0
 40
1.0
 10
16.35713251837706
 20
-16.13074977852362
 30
0.0
 10
16.61255259015398
 20
-16.12347212070489
 30
0.0
 10
16.81583397645853
 20
-15.91431615902393
 30
0.0
 10
16.81583397647
 20
-15.65879242750409
 30
0.0
  0
SPLINE
  5
FF
330
70
100
AcDbEntity
  8
Layer 1
 62
    18
420
        0
370
     5
100
AcDbSpline
210
0.0
220
0.0
230
1.0
 70
     8
 71
     3
 72
     8
 73
     4
 74
     0
 42
0.0000000001
 43
0.0000000001
 40
0.0
 40
0.0
 40
0.0
 40
0.0
 40
1.0
 40
1.0
 40
1.0
 40
1.0
 10
22.09525339771648
 20
-13.74685756797829
 30
0.0
 10
22.03930903565515
 20
-13.5561730043565
 30
0.0
 10
21.86436773221961
 20
-13.42518348054565
 30
0.0
 10
21.66564588025044
 20
-13.42518348053674
 30
0.0
  0
CIRCLE
  5
100
330
70
100
AcDbEntity
  8
Layer 1
 62
    18
420
        0
370
     5
100
AcDbCircle
 10
17.19541870909234
 20
-15.16804872665882
 30
0.0
 40
0.2335906046771059
  0
CIRCLE
  5
101
330
70
100
AcDbEntity
  8
Layer 1
 62
    18
420
        0
370
     5
100
AcDbCircle
 10
17.19541870909235
 20
-15.16804872665878
 30
0.0
 40
0.2233063496674011
  0
SPLINE
  5
102
330
70
100
AcDbEntity
  8
Layer 1
 62
    18
420
        0
370
     5
100
AcDbSpline
210
0.0
220
0.0
230
1.0
 70
     8
 71
     3
 72
     8
 73
     4
 74
     0
 42
0.0000000001
 43
0.0000000001
 40
0.0
 40
0.0
 40
0.0
 40
0.0
 40
1.0
 40
1.0
 40
1.0
 40
1.0
 10
18.11518171496457
 20
-16.14554073067971
 30
0.0
 10
18.11518171496497
 20
-16.13747769763795
 30
0.0
 10
18.10864533521463
 20
-16.13094131788706
 30
0.0
 10
18.10058230217297
 20
-16.13094131788666
 30
0.0
  0
SPLINE
  5
103
330
70
100
AcDbEntity
  8
Layer 1
 62
    18
420
        0
370
     5
100
AcDbSpline
210
0.0
220
0.0
230
1.0
 70
     8
 71
     3
 72
     8
 73
     4
 74
     0
 42
0.0000000001
 43
0.0000000001
 40
0.0
 40
0.0
 40
0.0
 40
0.0
 40
1.0
 40
1.0
 40
1.0
 40
1.0
 10
16.29025511592529
 20
-16.13094131780536
 30
0.0
 10
16.28219208288363
 20
-16.130941317805
 30
0.0
 10
16.27565570313264
 20
-16.13747769755534
 30
0.0
 10
16.27565570313224
 20
-16.14554073059712
 30
0.0
  0
SPLINE
  5
104
330
70
100
AcDbEntity
  8
Layer 1
 62
    18
420
        0
370
     5
100
AcDbSpline
210
0.0
220
0.0
230
1.0
 70
     8
 71
     3
 72
     8
 73
     4
 74
     0
 42
0.0000000001
 43
0.0000000001
 40
0.0
 40
0.0
 40
0.0
 40
0.0
 40
1.0
 40
1.0
 40
1.0
 40
1.0
 10
18.1151817149636
 20
-16.16987308533354
 30
0.0
 10
18.1151817149632
 20
-16.17793611837515
 30
0.0
 10
18.12171809471354
 20
-16.18447249812614
 30
0.0
 10
18.12978112775519
 20
-16.18447249812647
 30
0.0
  0
SPLINE
  5
105
330
70
100
AcDbEntity
  8
Layer 1
 62
    18
420
        0
370
     5
100
AcDbSpline
210
0.0
220
0.0
230
1.0
 70
     8
 71
     3
 72
     8
 73
     4
 74
     0
 42
0.0000000001
 43
0.0000000001
 40
0.0
 40
0.0
 40
0.0
 40
0.0
 40
1.0
 40
1.0
 40
1.0
 40
1.0
 10
16.26105629033817
 20
-16.18447249804265
 30
0.0
 10
16.26911932337988
 20
-16.18447249804297
 30
0.0
 10
16.27565570313082
 20
-16.17793611829256
 30
0.0
 10
16.27565570313123
 20
-16.16987308525098
 30
0.0
  0
SPLINE
  5
106
330
70
100
AcDbEntity
  8
Layer 1
 62
    18
420
        0
370
     5
100
AcDbSpline
210
0.0
220
0.0
230
1.0
 70
     8
 71
     3
 72
     8
 73
     4
 74
     0
 42
0.0000000001
 43
0.0000000001
 40
0.0
 40
0.0
 40
0.0
 40
0.0
 40
1.0
 40
1.0
 40
1.0
 40
1.0
 10
18.16871289520077
 20
-16.19907191092051
 30
0.0
 10
18.16871289520112
 20
-16.1910088778789
 30
0.0
 10
18.16217651545073
 20
-16.18447249812791
 30
0.0
 10
18.15411348240903
 20
-16.18447249812756
 30
0.0
  0
SPLINE
  5
107
330
70
100
AcDbEntity
  8
Layer 1
 62
    18
420
        0
370
     5
100
AcDbSpline
210
0.0
220
0.0
230
1.0
 70
     8
 71
     3
 72
     8
 73
     4
 74
     0
 42
0.0000000001
 43
0.0000000001
 40
0.0
 40
0.0
 40
0.0
 40
0.0
 40
1.0
 40
1.0
 40
1.0
 40
1.0
 10
16.23672393568434
 20
-16.18447249804151
 30
0.0
 10
16.22866090264268
 20
-16.18447249804121
 30
0.0
 10
16.22212452289169
 20
-16.19100887779152
 30
0.0
 10
16.22212452289134
 20
-16.19907191083312
 30
0.0
  0
SPLINE
  5
108
330
70
100
AcDbEntity
  8
Layer 1
 62
    18
420
        0
370
     5
100
AcDbSpline
210
0.0
220
0.0
230
1.0
 70
     8
 71
     3
 72
     8
 73
     4
 74
     0
 42
0.0000000001
 43
0.0000000001
 40
0.0
 40
0.0
 40
0.0
 40
0.0
 40
1.0
 40
1.0
 40
1.0
 40
1.0
 10
17.53607167421569
 20
-15.85355247480723
 30
0.0
 10
17.53607167421609
 20
-15.84548944176552
 30
0.0
 10
17.5295352944657
 20
-15.83895306201467
 30
0.0
 10
17.52147226142405
 20
-15.8389530620143
 30
0.0
  0
SPLINE
  5
109
330
70
100
AcDbEntity
  8
Layer 1
 62
    18
420
        0
370
     5
100
AcDbSpline
210
0.0
220
0.0
230
1.0
 70
     8
 71
     3
 72
     8
 73
     4
 74
     0
 42
0.0000000001
 43
0.0000000001
 40
0.0
 40
0.0
 40
0.0
 40
0.0
 40
1.0
 40
1.0
 40
1.0
 40
1.0
 10
16.86936515670034
 20
-15.83895306198499
 30
0.0
 10
16.86130212365874
 20
-15.83895306198466
 30
0.0
 10
16.85476574390779
 20
-15.84548944173505
 30
0.0
 10
16.85476574390749
 20
-15.85355247477671
 30
0.0
  0
SPLINE
  5
10A
330
70
100
AcDbEntity
  8
Layer 1
 62
    18
420
        0
370
     5
100
AcDbSpline
210
0.0
220
0.0
230
1.0
 70
     8
 71
     3
 72
     8
 73
     4
 74
     0
 42
0.0000000001
 43
0.0000000001
 40
0.0
 40
0.0
 40
0.0
 40
0.0
 40
1.0
 40
1.0
 40
1.0
 40
1.0
 10
16.22212452288067
 20
-16.43752898644098
 30
0.0
 10
16.22212452288027
 20
-16.44559201948275
 30
0.0
 10
16.22866090263071
 20
-16.45212839923369
 30
0.0
 10
16.23672393567242
 20
-16.45212839923409
 30
0.0
  0
SPLINE
  5
10B
330
70
100
AcDbEntity
  8
Layer 1
 62
    18
420
        0
370
     5
100
AcDbSpline
210
0.0
220
0.0
230
1.0
 70
     8
 71
     3
 72
     8
 73
     4
 74
     0
 42
0.0000000001
 43
0.0000000001
 40
0.0
 40
0.0
 40
0.0
 40
0.0
 40
1.0
 40
1.0
 40
1.0
 40
1.0
 10
18.15411348239705
 20
-16.45212839932012
 30
0.0
 10
18.16217651543876
 20
-16.4521283993205
 30
0.0
 10
18.1687128951897
 20
-16.44559201957016
 30
0.0
 10
18.16871289519006
 20
-16.4375289865284
 30
0.0
  0
SPLINE
  5
10C
330
70
100
AcDbEntity
  8
Layer 1
 62
    18
420
        0
370
     5
100
AcDbSpline
210
0.0
220
0.0
230
1.0
 70
     8
 71
     3
 72
     8
 73
     4
 74
     0
 42
0.0000000001
 43
0.0000000001
 40
0.0
 40
0.0
 40
0.0
 40
0.0
 40
1.0
 40
1.0
 40
1.0
 40
1.0
 10
22.92479050840878
 20
-13.929495850866
 30
0.0
 10
22.93252743276708
 20
-13.92722593824528
 30
0.0
 10
22.93695932144131
 20
-13.91911379406092
 30
0.0
 10
22.93468940882066
 20
-13.91137686970256
 30
0.0
  0
SPLINE
  5
10D
330
70
100
AcDbEntity
  8
Layer 1
 62
    18
420
        0
370
     5
100
AcDbSpline
210
0.0
220
0.0
230
1.0
 70
     8
 71
     3
 72
     8
 73
     4
 74
     0
 42
0.0000000001
 43
0.0000000001
 40
0.0
 40
0.0
 40
0.0
 40
0.0
 40
1.0
 40
1.0
 40
1.0
 40
1.0
 10
22.20622448784868
 20
-14.12509896921054
 30
0.0
 10
22.20849440046934
 20
-14.13283589356883
 30
0.0
 10
22.21660654465374
 20
-14.13726778224314
 30
0.0
 10
22.22434346901203
 20
-14.13499786962231
 30
0.0
  0
SPLINE
  5
10E
330
70
100
AcDbEntity
  8
Layer 1
 62
    18
420
        0
370
     5
100
AcDbSpline
210
0.0
220
0.0
230
1.0
 70
     8
 71
     3
 72
   116
 73
   112
 74
     0
 42
0.0000000001
 43
0.0000000001
 40
0.0
 40
0.0
 40
0.0
 40
0.0
 40
1.0
 40
1.0
 40
1.0
 40
2.0
 40
2.0
 40
2.0
 40
3.0
 40
3.0
 40
3.0
 40
4.0
 40
4.0
 40
4.0
 40
5.0
 40
5.0
 40
5.0
 40
6.0
 40
6.0
 40
6.0
 40
7.0
 40
7.0
 40
7.0
 40
8.0
 40
8.0
 40
8.0
 40
9.0
 40
9.0
 40
9.0
 40
10.0
 40
10.0
 40
10.0
 40
11.0
 40
11.0
 40
11.0
 40
12.0
 40
12.0
 40
12.0
 40
13.0
 40
13.0
 40
13.0
 40
14.0
 40
14.0
 40
14.0
 40
15.0
 40
15.0
 40
15.0
 40
16.0
 40
16.0
 40
16.0
 40
17.0
 40
17.0
 40
17.0
 40
18.0
 40
18.0
 40
18.0
 40
19.0
 40
19.0
 40
19.0
 40
20.0
 40
20.0
 40
20.0
 40
21.0
 40
21.0
 40
21.0
 40
22.0
 40
22.0
 40
22.0
 40
23.0
 40
23.0
 40
23.0
 40
24.0
 40
24.0
 40
24.0
 40
25.0
 40
25.0
 40
25.0
 40
26.0
 40
26.0
 40
26.0
 40
27.0
 40
27.0
 40
27.0
 40
28.0
 40
28.0
 40
28.0
 40
29.0
 40
29.0
 40
29.0
 40
30.0
 40
30.0
 40
30.0
 40
31.0
 40
31.0
 40
31.0
 40
32.0
 40
32.0
 40
32.0
 40
33.0
 40
33.0
 40
33.0
 40
34.0
 40
34.0
 40
34.0
 40
35.0
 40
35.0
 40
35.0
 40
36.0
 40
36.0
 40
36.0
 40
37.0
 40
37.0
 40
37.0
 40
37.0
 10
11.46411529791574
 20
-15.86815188769126
 30
0.0
 10
11.46411529791574
 20
-15.87455100449026
 30
0.0
 10
11.4639549324804
 20
-15.88095185715256
 30
0.0
 10
11.46360387474818
 20
-15.88734242480864
 30
0.0
 10
11.4632799503436
 20
-15.8932390641156
 30
0.0
 10
11.46279367178612
 20
-15.89912694683683
 30
0.0
 10
11.46211643033714
 20
-15.90499344575803
 30
0.0
 10
11.4614904434523
 20
-15.91041595997431
 30
0.0
 10
11.46070130457184
 20
-15.91582020462212
 30
0.0
 10
11.45972320239718
 20
-15.92119058813157
 30
0.0
 10
11.45881658687699
 20
-15.92616846586773
 30
0.0
 10
11.4577476202322
 20
-15.93111725121386
 30
0.0
 10
11.45649442867139
 20
-15.93601948961655
 30
0.0
 10
11.45532822944385
 20
-15.94058143115613
 30
0.0
 10
11.45400249412668
 20
-15.94510306372181
 30
0.0
 10
11.45250034673898
 20
-15.94956578779518
 30
0.0
 10
11.45109533270084
 20
-15.95373993876253
 30
0.0
 10
11.44953598362556
 20
-15.95786255332251
 30
0.0
 10
11.44781119431685
 20
-15.96191512035703
 30
0.0
 10
11.44618806297866
 20
-15.9657288317016
 30
0.0
 10
11.44441841857441
 20
-15.96948050929826
 30
0.0
 10
11.44249720913439
 20
-15.97315312487206
 30
0.0
 10
11.44067686150096
 20
-15.97663293135694
 30
0.0
 10
11.43872044515689
 20
-15.98004175928486
 30
0.0
 10
11.43662862884043
 20
-15.98336543900463
 30
0.0
 10
11.43463246079483
 20
-15.98653714351725
 30
0.0
 10
11.4325129920096
 20
-15.98963130859725
 30
0.0
 10
11.43027569109241
 20
-15.99263770043042
 30
0.0
 10
11.42812582459108
 20
-15.9955266015356
 30
0.0
 10
11.42586715582899
 20
-15.99833445575205
 30
0.0
 10
11.42350863368987
 20
-16.00105554672157
 30
0.0
 10
11.42122802025498
 20
-16.00368675230573
 30
0.0
 10
11.41885404136908
 20
-16.00623683204387
 30
0.0
 10
11.41639769414011
 20
-16.00870461560127
 30
0.0
 10
11.41401006504529
 20
-16.01110336108463
 30
0.0
 10
11.41154461177332
 20
-16.01342435057214
 30
0.0
 10
11.40901311031665
 20
-16.01567054459966
 30
0.0
 10
11.40654279840117
 20
-16.01786244532167
 30
0.0
 10
11.40400959264607
 20
-16.01998312268332
 30
0.0
 10
11.40142511977125
 20
-16.02203897142329
 30
0.0
 10
11.39889681082602
 20
-16.02405014391807
 30
0.0
 10
11.3963194387515
 20
-16.02599927479514
 30
0.0
 10
11.3937039601474
 20
-16.02789553371056
 30
0.0
 10
11.39114243925794
 20
-16.0297526725211
 30
0.0
 10
11.38854436790748
 20
-16.03155909838061
 30
0.0
 10
11.38591986931489
 20
-16.03332586898237
 30
0.0
 10
11.38462794103388
 20
-16.03419557449976
 30
0.0
 10
11.3833296089793
 20
-16.03505567086889
 30
0.0
 10
11.38202617389258
 20
-16.03590796331726
 30
0.0
 10
11.38073655240436
 20
-16.03675122330532
 30
0.0
 10
11.37944193547311
 20
-16.03758684390568
 30
0.0
 10
11.37814270603948
 20
-16.03841526137371
 30
0.0
 10
11.37558457185287
 20
-16.0400463844002
 30
0.0
 10
11.37300855585351
 20
-16.04164958222405
 30
0.0
 10
11.37041455748984
 20
-16.0432230631592
 30
0.0
 10
11.36787072519434
 20
-16.0447661141015
 30
0.0
 10
11.36530959934103
 20
-16.04628058644723
 30
0.0
 10
11.3627312800708
 20
-16.04776545968169
 30
0.0
 10
11.35770666271843
 20
-16.05065917416689
 30
0.0
 10
11.3526167481308
 20
-16.05344047701508
 30
0.0
 10
11.34746526995314
 20
-16.05610244184686
 30
0.0
 10
11.34245880260315
 20
-16.058689474065
 30
0.0
 10
11.33739418883259
 20
-16.06116379228304
 30
0.0
 10
11.33227653779608
 20
-16.06352301847369
 30
0.0
 10
11.32726538402477
 20
-16.06583314965271
 30
0.0
 10
11.32220337740899
 20
-16.06803292904682
 30
0.0
 10
11.31709694572398
 20
-16.07012399988796
 30
0.0
 10
11.31205829174967
 20
-16.07218731592823
 30
0.0
 10
11.30697638418828
 20
-16.07414479004301
 30
0.0
 10
11.30185835582083
 20
-16.07600219662698
 30
0.0
 10
11.29676992441578
 20
-16.07784886204477
 30
0.0
 10
11.29164578876158
 20
-16.07959661394299
 30
0.0
 10
11.28649263022871
 20
-16.08125441920232
 30
0.0
 10
11.27613015269667
 20
-16.08458809691529
 30
0.0
 10
11.2656503150071
 20
-16.08755805634157
 30
0.0
 10
11.25510722048459
 20
-16.09026818349353
 30
0.0
 10
11.24973687851359
 20
-16.09164864248115
 30
0.0
 10
11.24435012402797
 20
-16.09296168581078
 30
0.0
 10
11.23895126051013
 20
-16.09422334621947
 30
0.0
 10
11.23344378883817
 20
-16.09551038726747
 30
0.0
 10
11.22792371604234
 20
-16.09674395727491
 30
0.0
 10
11.22239561337033
 20
-16.09793977655628
 30
0.0
 10
11.21672837708378
 20
-16.09916569272059
 30
0.0
 10
11.21105270163584
 20
-16.10035193399322
 30
0.0
 10
11.20537214105439
 20
-16.10151428502318
 30
0.0
 10
11.19952701171269
 20
-16.10271030995987
 30
0.0
 10
11.19367671008774
 20
-16.10388104037788
 30
0.0
 10
11.18782070917287
 20
-16.10502262590171
 30
0.0
 10
11.18179148068938
 20
-16.10619798090213
 30
0.0
 10
11.17575621074513
 20
-16.10734244122303
 30
0.0
 10
11.16971462349181
 20
-16.10845257510909
 30
0.0
 10
11.16349510669756
 20
-16.10959540331944
 30
0.0
 10
11.15726889501542
 20
-16.11070185344045
 30
0.0
 10
11.15103592225721
 20
-16.11176893385901
 30
0.0
 10
11.14461992103214
 20
-16.11286734861838
 30
0.0
 10
11.13819675582909
 20
-16.11392404758036
 30
0.0
 10
11.13176664386713
 20
-16.11493650341986
 30
0.0
 10
11.125147990624
 20
-16.11597864610187
 30
0.0
 10
11.11852197726904
 20
-16.11697391306337
 30
0.0
 10
11.11188882673075
 20
-16.11792008501861
 30
0.0
 10
11.09803356012796
 20
-16.11989644069101
 30
0.0
 10
11.08414715364636
 20
-16.1216585924575
 30
0.0
 10
11.07023572940788
 20
-16.12319448916661
 30
0.0
 10
11.05549335203823
 20
-16.12482212760955
 30
0.0
 10
11.04072287894464
 20
-16.12619567454284
 30
0.0
 10
11.02593293725278
 20
-16.12731055612969
 30
0.0
 10
11.01025262457637
 20
-16.12849255483158
 30
0.0
 10
10.99455042868139
 20
-16.12938380685407
 30
0.0
 10
10.97883675698407
 20
-16.12998669577865
 30
0.0
 10
10.96216697823916
 20
-16.13062626781331
 30
0.0
 10
10.94548428470327
 20
-16.13094131795305
 30
0.0
 10
10.92880349553065
 20
-16.13094131795305
 30
0.0
  0
SPLINE
  5
10F
330
70
100
AcDbEntity
  8
Layer 1
 62
    18
420
        0
370
     5
100
AcDbSpline
210
0.0
220
0.0
230
1.0
 70
     8
 71
     3
 72
   116
 73
   112
 74
     0
 42
0.0000000001
 43
0.0000000001
 40
0.0
 40
0.0
 40
0.0
 40
0.0
 40
1.0
 40
1.0
 40
1.0
 40
2.0
 40
2.0
 40
2.0
 40
3.0
 40
3.0
 40
3.0
 40
4.0
 40
4.0
 40
4.0
 40
5.0
 40
5.0
 40
5.0
 40
6.0
 40
6.0
 40
6.0
 40
7.0
 40
7.0
 40
7.0
 40
8.0
 40
8.0
 40
8.0
 40
9.0
 40
9.0
 40
9.0
 40
10.0
 40
10.0
 40
10.0
 40
11.0
 40
11.0
 40
11.0
 40
12.0
 40
12.0
 40
12.0
 40
13.0
 40
13.0
 40
13.0
 40
14.0
 40
14.0
 40
14.0
 40
15.0
 40
15.0
 40
15.0
 40
16.0
 40
16.0
 40
16.0
 40
17.0
 40
17.0
 40
17.0
 40
18.0
 40
18.0
 40
18.0
 40
19.0
 40
19.0
 40
19.0
 40
20.0
 40
20.0
 40
20.0
 40
21.0
 40
21.0
 40
21.0
 40
22.0
 40
22.0
 40
22.0
 40
23.0
 40
23.0
 40
23.0
 40
24.0
 40
24.0
 40
24.0
 40
25.0
 40
25.0
 40
25.0
 40
26.0
 40
26.0
 40
26.0
 40
27.0
 40
27.0
 40
27.0
 40
28.0
 40
28.0
 40
28.0
 40
29.0
 40
29.0
 40
29.0
 40
30.0
 40
30.0
 40
30.0
 40
31.0
 40
31.0
 40
31.0
 40
32.0
 40
32.0
 40
32.0
 40
33.0
 40
33.0
 40
33.0
 40
34.0
 40
34.0
 40
34.0
 40
35.0
 40
35.0
 40
35.0
 40
36.0
 40
36.0
 40
36.0
 40
37.0
 40
37.0
 40
37.0
 40
37.0
 10
12.14542122822402
 20
-15.86815188769126
 30
0.0
 10
12.14542122822402
 20
-15.87455100449026
 30
0.0
 10
12.14558159365929
 20
-15.88095185715256
 30
0.0
 10
12.14593265137331
 20
-15.88734242480864
 30
0.0
 10
12.1462565757611
 20
-15.8932390641156
 30
0.0
 10
12.14674285428625
 20
-15.89912694683683
 30
0.0
 10
12.14742009571965
 20
-15.90499344575803
 30
0.0
 10
12.1480460825901
 20
-15.91041595997431
 30
0.0
 10
12.14883522147056
 20
-15.91582020462212
 30
0.0
 10
12.14981332366334
 20
-15.92119058813157
 30
0.0
 10
12.15071993920032
 20
-15.92616846586773
 30
0.0
 10
12.15178890587741
 20
-15.93111725121386
 30
0.0
 10
12.15304209743587
 20
-15.93601948961655
 30
0.0
 10
12.15420829666108
 20
-15.94058143115613
 30
0.0
 10
12.15553403194599
 20
-15.94510306372181
 30
0.0
 10
12.15703617931801
 20
-15.94956578779518
 30
0.0
 10
12.15844119334158
 20
-15.95373993876253
 30
0.0
 10
12.16000054241683
 20
-15.95786255332251
 30
0.0
 10
12.16172533172554
 20
-15.96191512035703
 30
0.0
 10
12.16334846306371
 20
-15.9657288317016
 30
0.0
 10
12.16511810746796
 20
-15.96948050929826
 30
0.0
 10
12.167039316908
 20
-15.97315312487206
 30
0.0
 10
12.16885966454149
 20
-15.97663293135694
 30
0.0
 10
12.17081608088549
 20
-15.98004175928486
 30
0.0
 10
12.17290789720199
 20
-15.98336543900463
 30
0.0
 10
12.1749040652476
 20
-15.98653714351725
 30
0.0
 10
12.17702353403279
 20
-15.98963130859725
 30
0.0
 10
12.17926083496715
 20
-15.99263770043042
 30
0.0
 10
12.18141070148496
 20
-15.9955266015356
 30
0.0
 10
12.18366937027943
 20
-15.99833445575205
 30
0.0
 10
12.18602789241744
 20
-16.00105554672157
 30
0.0
 10
12.18830850585123
 20
-16.00368675230573
 30
0.0
 10
12.19068248470474
 20
-16.00623683204387
 30
0.0
 10
12.19313883193467
 20
-16.00870461560127
 30
0.0
 10
12.19552646103044
 20
-16.01110336108463
 30
0.0
 10
12.19799191433478
 20
-16.01342435057214
 30
0.0
 10
12.20052341580746
 20
-16.01567054459966
 30
0.0
 10
12.20299372773853
 20
-16.01786244532167
 30
0.0
 10
12.20552693349363
 20
-16.01998312268332
 30
0.0
 10
12.20811140636846
 20
-16.02203897142329
 30
0.0
 10
12.21063971531369
 20
-16.02405014391807
 30
0.0
 10
12.21321708738825
 20
-16.02599927479514
 30
0.0
 10
12.21583256597233
 20
-16.02789553371056
 30
0.0
 10
12.21839408684225
 20
-16.0297526725211
 30
0.0
 10
12.22099215815398
 20
-16.03155909838061
 30
0.0
 10
12.22361665676681
 20
-16.03332586898237
 30
0.0
 10
12.22490858505767
 20
-16.03419557449976
 30
0.0
 10
12.2262069171365
 20
-16.03505567086889
 30
0.0
 10
12.22751035222281
 20
-16.03590796331726
 30
0.0
 10
12.22879997371066
 20
-16.03675122330532
 30
0.0
 10
12.23009459061743
 20
-16.03758684390568
 30
0.0
 10
12.23139382004155
 20
-16.03841526137371
 30
0.0
 10
12.23395195420941
 20
-16.0400463844002
 30
0.0
 10
12.23652797024786
 20
-16.04164958222405
 30
0.0
 10
12.23912196863087
 20
-16.0432230631592
 30
0.0
 10
12.24166580094538
 20
-16.0447661141015
 30
0.0
 10
12.24422692679872
 20
-16.04628058644723
 30
0.0
 10
12.24680524606209
 20
-16.04776545968169
 30
0.0
 10
12.25182986340122
 20
-16.05065917416689
 30
0.0
 10
12.25691977794966
 20
-16.05344047701508
 30
0.0
 10
12.26207125610805
 20
-16.05610244184686
 30
0.0
 10
12.26707772343919
 20
-16.058689474065
 30
0.0
 10
12.27214233720979
 20
-16.06116379228304
 30
0.0
 10
12.27725998824634
 20
-16.06352301847369
 30
0.0
 10
12.28227114201761
 20
-16.06583314965271
 30
0.0
 10
12.28733314863338
 20
-16.06803292904682
 30
0.0
 10
12.29243958031839
 20
-16.07012399988796
 30
0.0
 10
12.29747823429271
 20
-16.07218731592823
 30
0.0
 10
12.30256014185407
 20
-16.07414479004301
 30
0.0
 10
12.30767817023378
 20
-16.07600219662698
 30
0.0
 10
12.31276660165101
 20
-16.07784886204477
 30
0.0
 10
12.31789073732943
 20
-16.07959661394299
 30
0.0
 10
12.32304389587044
 20
-16.08125441920232
 30
0.0
 10
12.33340637341891
 20
-16.08458809691529
 30
0.0
 10
12.34388621105998
 20
-16.08755805634157
 30
0.0
 10
12.3544293055661
 20
-16.09026818349353
 30
0.0
 10
12.35979964752879
 20
-16.09164864248115
 30
0.0
 10
12.36518640201449
 20
-16.09296168581078
 30
0.0
 10
12.3705852655323
 20
-16.09422334621947
 30
0.0
 10
12.37609273720429
 20
-16.09551038726747
 30
0.0
 10
12.38161281000003
 20
-16.09674395727491
 30
0.0
 10
12.38714091267209
 20
-16.09793977655628
 30
0.0
 10
12.39280814895862
 20
-16.09916569272059
 30
0.0
 10
12.39848382440656
 20
-16.10035193399322
 30
0.0
 10
12.40416438498801
 20
-16.10151428502318
 30
0.0
 10
12.41000951432973
 20
-16.10271030995987
 30
0.0
 10
12.41585981595467
 20
-16.10388104037788
 30
0.0
 10
12.42171581686948
 20
-16.10502262590171
 30
0.0
 10
12.42774504535305
 20
-16.10619798090213
 30
0.0
 10
12.4337803152973
 20
-16.10734244122303
 30
0.0
 10
12.43982190256611
 20
-16.10845257510909
 30
0.0
 10
12.44604141937634
 20
-16.10959540331944
 30
0.0
 10
12.45226763109096
 20
-16.11070185344045
 30
0.0
 10
12.4585006038501
 20
-16.11176893385901
 30
0.0
 10
12.46491660507611
 20
-16.11286734861838
 30
0.0
 10
12.47133977024668
 20
-16.11392404758036
 30
0.0
 10
12.47776988219215
 20
-16.11493650341986
 30
0.0
 10
12.48438853541837
 20
-16.11597864610187
 30
0.0
 10
12.49101454877336
 20
-16.11697391306337
 30
0.0
 10
12.49764769931163
 20
-16.11792008501861
 30
0.0
 10
12.51150296591448
 20
-16.11989644069101
 30
0.0
 10
12.52538937239599
 20
-16.1216585924575
 30
0.0
 10
12.53930079663445
 20
-16.12319448916661
 30
0.0
 10
12.55404317400416
 20
-16.12482212760955
 30
0.0
 10
12.56881364709776
 20
-16.12619567454284
 30
0.0
 10
12.58360358878958
 20
-16.12731055612969
 30
0.0
 10
12.59928390146605
 20
-16.12849255483158
 30
0.0
 10
12.614986097361
 20
-16.12938380685407
 30
0.0
 10
12.63069976905833
 20
-16.12998669577865
 30
0.0
 10
12.64736954780326
 20
-16.13062626781331
 30
0.0
 10
12.66405224133912
 20
-16.13094131795305
 30
0.0
 10
12.68073303060903
 20
-16.13094131795305
 30
0.0
  0
SPLINE
  5
110
330
70
100
AcDbEntity
  8
Layer 1
 62
    18
420
        0
370
     5
100
AcDbSpline
210
0.0
220
0.0
230
1.0
 70
     8
 71
     3
 72
   116
 73
   112
 74
     0
 42
0.0000000001
 43
0.0000000001
 40
0.0
 40
0.0
 40
0.0
 40
0.0
 40
1.0
 40
1.0
 40
1.0
 40
2.0
 40
2.0
 40
2.0
 40
3.0
 40
3.0
 40
3.0
 40
4.0
 40
4.0
 40
4.0
 40
5.0
 40
5.0
 40
5.0
 40
6.0
 40
6.0
 40
6.0
 40
7.0
 40
7.0
 40
7.0
 40
8.0
 40
8.0
 40
8.0
 40
9.0
 40
9.0
 40
9.0
 40
10.0
 40
10.0
 40
10.0
 40
11.0
 40
11.0
 40
11.0
 40
12.0
 40
12.0
 40
12.0
 40
13.0
 40
13.0
 40
13.0
 40
14.0
 40
14.0
 40
14.0
 40
15.0
 40
15.0
 40
15.0
 40
16.0
 40
16.0
 40
16.0
 40
17.0
 40
17.0
 40
17.0
 40
18.0
 40
18.0
 40
18.0
 40
19.0
 40
19.0
 40
19.0
 40
20.0
 40
20.0
 40
20.0
 40
21.0
 40
21.0
 40
21.0
 40
22.0
 40
22.0
 40
22.0
 40
23.0
 40
23.0
 40
23.0
 40
24.0
 40
24.0
 40
24.0
 40
25.0
 40
25.0
 40
25.0
 40
26.0
 40
26.0
 40
26.0
 40
27.0
 40
27.0
 40
27.0
 40
28.0
 40
28.0
 40
28.0
 40
29.0
 40
29.0
 40
29.0
 40
30.0
 40
30.0
 40
30.0
 40
31.0
 40
31.0
 40
31.0
 40
32.0
 40
32.0
 40
32.0
 40
33.0
 40
33.0
 40
33.0
 40
34.0
 40
34.0
 40
34.0
 40
35.0
 40
35.0
 40
35.0
 40
36.0
 40
36.0
 40
36.0
 40
37.0
 40
37.0
 40
37.0
 40
37.0
 10
4.359067738986595
 20
-15.86815188769126
 30
0.0
 10
4.359067738986595
 20
-15.87455100449026
 30
0.0
 10
4.35922810442192
 20
-15.88095185715256
 30
0.0
 10
4.359579162135926
 20
-15.88734242480864
 30
0.0
 10
4.35990308652366
 20
-15.8932390641156
 30
0.0
 10
4.360389365048805
 20
-15.89912694683683
 30
0.0
 10
4.361066606482205
 20
-15.90499344575803
 30
0.0
 10
4.361692593352699
 20
-15.91041595997431
 30
0.0
 10
4.362481732233137
 20
-15.91582020462212
 30
0.0
 10
4.363459834425914
 20
-15.92119058813157
 30
0.0
 10
4.364366449962883
 20
-15.92616846586773
 30
0.0
 10
4.365435416640012
 20
-15.93111725121386
 30
0.0
 10
4.366688608198463
 20
-15.93601948961655
 30
0.0
 10
4.367854807423731
 20
-15.94058143115613
 30
0.0
 10
4.369180542708527
 20
-15.94510306372181
 30
0.0
 10
4.370682690080621
 20
-15.94956578779518
 30
0.0
 10
4.372087704104147
 20
-15.95373993876253
 30
0.0
 10
4.373647053179411
 20
-15.95786255332251
 30
0.0
 10
4.375371842488132
 20
-15.96191512035703
 30
0.0
 10
4.376994973826311
 20
-15.9657288317016
 30
0.0
 10
4.378764618230585
 20
-15.96948050929826
 30
0.0
 10
4.380685827670592
 20
-15.97315312487206
 30
0.0
 10
4.382506175304039
 20
-15.97663293135694
 30
0.0
 10
4.384462591648116
 20
-15.98004175928486
 30
0.0
 10
4.386554407964543
 20
-15.98336543900463
 30
0.0
 10
4.388550576010175
 20
-15.98653714351725
 30
0.0
 10
4.390670044795379
 20
-15.98963130859725
 30
0.0
 10
4.392907345729731
 20
-15.99263770043042
 30
0.0
 10
4.39505721224758
 20
-15.9955266015356
 30
0.0
 10
4.397315881042055
 20
-15.99833445575205
 30
0.0
 10
4.399674403180041
 20
-16.00105554672157
 30
0.0
 10
4.401955016613871
 20
-16.00368675230573
 30
0.0
 10
4.404328995467355
 20
-16.00623683204387
 30
0.0
 10
4.406785342697276
 20
-16.00870461560127
 30
0.0
 10
4.409172971793016
 20
-16.01110336108463
 30
0.0
 10
4.411638425097382
 20
-16.01342435057214
 30
0.0
 10
4.414169926570076
 20
-16.01567054459966
 30
0.0
 10
4.416640238501119
 20
-16.01786244532167
 30
0.0
 10
4.41917344425619
 20
-16.01998312268332
 30
0.0
 10
4.421757917131091
 20
-16.02203897142329
 30
0.0
 10
4.42428622607632
 20
-16.02405014391807
 30
0.0
 10
4.426863598150867
 20
-16.02599927479514
 30
0.0
 10
4.429479076734966
 20
-16.02789553371056
 30
0.0
 10
4.432040597604845
 20
-16.0297526725211
 30
0.0
 10
4.434638668916552
 20
-16.03155909838061
 30
0.0
 10
4.437263167529358
 20
-16.03332586898237
 30
0.0
 10
4.438555095820308
 20
-16.03419557449976
 30
0.0
 10
4.439853427899063
 20
-16.03505567086889
 30
0.0
 10
4.441156862985419
 20
-16.03590796331726
 30
0.0
 10
4.44244648447323
 20
-16.03675122330532
 30
0.0
 10
4.443741101380029
 20
-16.03758684390568
 30
0.0
 10
4.445040330804115
 20
-16.03841526137371
 30
0.0
 10
4.447598464971999
 20
-16.0400463844002
 30
0.0
 10
4.450174481010422
 20
-16.04164958222405
 30
0.0
 10
4.452768479393461
 20
-16.0432230631592
 30
0.0
 10
4.455312311707971
 20
-16.0447661141015
 30
0.0
 10
4.457873437561273
 20
-16.04628058644723
 30
0.0
 10
4.460451756824694
 20
-16.04776545968169
 30
0.0
 10
4.465476374163787
 20
-16.05065917416689
 30
0.0
 10
4.470566288712246
 20
-16.05344047701508
 30
0.0
 10
4.475717766870616
 20
-16.05610244184686
 30
0.0
 10
4.480724234201829
 20
-16.058689474065
 30
0.0
 10
4.485788847972407
 20
-16.06116379228304
 30
0.0
 10
4.49090649900889
 20
-16.06352301847369
 30
0.0
 10
4.495917652780248
 20
-16.06583314965271
 30
0.0
 10
4.500979659396003
 20
-16.06803292904682
 30
0.0
 10
4.506086091081
 20
-16.07012399988796
 30
0.0
 10
4.511124745055313
 20
-16.07218731592823
 30
0.0
 10
4.516206652616713
 20
-16.07414479004301
 30
0.0
 10
4.521324680996409
 20
-16.07600219662698
 30
0.0
 10
4.526413112413579
 20
-16.07784886204477
 30
0.0
 10
4.531537248092022
 20
-16.07959661394299
 30
0.0
 10
4.536690406633056
 20
-16.08125441920232
 30
0.0
 10
4.547052884181551
 20
-16.08458809691529
 30
0.0
 10
4.557532721822591
 20
-16.08755805634157
 30
0.0
 10
4.568075816328713
 20
-16.09026818349353
 30
0.0
 10
4.573446158291403
 20
-16.09164864248115
 30
0.0
 10
4.578832912777025
 20
-16.09296168581078
 30
0.0
 10
4.584231776294877
 20
-16.09422334621947
 30
0.0
 10
4.589739247966841
 20
-16.09551038726747
 30
0.0
 10
4.59525932076263
 20
-16.09674395727491
 30
0.0
 10
4.600787423434641
 20
-16.09793977655628
 30
0.0
 10
4.606454659721217
 20
-16.09916569272059
 30
0.0
 10
4.612130335169151
 20
-16.10035193399322
 30
0.0
 10
4.617810895750582
 20
-16.10151428502318
 30
0.0
 10
4.623656025092296
 20
-16.10271030995987
 30
0.0
 10
4.629506326717242
 20
-16.10388104037788
 30
0.0
 10
4.6353623276321
 20
-16.10502262590171
 30
0.0
 10
4.641391556115586
 20
-16.10619798090213
 30
0.0
 10
4.647426826059851
 20
-16.10734244122303
 30
0.0
 10
4.653468413328684
 20
-16.10845257510909
 30
0.0
 10
4.65968793013893
 20
-16.10959540331944
 30
0.0
 10
4.665914141853514
 20
-16.11070185344045
 30
0.0
 10
4.672147114612648
 20
-16.11176893385901
 30
0.0
 10
4.678563115838692
 20
-16.11286734861838
 30
0.0
 10
4.684986281009299
 20
-16.11392404758036
 30
0.0
 10
4.69141639295478
 20
-16.11493650341986
 30
0.0
 10
4.698035046180974
 20
-16.11597864610187
 30
0.0
 10
4.704661059535939
 20
-16.11697391306337
 30
0.0
 10
4.711294210074242
 20
-16.11792008501861
 30
0.0
 10
4.725149476676998
 20
-16.11989644069101
 30
0.0
 10
4.739035883158622
 20
-16.1216585924575
 30
0.0
 10
4.75294730739712
 20
-16.12319448916661
 30
0.0
 10
4.767689684766789
 20
-16.12482212760955
 30
0.0
 10
4.78246015786034
 20
-16.12619567454284
 30
0.0
 10
4.797250099552203
 20
-16.12731055612969
 30
0.0
 10
4.812930412228638
 20
-16.12849255483158
 30
0.0
 10
4.828632608123598
 20
-16.12938380685407
 30
0.0
 10
4.844346279820911
 20
-16.12998669577865
 30
0.0
 10
4.861016058565875
 20
-16.13062626781331
 30
0.0
 10
4.877698752101713
 20
-16.13094131795305
 30
0.0
 10
4.894379541371651
 20
-16.13094131795305
 30
0.0
  0
SPLINE
  5
111
330
70
100
AcDbEntity
  8
Layer 1
 62
    18
420
        0
370
     5
100
AcDbSpline
210
0.0
220
0.0
230
1.0
 70
     8
 71
     3
 72
   116
 73
   112
 74
     0
 42
0.0000000001
 43
0.0000000001
 40
0.0
 40
0.0
 40
0.0
 40
0.0
 40
1.0
 40
1.0
 40
1.0
 40
2.0
 40
2.0
 40
2.0
 40
3.0
 40
3.0
 40
3.0
 40
4.0
 40
4.0
 40
4.0
 40
5.0
 40
5.0
 40
5.0
 40
6.0
 40
6.0
 40
6.0
 40
7.0
 40
7.0
 40
7.0
 40
8.0
 40
8.0
 40
8.0
 40
9.0
 40
9.0
 40
9.0
 40
10.0
 40
10.0
 40
10.0
 40
11.0
 40
11.0
 40
11.0
 40
12.0
 40
12.0
 40
12.0
 40
13.0
 40
13.0
 40
13.0
 40
14.0
 40
14.0
 40
14.0
 40
15.0
 40
15.0
 40
15.0
 40
16.0
 40
16.0
 40
16.0
 40
17.0
 40
17.0
 40
17.0
 40
18.0
 40
18.0
 40
18.0
 40
19.0
 40
19.0
 40
19.0
 40
20.0
 40
20.0
 40
20.0
 40
21.0
 40
21.0
 40
21.0
 40
22.0
 40
22.0
 40
22.0
 40
23.0
 40
23.0
 40
23.0
 40
24.0
 40
24.0
 40
24.0
 40
25.0
 40
25.0
 40
25.0
 40
26.0
 40
26.0
 40
26.0
 40
27.0
 40
27.0
 40
27.0
 40
28.0
 40
28.0
 40
28.0
 40
29.0
 40
29.0
 40
29.0
 40
30.0
 40
30.0
 40
30.0
 40
31.0
 40
31.0
 40
31.0
 40
32.0
 40
32.0
 40
32.0
 40
33.0
 40
33.0
 40
33.0
 40
34.0
 40
34.0
 40
34.0
 40
35.0
 40
35.0
 40
35.0
 40
36.0
 40
36.0
 40
36.0
 40
37.0
 40
37.0
 40
37.0
 40
37.0
 10
3.677761808678307
 20
-15.86815188769126
 30
0.0
 10
3.677761808678307
 20
-15.87455100449026
 30
0.0
 10
3.67760144324302
 20
-15.88095185715256
 30
0.0
 10
3.677250385510749
 20
-15.88734242480864
 30
0.0
 10
3.676926461106177
 20
-15.8932390641156
 30
0.0
 10
3.676440182548667
 20
-15.89912694683683
 30
0.0
 10
3.675762941099757
 20
-15.90499344575803
 30
0.0
 10
3.675136954214849
 20
-15.91041595997431
 30
0.0
 10
3.674347815334448
 20
-15.91582020462212
 30
0.0
 10
3.673369713159761
 20
-15.92119058813157
 30
0.0
 10
3.672463097639554
 20
-15.92616846586773
 30
0.0
 10
3.671394130994813
 20
-15.93111725121386
 30
0.0
 10
3.67014093943395
 20
-15.93601948961655
 30
0.0
 10
3.668974740206446
 20
-15.94058143115613
 30
0.0
 10
3.667649004889287
 20
-15.94510306372181
 30
0.0
 10
3.66614685750158
 20
-15.94956578779518
 30
0.0
 10
3.664741843463401
 20
-15.95373993876253
 30
0.0
 10
3.663182494388188
 20
-15.95786255332251
 30
0.0
 10
3.661457705079404
 20
-15.96191512035703
 30
0.0
 10
3.659834573741274
 20
-15.9657288317016
 30
0.0
 10
3.658064929337001
 20
-15.96948050929826
 30
0.0
 10
3.656143719896994
 20
-15.97315312487206
 30
0.0
 10
3.654323372263547
 20
-15.97663293135694
 30
0.0
 10
3.652366955919458
 20
-15.98004175928486
 30
0.0
 10
3.650275139603031
 20
-15.98336543900463
 30
0.0
 10
3.648278971557424
 20
-15.98653714351725
 30
0.0
 10
3.646159502772206
 20
-15.98963130859725
 30
0.0
 10
3.643922201854984
 20
-15.99263770043042
 30
0.0
 10
3.641772335353683
 20
-15.9955266015356
 30
0.0
 10
3.639513666591558
 20
-15.99833445575205
 30
0.0
 10
3.637155144452448
 20
-16.00105554672157
 30
0.0
 10
3.634874531017544
 20
-16.00368675230573
 30
0.0
 10
3.632500552131672
 20
-16.00623683204387
 30
0.0
 10
3.630044204902699
 20
-16.00870461560127
 30
0.0
 10
3.627656575807893
 20
-16.01110336108463
 30
0.0
 10
3.625191122535915
 20
-16.01342435057214
 30
0.0
 10
3.622659621079226
 20
-16.01567054459966
 30
0.0
 10
3.62018930916377
 20
-16.01786244532167
 30
0.0
 10
3.617656103408699
 20
-16.01998312268332
 30
0.0
 10
3.615071630533823
 20
-16.02203897142329
 30
0.0
 10
3.61254332158862
 20
-16.02405014391807
 30
0.0
 10
3.609965949514023
 20
-16.02599927479514
 30
0.0
 10
3.607350470909965
 20
-16.02789553371056
 30
0.0
 10
3.604788950020507
 20
-16.0297526725211
 30
0.0
 10
3.602190878670082
 20
-16.03155909838061
 30
0.0
 10
3.599566380077451
 20
-16.03332586898237
 30
0.0
 10
3.598274451796466
 20
-16.03419557449976
 30
0.0
 10
3.596976119741902
 20
-16.03505567086889
 30
0.0
 10
3.595672684655166
 20
-16.03590796331726
 30
0.0
 10
3.594383063166926
 20
-16.03675122330532
 30
0.0
 10
3.593088446235709
 20
-16.03758684390568
 30
0.0
 10
3.591789216802087
 20
-16.03841526137371
 30
0.0
 10
3.589231082615456
 20
-16.0400463844002
 30
0.0
 10
3.586655066616092
 20
-16.04164958222405
 30
0.0
 10
3.58406106825243
 20
-16.0432230631592
 30
0.0
 10
3.581517235956943
 20
-16.0447661141015
 30
0.0
 10
3.578956110103616
 20
-16.04628058644723
 30
0.0
 10
3.576377790833425
 20
-16.04776545968169
 30
0.0
 10
3.57135317348103
 20
-16.05065917416689
 30
0.0
 10
3.5662632588934
 20
-16.05344047701508
 30
0.0
 10
3.561111780715729
 20
-16.05610244184686
 30
0.0
 10
3.556105313365732
 20
-16.058689474065
 30
0.0
 10
3.551040699595192
 20
-16.06116379228304
 30
0.0
 10
3.545923048558695
 20
-16.06352301847369
 30
0.0
 10
3.540911894787338
 20
-16.06583314965271
 30
0.0
 10
3.535849888171595
 20
-16.06803292904682
 30
0.0
 10
3.530743456486586
 20
-16.07012399988796
 30
0.0
 10
3.525704802512286
 20
-16.07218731592823
 30
0.0
 10
3.520622894950886
 20
-16.07414479004301
 30
0.0
 10
3.515504866583404
 20
-16.07600219662698
 30
0.0
 10
3.510416435178361
 20
-16.07784886204477
 30
0.0
 10
3.505292299524171
 20
-16.07959661394299
 30
0.0
 10
3.50013914099126
 20
-16.08125441920232
 30
0.0
 10
3.489776663459262
 20
-16.08458809691529
 30
0.0
 10
3.47929682576969
 20
-16.08755805634157
 30
0.0
 10
3.46875373124721
 20
-16.09026818349353
 30
0.0
 10
3.463383389276196
 20
-16.09164864248115
 30
0.0
 10
3.457996634790548
 20
-16.09296168581078
 30
0.0
 10
3.452597771272722
 20
-16.09422334621947
 30
0.0
 10
3.447090299600745
 20
-16.09551038726747
 30
0.0
 10
3.441570226804957
 20
-16.09674395727491
 30
0.0
 10
3.436042124132932
 20
-16.09793977655628
 30
0.0
 10
3.430374887846318
 20
-16.09916569272059
 30
0.0
 10
3.424699212398435
 20
-16.10035193399322
 30
0.0
 10
3.419018651817016
 20
-16.10151428502318
 30
0.0
 10
3.413173522475264
 20
-16.10271030995987
 30
0.0
 10
3.407323220850344
 20
-16.10388104037788
 30
0.0
 10
3.401467219935473
 20
-16.10502262590171
 30
0.0
 10
3.395437991451987
 20
-16.10619798090213
 30
0.0
 10
3.389402721507722
 20
-16.10734244122303
 30
0.0
 10
3.383361134254414
 20
-16.10845257510909
 30
0.0
 10
3.37714161746016
 20
-16.10959540331944
 30
0.0
 10
3.370915405777989
 20
-16.11070185344045
 30
0.0
 10
3.364682433019778
 20
-16.11176893385901
 30
0.0
 10
3.358266431794731
 20
-16.11286734861838
 30
0.0
 10
3.351843266591647
 20
-16.11392404758036
 30
0.0
 10
3.345413154629732
 20
-16.11493650341986
 30
0.0
 10
3.338794501386599
 20
-16.11597864610187
 30
0.0
 10
3.332168488031634
 20
-16.11697391306337
 30
0.0
 10
3.325535337493331
 20
-16.11792008501861
 30
0.0
 10
3.311680070890563
 20
-16.11989644069101
 30
0.0
 10
3.297793664408977
 20
-16.1216585924575
 30
0.0
 10
3.283882240170466
 20
-16.12319448916661
 30
0.0
 10
3.269139862800809
 20
-16.12482212760955
 30
0.0
 10
3.254369389707246
 20
-16.12619567454284
 30
0.0
 10
3.239579448015383
 20
-16.12731055612969
 30
0.0
 10
3.223899135338974
 20
-16.12849255483158
 30
0.0
 10
3.208196939443988
 20
-16.12938380685407
 30
0.0
 10
3.192483267746663
 20
-16.12998669577865
 30
0.0
 10
3.175813489001724
 20
-16.13062626781331
 30
0.0
 10
3.159130795465873
 20
-16.13094131795305
 30
0.0
 10
3.142450006293238
 20
-16.13094131795305
 30
0.0
  0
SPLINE
  5
112
330
70
100
AcDbEntity
  8
Layer 1
 62
    18
420
        0
370
     5
100
AcDbSpline
210
0.0
220
0.0
230
1.0
 70
     8
 71
     3
 72
    29
 73
    25
 74
     0
 42
0.0000000001
 43
0.0000000001
 40
0.0
 40
0.0
 40
0.0
 40
0.0
 40
1.0
 40
1.0
 40
1.0
 40
2.0
 40
2.0
 40
2.0
 40
3.0
 40
3.0
 40
3.0
 40
4.0
 40
4.0
 40
4.0
 40
5.0
 40
5.0
 40
5.0
 40
6.0
 40
6.0
 40
6.0
 40
7.0
 40
7.0
 40
7.0
 40
8.0
 40
8.0
 40
8.0
 40
8.0
 10
1.064716312056753
 20
-15.16804872676582
 30
0.0
 10
1.064716312056753
 20
-15.15804658798636
 30
0.0
 10
1.064881981806289
 20
-15.14804366799204
 30
0.0
 10
1.065212957688117
 20
-15.13804642072652
 30
0.0
 10
1.06554205797939
 20
-15.12810582635782
 30
0.0
 10
1.06603459618149
 20
-15.11817084060701
 30
0.0
 10
1.066693935810879
 20
-15.10824682429532
 30
0.0
 10
1.067345793332454
 20
-15.09843542454203
 30
0.0
 10
1.068160688075471
 20
-15.08863474668058
 30
0.0
 10
1.069145808523381
 20
-15.07885110651015
 30
0.0
 10
1.070114031558634
 20
-15.06923528156022
 30
0.0
 10
1.071246690742176
 20
-15.05963591483136
 30
0.0
 10
1.072555137819323
 20
-15.0500604365713
 30
0.0
 10
1.073833441698234
 20
-15.04070555228441
 30
0.0
 10
1.075279527378521
 20
-15.03137346848881
 30
0.0
 10
1.076904291602128
 20
-15.02207240162372
 30
0.0
 10
1.078482288422492
 20
-15.01303905775398
 30
0.0
 10
1.08022882561771
 20
-15.00403497092333
 30
0.0
 10
1.082158861388532
 20
-14.99507026145655
 30
0.0
 10
1.084021765187003
 20
-14.98641736933367
 30
0.0
 10
1.086055624390989
 20
-14.97780116290818
 30
0.0
 10
1.088280244629244
 20
-14.96923369400123
 30
0.0
 10
1.090413238785723
 20
-14.96101909593161
 30
0.0
 10
1.092721603721555
 20
-14.95284930332569
 30
0.0
 10
1.095229838803712
 20
-14.94474237709838
 30
0.0
  0
SPLINE
  5
113
330
70
100
AcDbEntity
  8
Layer 1
 62
    18
420
        0
370
     5
100
AcDbSpline
210
0.0
220
0.0
230
1.0
 70
     8
 71
     3
 72
    29
 73
    25
 74
     0
 42
0.0000000001
 43
0.0000000001
 40
0.0
 40
0.0
 40
0.0
 40
0.0
 40
1.0
 40
1.0
 40
1.0
 40
2.0
 40
2.0
 40
2.0
 40
3.0
 40
3.0
 40
3.0
 40
4.0
 40
4.0
 40
4.0
 40
5.0
 40
5.0
 40
5.0
 40
6.0
 40
6.0
 40
6.0
 40
7.0
 40
7.0
 40
7.0
 40
8.0
 40
8.0
 40
8.0
 40
8.0
 10
1.064716312056753
 20
-15.16804872676582
 30
0.0
 10
1.064716312056753
 20
-15.1780508655452
 30
0.0
 10
1.064881981806289
 20
-15.18805378553954
 30
0.0
 10
1.065212957688117
 20
-15.19805103280514
 30
0.0
 10
1.06554205797939
 20
-15.20799162717379
 30
0.0
 10
1.06603459618149
 20
-15.21792661292455
 30
0.0
 10
1.066693935810879
 20
-15.2278506292362
 30
0.0
 10
1.067345793332454
 20
-15.23766202898953
 30
0.0
 10
1.068160688075471
 20
-15.24746270685093
 30
0.0
 10
1.069145808523381
 20
-15.25724634702146
 30
0.0
 10
1.070114031558634
 20
-15.26686217197127
 30
0.0
 10
1.071246690742176
 20
-15.27646153870018
 30
0.0
 10
1.072555137819323
 20
-15.28603701696026
 30
0.0
 10
1.073833441698234
 20
-15.29539190124711
 30
0.0
 10
1.075279527378521
 20
-15.30472398504288
 30
0.0
 10
1.076904291602128
 20
-15.31402505190789
 30
0.0
 10
1.078482288422492
 20
-15.32305839577758
 30
0.0
 10
1.08022882561771
 20
-15.33206248260835
 30
0.0
 10
1.082158861388532
 20
-15.34102719207511
 30
0.0
 10
1.084021765187003
 20
-15.34968008419792
 30
0.0
 10
1.086055624390989
 20
-15.35829629062333
 30
0.0
 10
1.088280244629244
 20
-15.36686375953026
 30
0.0
 10
1.090413238785723
 20
-15.37507835759998
 30
0.0
 10
1.092721603721555
 20
-15.38324815020587
 30
0.0
 10
1.095229838803712
 20
-15.39135507643325
 30
0.0
  0
SPLINE
  5
114
330
70
100
AcDbEntity
  8
Layer 1
 62
    18
420
        0
370
     5
100
AcDbSpline
210
0.0
220
0.0
230
1.0
 70
     8
 71
     3
 72
    29
 73
    25
 74
     0
 42
0.0000000001
 43
0.0000000001
 40
0.0
 40
0.0
 40
0.0
 40
0.0
 40
1.0
 40
1.0
 40
1.0
 40
2.0
 40
2.0
 40
2.0
 40
3.0
 40
3.0
 40
3.0
 40
4.0
 40
4.0
 40
4.0
 40
5.0
 40
5.0
 40
5.0
 40
6.0
 40
6.0
 40
6.0
 40
7.0
 40
7.0
 40
7.0
 40
8.0
 40
8.0
 40
8.0
 40
8.0
 10
14.75846672474825
 20
-15.16804872676582
 30
0.0
 10
14.75846672474825
 20
-15.15804658798636
 30
0.0
 10
14.75830105499866
 20
-15.14804366799204
 30
0.0
 10
14.75797007911685
 20
-15.13804642072652
 30
0.0
 10
14.75764097882559
 20
-15.12810582635782
 30
0.0
 10
14.75714844062349
 20
-15.11817084060701
 30
0.0
 10
14.7564891009941
 20
-15.10824682429532
 30
0.0
 10
14.75583724347264
 20
-15.09843542454203
 30
0.0
 10
14.75502234872955
 20
-15.08863474668058
 30
0.0
 10
14.7540372282816
 20
-15.07885110651015
 30
0.0
 10
14.75306900524629
 20
-15.06923528156022
 30
0.0
 10
14.75193634606279
 20
-15.05963591483136
 30
0.0
 10
14.75062789900251
 20
-15.0500604365713
 30
0.0
 10
14.74934959514005
 20
-15.04070555228441
 30
0.0
 10
14.74790350949221
 20
-15.03137346848881
 30
0.0
 10
14.74627874526762
 20
-15.02207240162372
 30
0.0
 10
14.74470074844637
 20
-15.01303905775398
 30
0.0
 10
14.74295421121865
 20
-15.00403497092333
 30
0.0
 10
14.7410241754319
 20
-14.99507026145655
 30
0.0
 10
14.73916127161798
 20
-14.98641736933367
 30
0.0
 10
14.73712741241398
 20
-14.97780116290818
 30
0.0
 10
14.7349027922011
 20
-14.96923369400123
 30
0.0
 10
14.73276979806895
 20
-14.96101909593161
 30
0.0
 10
14.73046143318076
 20
-14.95284930332569
 30
0.0
 10
14.72795319800126
 20
-14.94474237709838
 30
0.0
  0
SPLINE
  5
115
330
70
100
AcDbEntity
  8
Layer 1
 62
    18
420
        0
370
     5
100
AcDbSpline
210
0.0
220
0.0
230
1.0
 70
     8
 71
     3
 72
    29
 73
    25
 74
     0
 42
0.0000000001
 43
0.0000000001
 40
0.0
 40
0.0
 40
0.0
 40
0.0
 40
1.0
 40
1.0
 40
1.0
 40
2.0
 40
2.0
 40
2.0
 40
3.0
 40
3.0
 40
3.0
 40
4.0
 40
4.0
 40
4.0
 40
5.0
 40
5.0
 40
5.0
 40
6.0
 40
6.0
 40
6.0
 40
7.0
 40
7.0
 40
7.0
 40
8.0
 40
8.0
 40
8.0
 40
8.0
 10
14.75846672474825
 20
-15.16804872676582
 30
0.0
 10
14.75846672474825
 20
-15.1780508655452
 30
0.0
 10
14.75830105499866
 20
-15.18805378553954
 30
0.0
 10
14.75797007911685
 20
-15.19805103280514
 30
0.0
 10
14.75764097882559
 20
-15.20799162717379
 30
0.0
 10
14.75714844062349
 20
-15.21792661292455
 30
0.0
 10
14.7564891009941
 20
-15.2278506292362
 30
0.0
 10
14.75583724347264
 20
-15.23766202898953
 30
0.0
 10
14.75502234872955
 20
-15.24746270685093
 30
0.0
 10
14.7540372282816
 20
-15.25724634702146
 30
0.0
 10
14.75306900524629
 20
-15.26686217197127
 30
0.0
 10
14.75193634606279
 20
-15.27646153870018
 30
0.0
 10
14.75062789900251
 20
-15.28603701696026
 30
0.0
 10
14.74934959514005
 20
-15.29539190124711
 30
0.0
 10
14.74790350949221
 20
-15.30472398504288
 30
0.0
 10
14.74627874526762
 20
-15.31402505190789
 30
0.0
 10
14.74470074844637
 20
-15.32305839577758
 30
0.0
 10
14.74295421121865
 20
-15.33206248260835
 30
0.0
 10
14.7410241754319
 20
-15.34102719207511
 30
0.0
 10
14.73916127161798
 20
-15.34968008419792
 30
0.0
 10
14.73712741241398
 20
-15.35829629062333
 30
0.0
 10
14.7349027922011
 20
-15.36686375953026
 30
0.0
 10
14.73276979806895
 20
-15.37507835759998
 30
0.0
 10
14.73046143318076
 20
-15.38324815020587
 30
0.0
 10
14.72795319800126
 20
-15.39135507643325
 30
0.0
  0
SPLINE
  5
116
330
70
100
AcDbEntity
  8
Layer 1
 62
    18
420
        0
370
     5
100
AcDbSpline
210
0.0
220
0.0
230
1.0
 70
     8
 71
     3
 72
    62
 73
    58
 74
     0
 42
0.0000000001
 43
0.0000000001
 40
0.0
 40
0.0
 40
0.0
 40
0.0
 40
1.0
 40
1.0
 40
1.0
 40
2.0
 40
2.0
 40
2.0
 40
3.0
 40
3.0
 40
3.0
 40
4.0
 40
4.0
 40
4.0
 40
5.0
 40
5.0
 40
5.0
 40
6.0
 40
6.0
 40
6.0
 40
7.0
 40
7.0
 40
7.0
 40
8.0
 40
8.0
 40
8.0
 40
9.0
 40
9.0
 40
9.0
 40
10.0
 40
10.0
 40
10.0
 40
11.0
 40
11.0
 40
11.0
 40
12.0
 40
12.0
 40
12.0
 40
13.0
 40
13.0
 40
13.0
 40
14.0
 40
14.0
 40
14.0
 40
15.0
 40
15.0
 40
15.0
 40
16.0
 40
16.0
 40
16.0
 40
17.0
 40
17.0
 40
17.0
 40
18.0
 40
18.0
 40
18.0
 40
19.0
 40
19.0
 40
19.0
 40
19.0
 10
7.590672676897812
 20
-14.03224686008085
 30
0.0
 10
7.590672676897812
 20
-14.03076356324502
 30
0.0
 10
7.590804562924264
 20
-14.02927719358892
 30
0.0
 10
7.591060232558106
 20
-14.02781387832874
 30
0.0
 10
7.591322912415913
 20
-14.02631044032276
 30
0.0
 10
7.591716257005448
 20
-14.02483133830527
 30
0.0
 10
7.59222005823253
 20
-14.02339153764124
 30
0.0
 10
7.592749520806528
 20
-14.02187840006907
 30
0.0
 10
7.593400978908157
 20
-14.02040866947956
 30
0.0
 10
7.594147891746729
 20
-14.01899047917979
 30
0.0
 10
7.594945619767208
 20
-14.0174758042644
 30
0.0
 10
7.59585223260587
 20
-14.0160199211414
 30
0.0
 10
7.596839470981497
 20
-14.01462134400213
 30
0.0
 10
7.599054258588542
 20
-14.01148375191494
 30
0.0
 10
7.601674828152416
 20
-14.0086345763159
 30
0.0
 10
7.604492789372898
 20
-14.00602114854364
 30
0.0
 10
7.606081882554349
 20
-14.00454739502889
 30
0.0
 10
7.607733746511497
 20
-14.00314860959659
 30
0.0
 10
7.609434268468564
 20
-14.00181061518285
 30
0.0
 10
7.611272405102138
 20
-14.00036434362083
 30
0.0
 10
7.613167393683195
 20
-13.99898910021064
 30
0.0
 10
7.615102308949619
 20
-13.99767327362133
 30
0.0
 10
7.619422885615549
 20
-13.9947350934558
 30
0.0
 10
7.62394254006022
 20
-13.99209317050908
 30
0.0
 10
7.628567050335681
 20
-13.98965848674841
 30
0.0
 10
7.633846504953642
 20
-13.98687899191375
 30
0.0
 10
7.639262618877372
 20
-13.98436959329668
 30
0.0
 10
7.644759009326939
 20
-13.98205393114009
 30
0.0
 10
7.650924108365175
 20
-13.97945653805737
 30
0.0
 10
7.657190205579695
 20
-13.97710289031571
 30
0.0
 10
7.663517898010164
 20
-13.9749323965358
 30
0.0
 10
7.670502223561722
 20
-13.97253666770835
 30
0.0
 10
7.677561591252848
 20
-13.97036407739817
 30
0.0
 10
7.684668689467242
 20
-13.96836346130142
 30
0.0
 10
7.692396540373326
 20
-13.96618810612143
 30
0.0
 10
7.70018082374559
 20
-13.96421607846284
 30
0.0
 10
7.708002721365851
 20
-13.96240895688119
 30
0.0
 10
7.716396833063766
 20
-13.96046963459086
 30
0.0
 10
7.724834263681296
 20
-13.95872022844875
 30
0.0
 10
7.733300894673649
 20
-13.95712788505228
 30
0.0
 10
7.742275598572468
 20
-13.95543998693781
 30
0.0
 10
7.751283112561205
 20
-13.95392856747579
 30
0.0
 10
7.760313338884328
 20
-13.95256953311809
 30
0.0
 10
7.769779250562944
 20
-13.95114492882367
 30
0.0
 10
7.779270119070297
 20
-13.9498877687424
 30
0.0
 10
7.788778119894218
 20
-13.94877894874816
 30
0.0
 10
7.798644873378495
 20
-13.94762829113412
 30
0.0
 10
7.808530076431729
 20
-13.94663737903124
 30
0.0
 10
7.818427626602315
 20
-13.94579214401791
 30
0.0
 10
7.828603469785004
 20
-13.94492314322479
 30
0.0
 10
7.838792364183277
 20
-13.9442081268026
 30
0.0
 10
7.848989225644256
 20
-13.94363756722282
 30
0.0
 10
7.859373051861754
 20
-13.94305654613638
 30
0.0
 10
7.869765139980876
 20
-13.94262532784
 30
0.0
 10
7.880161317482702
 20
-13.94233710567343
 30
0.0
 10
7.890635472557997
 20
-13.94204672166759
 30
0.0
 10
7.901113778591693
 20
-13.94190148694979
 30
0.0
 10
7.911591518451144
 20
-13.94190148694979
 30
0.0
  0
SPLINE
  5
117
330
70
100
AcDbEntity
  8
Layer 1
 62
    18
420
        0
370
     5
100
AcDbSpline
210
0.0
220
0.0
230
1.0
 70
     8
 71
     3
 72
    62
 73
    58
 74
     0
 42
0.0000000001
 43
0.0000000001
 40
0.0
 40
0.0
 40
0.0
 40
0.0
 40
1.0
 40
1.0
 40
1.0
 40
2.0
 40
2.0
 40
2.0
 40
3.0
 40
3.0
 40
3.0
 40
4.0
 40
4.0
 40
4.0
 40
5.0
 40
5.0
 40
5.0
 40
6.0
 40
6.0
 40
6.0
 40
7.0
 40
7.0
 40
7.0
 40
8.0
 40
8.0
 40
8.0
 40
9.0
 40
9.0
 40
9.0
 40
10.0
 40
10.0
 40
10.0
 40
11.0
 40
11.0
 40
11.0
 40
12.0
 40
12.0
 40
12.0
 40
13.0
 40
13.0
 40
13.0
 40
14.0
 40
14.0
 40
14.0
 40
15.0
 40
15.0
 40
15.0
 40
16.0
 40
16.0
 40
16.0
 40
17.0
 40
17.0
 40
17.0
 40
18.0
 40
18.0
 40
18.0
 40
19.0
 40
19.0
 40
19.0
 40
19.0
 10
7.911591518451144
 20
-13.94190148694979
 30
0.0
 10
7.922069258310632
 20
-13.94190148694979
 30
0.0
 10
7.932547564344304
 20
-13.94204672166759
 30
0.0
 10
7.943021719403203
 20
-13.94233710567343
 30
0.0
 10
7.953417896888645
 20
-13.94262532784
 30
0.0
 10
7.963809984975189
 20
-13.94305654613638
 30
0.0
 10
7.974193811193294
 20
-13.94363756722282
 30
0.0
 10
7.984390672654866
 20
-13.9442081268026
 30
0.0
 10
7.994579567085666
 20
-13.94492314322479
 30
0.0
 10
8.004755410284385
 20
-13.94579214401791
 30
0.0
 10
8.014652960470572
 20
-13.94663737903124
 30
0.0
 10
8.024538163523844
 20
-13.94762829113412
 30
0.0
 10
8.03440491699089
 20
-13.94877894874816
 30
0.0
 10
8.043912917798239
 20
-13.9498877687424
 30
0.0
 10
8.053403786273102
 20
-13.95114492882367
 30
0.0
 10
8.062869697935802
 20
-13.95256953311809
 30
0.0
 10
8.071899924243792
 20
-13.95392856747579
 30
0.0
 10
8.08090743823253
 20
-13.95543998693781
 30
0.0
 10
8.08988214214907
 20
-13.95712788505228
 30
0.0
 10
8.09834877315821
 20
-13.95872022844875
 30
0.0
 10
8.106786203808256
 20
-13.96046963459086
 30
0.0
 10
8.115180315503783
 20
-13.96240895688119
 30
0.0
 10
8.123002213121809
 20
-13.96421607846284
 30
0.0
 10
8.13078649646161
 20
-13.96618810612143
 30
0.0
 10
8.138514347370497
 20
-13.96836346130142
 30
0.0
 10
8.145621445587481
 20
-13.97036407739817
 30
0.0
 10
8.152680813311146
 20
-13.97253666770835
 30
0.0
 10
8.159665138859383
 20
-13.9749323965358
 30
0.0
 10
8.16599283128677
 20
-13.97710289031571
 30
0.0
 10
8.172258928468812
 20
-13.97945653805737
 30
0.0
 10
8.178424027491713
 20
-13.98205393114009
 30
0.0
 10
8.183920417927627
 20
-13.98436959329668
 30
0.0
 10
8.189336531851369
 20
-13.98687899191375
 30
0.0
 10
8.194615986492193
 20
-13.98965848674841
 30
0.0
 10
8.199240496787675
 20
-13.99209317050908
 30
0.0
 10
8.203760151269888
 20
-13.9947350934558
 30
0.0
 10
8.208080727911388
 20
-13.99767327362133
 30
0.0
 10
8.210015643166835
 20
-13.99898910021064
 30
0.0
 10
8.211910631724549
 20
-14.00036434362083
 30
0.0
 10
8.213748768346817
 20
-14.00181061518285
 30
0.0
 10
8.215449290293538
 20
-14.00314860959659
 30
0.0
 10
8.217101154250661
 20
-14.00454739502889
 30
0.0
 10
8.218690247441941
 20
-14.00602114854364
 30
0.0
 10
8.22150820867988
 20
-14.0086345763159
 30
0.0
 10
8.224128778292184
 20
-14.01148375191494
 30
0.0
 10
8.226343565914197
 20
-14.01462134400213
 30
0.0
 10
8.227330804296457
 20
-14.0160199211414
 30
0.0
 10
8.228237417135106
 20
-14.0174758042644
 30
0.0
 10
8.229035145155584
 20
-14.01899047917979
 30
0.0
 10
8.229782057994157
 20
-14.02040866947956
 30
0.0
 10
8.230433516095823
 20
-14.02187840006907
 30
0.0
 10
8.230962978652428
 20
-14.02339153764124
 30
0.0
 10
8.231466779863024
 20
-14.02483133830527
 30
0.0
 10
8.231860124420425
 20
-14.02631044032276
 30
0.0
 10
8.232122804287326
 20
-14.02781387832874
 30
0.0
 10
8.23237847393006
 20
-14.02927719358892
 30
0.0
 10
8.232510360004514
 20
-14.03076356324502
 30
0.0
 10
8.232510360004514
 20
-14.03224686008085
 30
0.0
  0
SPLINE
  5
118
330
70
100
AcDbEntity
  8
Layer 1
 62
    18
420
        0
370
     5
100
AcDbSpline
210
0.0
220
0.0
230
1.0
 70
     8
 71
     3
 72
    68
 73
    64
 74
     0
 42
0.0000000001
 43
0.0000000001
 40
0.0
 40
0.0
 40
0.0
 40
0.0
 40
1.0
 40
1.0
 40
1.0
 40
2.0
 40
2.0
 40
2.0
 40
3.0
 40
3.0
 40
3.0
 40
4.0
 40
4.0
 40
4.0
 40
5.0
 40
5.0
 40
5.0
 40
6.0
 40
6.0
 40
6.0
 40
7.0
 40
7.0
 40
7.0
 40
8.0
 40
8.0
 40
8.0
 40
9.0
 40
9.0
 40
9.0
 40
10.0
 40
10.0
 40
10.0
 40
11.0
 40
11.0
 40
11.0
 40
12.0
 40
12.0
 40
12.0
 40
13.0
 40
13.0
 40
13.0
 40
14.0
 40
14.0
 40
14.0
 40
15.0
 40
15.0
 40
15.0
 40
16.0
 40
16.0
 40
16.0
 40
17.0
 40
17.0
 40
17.0
 40
18.0
 40
18.0
 40
18.0
 40
19.0
 40
19.0
 40
19.0
 40
20.0
 40
20.0
 40
20.0
 40
21.0
 40
21.0
 40
21.0
 40
21.0
 10
7.911591518548511
 20
-14.13558834150854
 30
0.0
 10
7.923756352437471
 20
-14.13558834150854
 30
0.0
 10
7.935921858823095
 20
-14.13541845341643
 30
0.0
 10
7.948082455379398
 20
-14.13507826567034
 30
0.0
 10
7.960148911665365
 20
-14.13474071146
 30
0.0
 10
7.972210533845857
 20
-14.13423548411176
 30
0.0
 10
7.984262367691914
 20
-14.13355458096046
 30
0.0
 10
7.99609678241898
 20
-14.13288596153006
 30
0.0
 10
8.007921758795658
 20
-14.13204794762307
 30
0.0
 10
8.019731321635452
 20
-14.13102972721039
 30
0.0
 10
8.03122286584322
 20
-14.13003892636152
 30
0.0
 10
8.042699815476161
 20
-14.12887749385613
 30
0.0
 10
8.05415484593411
 20
-14.12752822956352
 30
0.0
 10
8.065199623933986
 20
-14.12622728805766
 30
0.0
 10
8.076224024678429
 20
-14.12475172792177
 30
0.0
 10
8.087218920175903
 20
-14.12308009974506
 30
0.0
 10
8.097716365662993
 20
-14.12148410225119
 30
0.0
 10
8.108186915360509
 20
-14.11970937706256
 30
0.0
 10
8.118618252027228
 20
-14.11772613518835
 30
0.0
 10
8.128471596867294
 20
-14.11585278312312
 30
0.0
 10
8.138289953809424
 20
-14.11379338166676
 30
0.0
 10
8.148056910070055
 20
-14.11151091894903
 30
0.0
 10
8.157184108650868
 20
-14.10937796269099
 30
0.0
 10
8.166266419734533
 20
-14.10705021014915
 30
0.0
 10
8.175280492202634
 20
-14.10448023305002
 30
0.0
 10
8.183607863914213
 20
-14.10210603929125
 30
0.0
 10
8.19187699795216
 20
-14.09952512101735
 30
0.0
 10
8.200056445540225
 20
-14.09667999044402
 30
0.0
 10
8.207527596635435
 20
-14.0940812329888
 30
0.0
 10
8.21492392149029
 20
-14.09126204075174
 30
0.0
 10
8.222196828321532
 20
-14.08815326907979
 30
0.0
 10
8.225569617073436
 20
-14.08671158553125
 30
0.0
 10
8.228915863386784
 20
-14.08520762465792
 30
0.0
 10
8.232226882929252
 20
-14.08363040170118
 30
0.0
 10
8.235366173511994
 20
-14.08213498280934
 30
0.0
 10
8.238473796696666
 20
-14.08057370435949
 30
0.0
 10
8.241541655703498
 20
-14.07893344586634
 30
0.0
 10
8.247203615715141
 20
-14.07590622786971
 30
0.0
 10
8.252730133273871
 20
-14.07260999259723
 30
0.0
 10
8.258004845778435
 20
-14.06895138490103
 30
0.0
 10
8.260444170775864
 20
-14.06725943805059
 30
0.0
 10
8.262829643233772
 20
-14.06548999205966
 30
0.0
 10
8.265144397429923
 20
-14.06363139815122
 30
0.0
 10
8.267348392688834
 20
-14.06186173631431
 30
0.0
 10
8.269488275386226
 20
-14.06001125375006
 30
0.0
 10
8.271540108229045
 20
-14.05806674866582
 30
0.0
 10
8.27349876098458
 20
-14.0562105495827
 30
0.0
 10
8.275377179529439
 20
-14.05426867378024
 30
0.0
 10
8.277147248358989
 20
-14.05223143177808
 30
0.0
 10
8.278846430575084
 20
-14.05027577597416
 30
0.0
 10
8.280445767549192
 20
-14.04823223935523
 30
0.0
 10
8.281915272186841
 20
-14.04609820709685
 30
0.0
 10
8.283340226899969
 20
-14.04402887077312
 30
0.0
 10
8.284643102019559
 20
-14.04187444262116
 30
0.0
 10
8.285793239101696
 20
-14.03964002391747
 30
0.0
 10
8.286922461113425
 20
-14.03744623778304
 30
0.0
 10
8.287904449615627
 20
-14.0351753438772
 30
0.0
 10
8.288705759360658
 20
-14.03284157655053
 30
0.0
 10
8.289503960593012
 20
-14.0305168625834
 30
0.0
 10
8.290122882159682
 20
-14.02812976205774
 30
0.0
 10
8.290539117617122
 20
-14.0257059705323
 30
0.0
 10
8.290962574243836
 20
-14.02324012922804
 30
0.0
 10
8.291176251051499
 20
-14.02073631279429
 30
0.0
 10
8.291176251051499
 20
-14.01823791937093
 30
0.0
  0
SPLINE
  5
119
330
70
100
AcDbEntity
  8
Layer 1
 62
    18
420
        0
370
     5
100
AcDbSpline
210
0.0
220
0.0
230
1.0
 70
     8
 71
     3
 72
    68
 73
    64
 74
     0
 42
0.0000000001
 43
0.0000000001
 40
0.0
 40
0.0
 40
0.0
 40
0.0
 40
1.0
 40
1.0
 40
1.0
 40
2.0
 40
2.0
 40
2.0
 40
3.0
 40
3.0
 40
3.0
 40
4.0
 40
4.0
 40
4.0
 40
5.0
 40
5.0
 40
5.0
 40
6.0
 40
6.0
 40
6.0
 40
7.0
 40
7.0
 40
7.0
 40
8.0
 40
8.0
 40
8.0
 40
9.0
 40
9.0
 40
9.0
 40
10.0
 40
10.0
 40
10.0
 40
11.0
 40
11.0
 40
11.0
 40
12.0
 40
12.0
 40
12.0
 40
13.0
 40
13.0
 40
13.0
 40
14.0
 40
14.0
 40
14.0
 40
15.0
 40
15.0
 40
15.0
 40
16.0
 40
16.0
 40
16.0
 40
17.0
 40
17.0
 40
17.0
 40
18.0
 40
18.0
 40
18.0
 40
19.0
 40
19.0
 40
19.0
 40
20.0
 40
20.0
 40
20.0
 40
21.0
 40
21.0
 40
21.0
 40
21.0
 10
7.532006785850853
 20
-14.01823791937093
 30
0.0
 10
7.532006785850853
 20
-14.02073637274922
 30
0.0
 10
7.532220464080991
 20
-14.02324024993019
 30
0.0
 10
7.532643934333539
 20
-14.0257061499803
 30
0.0
 10
7.533060176243944
 20
-14.02812995883477
 30
0.0
 10
7.533679109294653
 20
-14.03051707597963
 30
0.0
 10
7.53447732974943
 20
-14.03284180246911
 30
0.0
 10
7.535278653098442
 20
-14.03517556578612
 30
0.0
 10
7.536260660435939
 20
-14.03744645244708
 30
0.0
 10
7.537389896776605
 20
-14.03964023178906
 30
0.0
 10
7.538540044110391
 20
-14.04187463513785
 30
0.0
 10
7.539842923653458
 20
-14.04402904900818
 30
0.0
 10
7.541267872024276
 20
-14.04609837900969
 30
0.0
 10
7.542737353774555
 20
-14.04823238100918
 30
0.0
 10
7.544336653523473
 20
-14.05027589784749
 30
0.0
 10
7.546035802347924
 20
-14.05223153227739
 30
0.0
 10
7.547805837893191
 20
-14.05426875374077
 30
0.0
 10
7.549684227497423
 20
-14.05621060711352
 30
0.0
 10
7.55164286033673
 20
-14.05806677323456
 30
0.0
 10
7.553694703369059
 20
-14.06001127321737
 30
0.0
 10
7.555834608824839
 20
-14.06186173627533
 30
0.0
 10
7.558038624944022
 20
-14.06363137809292
 30
0.0
 10
7.560353438943176
 20
-14.0654899814022
 30
0.0
 10
7.56273897142575
 20
-14.06725943330899
 30
0.0
 10
7.56517834635867
 20
-14.06895140088934
 30
0.0
 10
7.570453147289766
 20
-14.07261003984952
 30
0.0
 10
7.575979704233254
 20
-14.07590637833934
 30
0.0
 10
7.581641727426244
 20
-14.07893366673854
 30
0.0
 10
7.584709580443889
 20
-14.08057394187242
 30
0.0
 10
7.58781720358287
 20
-14.08213522940023
 30
0.0
 10
7.590956500346073
 20
-14.08363064284905
 30
0.0
 10
7.594267503716978
 20
-14.08520784925662
 30
0.0
 10
7.597613740301804
 20
-14.08671177843209
 30
0.0
 10
7.600986516766611
 20
-14.08815343516815
 30
0.0
 10
7.608259450653563
 20
-14.09126217191331
 30
0.0
 10
7.61565579248439
 20
-14.09408134767737
 30
0.0
 10
7.623126957241677
 20
-14.09668009895586
 30
0.0
 10
7.631306419514493
 20
-14.09952522267215
 30
0.0
 10
7.639575564259151
 20
-14.10210614644799
 30
0.0
 10
7.647902947877405
 20
-14.10448034131698
 30
0.0
 10
7.656917030671428
 20
-14.10705031888733
 30
0.0
 10
7.665999353448202
 20
-14.10937806689215
 30
0.0
 10
7.675126563020221
 20
-14.11151102097574
 30
0.0
 10
7.684893512830448
 20
-14.11379347711057
 30
0.0
 10
7.694711862326673
 20
-14.11585287552103
 30
0.0
 10
7.704565200317081
 20
-14.11772622108391
 30
0.0
 10
7.714996527310315
 20
-14.11970945561372
 30
0.0
 10
7.725467067984468
 20
-14.12148416968107
 30
0.0
 10
7.735964503854764
 20
-14.12308015897017
 30
0.0
 10
7.746959392088935
 20
-14.12475177898042
 30
0.0
 10
7.757983784934114
 20
-14.12622733404939
 30
0.0
 10
7.76902855494432
 20
-14.12752827086971
 30
0.0
 10
7.780483563606367
 20
-14.12887752871158
 30
0.0
 10
7.791960491294528
 20
-14.13003895561938
 30
0.0
 10
7.803452013406361
 20
-14.13102975221176
 30
0.0
 10
7.815261532828811
 20
-14.13204796646464
 30
0.0
 10
7.827086465574488
 20
-14.13288597626006
 30
0.0
 10
7.838920836618917
 20
-14.13355459265825
 30
0.0
 10
7.850972628286903
 20
-14.13423549285206
 30
0.0
 10
7.863034208239481
 20
-14.13474071829521
 30
0.0
 10
7.875100622277841
 20
-14.13507827012851
 30
0.0
 10
7.887261205316677
 20
-14.1354184562921
 30
0.0
 10
7.899426698188322
 20
-14.13558834150854
 30
0.0
 10
7.911591518548511
 20
-14.13558834150854
 30
0.0
  0
SPLINE
  5
11A
330
70
100
AcDbEntity
  8
Layer 1
 62
    18
420
        0
370
     5
100
AcDbSpline
210
0.0
220
0.0
230
1.0
 70
     8
 71
     3
 72
   125
 73
   121
 74
     0
 42
0.0000000001
 43
0.0000000001
 40
0.0
 40
0.0
 40
0.0
 40
0.0
 40
1.0
 40
1.0
 40
1.0
 40
2.0
 40
2.0
 40
2.0
 40
3.0
 40
3.0
 40
3.0
 40
4.0
 40
4.0
 40
4.0
 40
5.0
 40
5.0
 40
5.0
 40
6.0
 40
6.0
 40
6.0
 40
7.0
 40
7.0
 40
7.0
 40
8.0
 40
8.0
 40
8.0
 40
9.0
 40
9.0
 40
9.0
 40
10.0
 40
10.0
 40
10.0
 40
11.0
 40
11.0
 40
11.0
 40
12.0
 40
12.0
 40
12.0
 40
13.0
 40
13.0
 40
13.0
 40
14.0
 40
14.0
 40
14.0
 40
15.0
 40
15.0
 40
15.0
 40
16.0
 40
16.0
 40
16.0
 40
17.0
 40
17.0
 40
17.0
 40
18.0
 40
18.0
 40
18.0
 40
19.0
 40
19.0
 40
19.0
 40
20.0
 40
20.0
 40
20.0
 40
21.0
 40
21.0
 40
21.0
 40
22.0
 40
22.0
 40
22.0
 40
23.0
 40
23.0
 40
23.0
 40
24.0
 40
24.0
 40
24.0
 40
25.0
 40
25.0
 40
25.0
 40
26.0
 40
26.0
 40
26.0
 40
27.0
 40
27.0
 40
27.0
 40
28.0
 40
28.0
 40
28.0
 40
29.0
 40
29.0
 40
29.0
 40
30.0
 40
30.0
 40
30.0
 40
31.0
 40
31.0
 40
31.0
 40
32.0
 40
32.0
 40
32.0
 40
33.0
 40
33.0
 40
33.0
 40
34.0
 40
34.0
 40
34.0
 40
35.0
 40
35.0
 40
35.0
 40
36.0
 40
36.0
 40
36.0
 40
37.0
 40
37.0
 40
37.0
 40
38.0
 40
38.0
 40
38.0
 40
39.0
 40
39.0
 40
39.0
 40
40.0
 40
40.0
 40
40.0
 40
40.0
 10
7.911591518451144
 20
-13.92949585073552
 30
0.0
 10
7.899673252974202
 20
-13.92949585073552
 30
0.0
 10
7.887754342190608
 20
-13.92966085021791
 30
0.0
 10
7.875840151773167
 20
-13.92999107869668
 30
0.0
 10
7.864017385224441
 20
-13.93031877315803
 30
0.0
 10
7.852199266876115
 20
-13.93080917056649
 30
0.0
 10
7.840390560708897
 20
-13.93147009171336
 30
0.0
 10
7.828795454837669
 20
-13.93211905787118
 30
0.0
 10
7.817209423725052
 20
-13.93293243456666
 30
0.0
 10
7.805638202323266
 20
-13.93392059397196
 30
0.0
 10
7.794381749026026
 20
-13.93488187280417
 30
0.0
 10
7.783139310671268
 20
-13.93600855457051
 30
0.0
 10
7.771917897896868
 20
-13.93731722788976
 30
0.0
 10
7.761103602116425
 20
-13.93857842205842
 30
0.0
 10
7.750308833959946
 20
-13.94000864188772
 30
0.0
 10
7.73954235283568
 20
-13.94162872581364
 30
0.0
 10
7.729271436005192
 20
-13.94317423980924
 30
0.0
 10
7.719026262120551
 20
-13.94489254185573
 30
0.0
 10
7.708818570161396
 20
-13.94681246326849
 30
0.0
 10
7.699190040173562
 20
-13.94862345256671
 30
0.0
 10
7.689594859488301
 20
-13.95061383140187
 30
0.0
 10
7.680048779050062
 20
-13.95281926939631
 30
0.0
 10
7.671152402503429
 20
-13.95487460582204
 30
0.0
 10
7.662298670141062
 20
-13.95711672384176
 30
0.0
 10
7.653509170936255
 20
-13.95959092288245
 30
0.0
 10
7.645426505667753
 20
-13.96186615178764
 30
0.0
 10
7.637398157952134
 20
-13.96433763561185
 30
0.0
 10
7.62945553896673
 20
-13.96706222530714
 30
0.0
 10
7.622258746523938
 20
-13.96953097101492
 30
0.0
 10
7.615132338558092
 20
-13.97220752015465
 30
0.0
 10
7.608118926370429
 20
-13.97516149512373
 30
0.0
 10
7.601866829733467
 20
-13.97779481204222
 30
0.0
 10
7.595704528654676
 20
-13.98064859389834
 30
0.0
 10
7.589704038939506
 20
-13.98381023523939
 30
0.0
 10
7.586982363134185
 20
-13.98524427865105
 30
0.0
 10
7.584293976916228
 20
-13.98674165825233
 30
0.0
 10
7.581650503992338
 20
-13.98831516309532
 30
0.0
 10
7.57918685717147
 20
-13.98978162797526
 30
0.0
 10
7.576762220900654
 20
-13.99131421331273
 30
0.0
 10
7.574390719101024
 20
-13.99292579853798
 30
0.0
 10
7.572189513621045
 20
-13.99442165666018
 30
0.0
 10
7.570034085487703
 20
-13.99598557615885
 30
0.0
 10
7.567942284600197
 20
-13.997631020532
 30
0.0
 10
7.566007555331414
 20
-13.99915290983227
 30
0.0
 10
7.564127256627671
 20
-14.00074454040337
 30
0.0
 10
7.562322704197513
 20
-14.00241969934343
 30
0.0
 10
7.560657019262659
 20
-14.00396594813257
 30
0.0
 10
7.559055871209718
 20
-14.00558336425741
 30
0.0
 10
7.557545877056112
 20
-14.00728037469636
 30
0.0
 10
7.556151257956722
 20
-14.00884772061246
 30
0.0
 10
7.554834395220104
 20
-14.01048296230048
 30
0.0
 10
7.553621106268122
 20
-14.01220116485069
 30
0.0
 10
7.551447726573112
 20
-14.01527900259783
 30
0.0
 10
7.549606694496181
 20
-14.01862304520609
 30
0.0
 10
7.548363746595226
 20
-14.02217545358839
 30
0.0
 10
7.547790600051307
 20
-14.02381353559111
 30
0.0
 10
7.547344624428647
 20
-14.02549592250703
 30
0.0
 10
7.547046975658708
 20
-14.02720506914599
 30
0.0
 10
7.54675724256933
 20
-14.02886876268682
 30
0.0
 10
7.546608052017934
 20
-14.03055781157844
 30
0.0
 10
7.546608052033636
 20
-14.03224686044968
 30
0.0
 10
7.546608052049324
 20
-14.03393590932089
 30
0.0
 10
7.546757242632034
 20
-14.03562495817174
 30
0.0
 10
7.547046975756465
 20
-14.03728865169427
 30
0.0
 10
7.547344624566903
 20
-14.03899779834076
 30
0.0
 10
7.547790600238449
 20
-14.04068018528715
 30
0.0
 10
7.548363746828449
 20
-14.04231826730797
 30
0.0
 10
7.549606694827843
 20
-14.04587067572548
 30
0.0
 10
7.551447726988574
 20
-14.04921471831082
 30
0.0
 10
7.553621106794113
 20
-14.05229255604801
 30
0.0
 10
7.554834395836589
 20
-14.05401075863331
 30
0.0
 10
7.556151258676954
 20
-14.05564600035659
 30
0.0
 10
7.557545877850391
 20
-14.05721334630854
 30
0.0
 10
7.559055872027063
 20
-14.05891035672203
 30
0.0
 10
7.560657020061436
 20
-14.06052777282815
 30
0.0
 10
7.562322704989569
 20
-14.06207402160993
 30
0.0
 10
7.564127257412514
 20
-14.06374918054227
 30
0.0
 10
7.566007556122952
 20
-14.06534081111893
 30
0.0
 10
7.567942285395562
 20
-14.06686270042188
 30
0.0
 10
7.570034086266332
 20
-14.06850814478146
 30
0.0
 10
7.572189514378262
 20
-14.07007206426457
 30
0.0
 10
7.574390719847037
 20
-14.07156792235605
 30
0.0
 10
7.576762221680104
 20
-14.07317950757892
 30
0.0
 10
7.579186857998251
 20
-14.0747120928934
 30
0.0
 10
7.581650504871996
 20
-14.07617855775369
 30
0.0
 10
7.584293977850923
 20
-14.07775206257457
 30
0.0
 10
7.586982364130234
 20
-14.07924944215756
 30
0.0
 10
7.589704039987774
 20
-14.08068348555298
 30
0.0
 10
7.595704529953725
 20
-14.08384512692974
 30
0.0
 10
7.601866831246233
 20
-14.08669890881772
 30
0.0
 10
7.60811892809809
 20
-14.08933222575385
 30
0.0
 10
7.615132340625058
 20
-14.0922862007841
 30
0.0
 10
7.622258748934856
 20
-14.09496274995937
 30
0.0
 10
7.629455541695771
 20
-14.09743149575789
 30
0.0
 10
7.637398160573221
 20
-14.10015608539601
 30
0.0
 10
7.645426508139545
 20
-14.10262756925926
 30
0.0
 10
7.653509173303644
 20
-14.10490279813312
 30
0.0
 10
7.662298672225587
 20
-14.10737699709213
 30
0.0
 10
7.671152404355716
 20
-14.10961911495597
 30
0.0
 10
7.680048780656003
 20
-14.11167445127646
 30
0.0
 10
7.68959486097943
 20
-14.11387988919237
 30
0.0
 10
7.699190041535264
 20
-14.11587026800061
 30
0.0
 10
7.708818571365579
 20
-14.11768125725714
 30
0.0
 10
7.719026263687092
 20
-14.11960117872531
 30
0.0
 10
7.729271437906428
 20
-14.12131948078942
 30
0.0
 10
7.739542355098958
 20
-14.12286499479394
 30
0.0
 10
7.750308837369806
 20
-14.1244850788445
 30
0.0
 10
7.76110360670696
 20
-14.12591529876168
 30
0.0
 10
7.771917903665338
 20
-14.12717649293752
 30
0.0
 10
7.783139317881237
 20
-14.12848516628992
 30
0.0
 10
7.794381757675396
 20
-14.12961184799537
 30
0.0
 10
7.805638212389642
 20
-14.13057312690486
 30
0.0
 10
7.817209433389747
 20
-14.13156128623083
 30
0.0
 10
7.828795464072312
 20
-14.13237466304912
 30
0.0
 10
7.840390569538397
 20
-14.13302362922533
 30
0.0
 10
7.852199273794982
 20
-14.1336845503072
 30
0.0
 10
7.86401739025617
 20
-14.13417494758558
 30
0.0
 10
7.875840154895349
 20
-14.13450264188805
 30
0.0
 10
7.887754344249414
 20
-14.13483287023051
 30
0.0
 10
7.8996732539475
 20
-14.13499786952345
 30
0.0
 10
7.911591518451144
 20
-14.13499786952345
 30
0.0
  0
SPLINE
  5
11B
330
70
100
AcDbEntity
  8
Layer 1
 62
    18
420
        0
370
     5
100
AcDbSpline
210
0.0
220
0.0
230
1.0
 70
     8
 71
     3
 72
   125
 73
   121
 74
     0
 42
0.0000000001
 43
0.0000000001
 40
0.0
 40
0.0
 40
0.0
 40
0.0
 40
1.0
 40
1.0
 40
1.0
 40
2.0
 40
2.0
 40
2.0
 40
3.0
 40
3.0
 40
3.0
 40
4.0
 40
4.0
 40
4.0
 40
5.0
 40
5.0
 40
5.0
 40
6.0
 40
6.0
 40
6.0
 40
7.0
 40
7.0
 40
7.0
 40
8.0
 40
8.0
 40
8.0
 40
9.0
 40
9.0
 40
9.0
 40
10.0
 40
10.0
 40
10.0
 40
11.0
 40
11.0
 40
11.0
 40
12.0
 40
12.0
 40
12.0
 40
13.0
 40
13.0
 40
13.0
 40
14.0
 40
14.0
 40
14.0
 40
15.0
 40
15.0
 40
15.0
 40
16.0
 40
16.0
 40
16.0
 40
17.0
 40
17.0
 40
17.0
 40
18.0
 40
18.0
 40
18.0
 40
19.0
 40
19.0
 40
19.0
 40
20.0
 40
20.0
 40
20.0
 40
21.0
 40
21.0
 40
21.0
 40
22.0
 40
22.0
 40
22.0
 40
23.0
 40
23.0
 40
23.0
 40
24.0
 40
24.0
 40
24.0
 40
25.0
 40
25.0
 40
25.0
 40
26.0
 40
26.0
 40
26.0
 40
27.0
 40
27.0
 40
27.0
 40
28.0
 40
28.0
 40
28.0
 40
29.0
 40
29.0
 40
29.0
 40
30.0
 40
30.0
 40
30.0
 40
31.0
 40
31.0
 40
31.0
 40
32.0
 40
32.0
 40
32.0
 40
33.0
 40
33.0
 40
33.0
 40
34.0
 40
34.0
 40
34.0
 40
35.0
 40
35.0
 40
35.0
 40
36.0
 40
36.0
 40
36.0
 40
37.0
 40
37.0
 40
37.0
 40
38.0
 40
38.0
 40
38.0
 40
39.0
 40
39.0
 40
39.0
 40
40.0
 40
40.0
 40
40.0
 40
40.0
 10
7.911591518451144
 20
-14.13499786952345
 30
0.0
 10
7.923509783928087
 20
-14.13499786952345
 30
0.0
 10
7.935428694662883
 20
-14.13483286999227
 30
0.0
 10
7.947342885055983
 20
-14.13450264150563
 30
0.0
 10
7.959165651580532
 20
-14.13417494703642
 30
0.0
 10
7.97098376992887
 20
-14.13368454966048
 30
0.0
 10
7.982792476096101
 20
-14.13302362852975
 30
0.0
 10
7.994387581967303
 20
-14.13237466238779
 30
0.0
 10
8.005973613079934
 20
-14.13156128569234
 30
0.0
 10
8.017544834481757
 20
-14.13057312627011
 30
0.0
 10
8.028801287778971
 20
-14.12961184742135
 30
0.0
 10
8.040043726133704
 20
-14.1284851656225
 30
0.0
 10
8.051265138908092
 20
-14.12717649230444
 30
0.0
 10
8.062079434688559
 20
-14.12591529813701
 30
0.0
 10
8.072874202845039
 20
-14.12448507834023
 30
0.0
 10
8.083640683969305
 20
-14.12286499443017
 30
0.0
 10
8.093911600799792
 20
-14.12131948044973
 30
0.0
 10
8.104156774684458
 20
-14.11960117840327
 30
0.0
 10
8.114364466643602
 20
-14.11768125699048
 30
0.0
 10
8.123992996631423
 20
-14.11587026769229
 30
0.0
 10
8.133588177316697
 20
-14.11387988885713
 30
0.0
 10
8.14313425777296
 20
-14.1116744508447
 30
0.0
 10
8.152030634336444
 20
-14.10961911440204
 30
0.0
 10
8.160884366731339
 20
-14.10737699634973
 30
0.0
 10
8.169673865951734
 20
-14.10490279731198
 30
0.0
 10
8.177756531234598
 20
-14.10262756840934
 30
0.0
 10
8.185784878950219
 20
-14.10015608461771
 30
0.0
 10
8.193727497916773
 20
-14.09743149493781
 30
0.0
 10
8.200924290342527
 20
-14.09496274924405
 30
0.0
 10
8.208050698275831
 20
-14.0922862001044
 30
0.0
 10
8.215064110448224
 20
-14.08933222513527
 30
0.0
 10
8.221316207071506
 20
-14.08669890821683
 30
0.0
 10
8.227478508150321
 20
-14.08384512636063
 30
0.0
 10
8.23347899790119
 20
-14.08068348501964
 30
0.0
 10
8.236200673722679
 20
-14.07924944160797
 30
0.0
 10
8.238889059964195
 20
-14.07775206200661
 30
0.0
 10
8.241532532899389
 20
-14.07617855716365
 30
0.0
 10
8.243996179730844
 20
-14.07471209228369
 30
0.0
 10
8.246420816001672
 20
-14.07317950694619
 30
0.0
 10
8.248792317783175
 20
-14.0715679217029
 30
0.0
 10
8.250993523246341
 20
-14.07007206356391
 30
0.0
 10
8.253148951347258
 20
-14.0685081440328
 30
0.0
 10
8.255240752237416
 20
-14.0668626996623
 30
0.0
 10
8.2571754815086
 20
-14.0653408103644
 30
0.0
 10
8.259055780244782
 20
-14.06374917982579
 30
0.0
 10
8.260860332672235
 20
-14.06207402090121
 30
0.0
 10
8.262526017604601
 20
-14.06052777212646
 30
0.0
 10
8.264127165625216
 20
-14.05891035600156
 30
0.0
 10
8.265637159777408
 20
-14.05721334554841
 30
0.0
 10
8.267031778875459
 20
-14.05564599961927
 30
0.0
 10
8.268348641637215
 20
-14.05401075790615
 30
0.0
 10
8.269561930595664
 20
-14.05229255533981
 30
0.0
 10
8.271735310302283
 20
-14.0492147175638
 30
0.0
 10
8.273576342330999
 20
-14.04587067495557
 30
0.0
 10
8.274819290251633
 20
-14.04231826660819
 30
0.0
 10
8.275392436804672
 20
-14.04068018462145
 30
0.0
 10
8.275838412450827
 20
-14.03899779772908
 30
0.0
 10
8.276136061215575
 20
-14.03728865110166
 30
0.0
 10
8.276425794300001
 20
-14.0356249575722
 30
0.0
 10
8.276574984819198
 20
-14.0339359086805
 30
0.0
 10
8.27657498478743
 20
-14.03224685979317
 30
0.0
 10
8.276574984755647
 20
-14.0305578109059
 30
0.0
 10
8.276425794172926
 20
-14.02886876202297
 30
0.0
 10
8.276136061048507
 20
-14.02720506849532
 30
0.0
 10
8.275838412238069
 20
-14.02549592184381
 30
0.0
 10
8.27539243656655
 20
-14.02381353492092
 30
0.0
 10
8.27481928997655
 20
-14.02217545291601
 30
0.0
 10
8.273576341977166
 20
-14.01862304453344
 30
0.0
 10
8.27173530981641
 20
-14.01527900194815
 30
0.0
 10
8.269561930010883
 20
-14.01220116421101
 30
0.0
 10
8.268348640968396
 20
-14.01048296162558
 30
0.0
 10
8.267031778128044
 20
-14.0088477199024
 30
0.0
 10
8.265637158954607
 20
-14.00728037395048
 30
0.0
 10
8.264127164777908
 20
-14.00558336353694
 30
0.0
 10
8.262526016743562
 20
-14.00396594743087
 30
0.0
 10
8.260860331815415
 20
-14.00241969864906
 30
0.0
 10
8.259055779392472
 20
-14.00074453971676
 30
0.0
 10
8.25717548068202
 20
-13.99915290914002
 30
0.0
 10
8.255240751409434
 20
-13.99763101983714
 30
0.0
 10
8.253148950538665
 20
-13.99598557547751
 30
0.0
 10
8.250993522426711
 20
-13.9944216559944
 30
0.0
 10
8.248792316972437
 20
-13.992925797903
 30
0.0
 10
8.246420815154982
 20
-13.99131421268008
 30
0.0
 10
8.243996178869261
 20
-13.98978162736557
 30
0.0
 10
8.24153253200173
 20
-13.98831516250531
 30
0.0
 10
8.23888905902945
 20
-13.98674165768443
 30
0.0
 10
8.236200672726617
 20
-13.98524427810144
 30
0.0
 10
8.233478996858277
 20
-13.98381023470599
 30
0.0
 10
8.227478506868388
 20
-13.98064859332923
 30
0.0
 10
8.221316205613687
 20
-13.9777948114413
 30
0.0
 10
8.215064108781815
 20
-13.97516149450517
 30
0.0
 10
8.208050696277229
 20
-13.9722075194749
 30
0.0
 10
8.200924287967444
 20
-13.9695309702996
 30
0.0
 10
8.193727495192534
 20
-13.96706222450105
 30
0.0
 10
8.185784876299635
 20
-13.96433763486303
 30
0.0
 10
8.177756528700822
 20
-13.96186615099976
 30
0.0
 10
8.16967386351977
 20
-13.95959092212587
 30
0.0
 10
8.160884364579398
 20
-13.95711672316686
 30
0.0
 10
8.152030632449257
 20
-13.954874605303
 30
0.0
 10
8.143134256163584
 20
-13.95281926898251
 30
0.0
 10
8.133588175855846
 20
-13.95061383106662
 30
0.0
 10
8.123992995332564
 20
-13.94862345225839
 30
0.0
 10
8.114364465504081
 20
-13.94681246300186
 30
0.0
 10
8.10415677318455
 20
-13.94489254153366
 30
0.0
 10
8.093911598932688
 20
-13.94317423946957
 30
0.0
 10
8.083640681723483
 20
-13.94162872546498
 30
0.0
 10
8.072874199435153
 20
-13.9400086414145
 30
0.0
 10
8.06207943009805
 20
-13.93857842149724
 30
0.0
 10
8.051265133155071
 20
-13.9373172273214
 30
0.0
 10
8.040043718955088
 20
-13.93600855396908
 30
0.0
 10
8.028801279193492
 20
-13.93488187226363
 30
0.0
 10
8.017544824480106
 20
-13.93392059335416
 30
0.0
 10
8.005973603480912
 20
-13.93293243402809
 30
0.0
 10
7.994387572765831
 20
-13.93211905720987
 30
0.0
 10
7.982792467283324
 20
-13.93147009103366
 30
0.0
 10
7.970983763010015
 20
-13.93080916995177
 30
0.0
 10
7.95916564654879
 20
-13.93031877267339
 30
0.0
 10
7.947342881909624
 20
-13.92999107837095
 30
0.0
 10
7.935428692555596
 20
-13.92966085002849
 30
0.0
 10
7.923509782857459
 20
-13.92949585073552
 30
0.0
 10
7.911591518451144
 20
-13.92949585073552
 30
0.0
  0
SPLINE
  5
11C
330
70
100
AcDbEntity
  8
Layer 1
 62
    18
420
        0
370
     5
100
AcDbSpline
210
0.0
220
0.0
230
1.0
 70
     8
 71
     3
 72
    62
 73
    58
 74
     0
 42
0.0000000001
 43
0.0000000001
 40
0.0
 40
0.0
 40
0.0
 40
0.0
 40
1.0
 40
1.0
 40
1.0
 40
2.0
 40
2.0
 40
2.0
 40
3.0
 40
3.0
 40
3.0
 40
4.0
 40
4.0
 40
4.0
 40
5.0
 40
5.0
 40
5.0
 40
6.0
 40
6.0
 40
6.0
 40
7.0
 40
7.0
 40
7.0
 40
8.0
 40
8.0
 40
8.0
 40
9.0
 40
9.0
 40
9.0
 40
10.0
 40
10.0
 40
10.0
 40
11.0
 40
11.0
 40
11.0
 40
12.0
 40
12.0
 40
12.0
 40
13.0
 40
13.0
 40
13.0
 40
14.0
 40
14.0
 40
14.0
 40
15.0
 40
15.0
 40
15.0
 40
16.0
 40
16.0
 40
16.0
 40
17.0
 40
17.0
 40
17.0
 40
18.0
 40
18.0
 40
18.0
 40
19.0
 40
19.0
 40
19.0
 40
19.0
 10
7.911591518451144
 20
-14.12259223321184
 30
0.0
 10
7.901113778591693
 20
-14.12259223321184
 30
0.0
 10
7.890635472557997
 20
-14.12244699854295
 30
0.0
 10
7.880161317482702
 20
-14.12215661454489
 30
0.0
 10
7.869765139980876
 20
-14.12186839238615
 30
0.0
 10
7.859373051861754
 20
-14.12143717405729
 30
0.0
 10
7.848989225644256
 20
-14.12085615295478
 30
0.0
 10
7.838792364183277
 20
-14.12028559335903
 30
0.0
 10
7.828603469785004
 20
-14.11957057693689
 30
0.0
 10
7.818427626602315
 20
-14.11870157616065
 30
0.0
 10
7.808530076431729
 20
-14.11785634116386
 30
0.0
 10
7.798644873378495
 20
-14.11686542909357
 30
0.0
 10
7.788778119894218
 20
-14.11571477147825
 30
0.0
 10
7.779270119070297
 20
-14.11460595148274
 30
0.0
 10
7.769779250562944
 20
-14.11334879136891
 30
0.0
 10
7.760313338884328
 20
-14.11192418707621
 30
0.0
 10
7.751283112561205
 20
-14.11056515272003
 30
0.0
 10
7.742275598572468
 20
-14.10905373329051
 30
0.0
 10
7.733300894673649
 20
-14.10736583519178
 30
0.0
 10
7.724834263681296
 20
-14.10577349181029
 30
0.0
 10
7.716396833063766
 20
-14.10402408566811
 30
0.0
 10
7.708002721365851
 20
-14.10208476337779
 30
0.0
 10
7.70018082374559
 20
-14.10027764179618
 30
0.0
 10
7.692396540373326
 20
-14.09830561413756
 30
0.0
 10
7.684668689467242
 20
-14.09613025895755
 30
0.0
 10
7.677561591252848
 20
-14.09412964286086
 30
0.0
 10
7.670502223561722
 20
-14.09195705255064
 30
0.0
 10
7.663517898010164
 20
-14.08956132370437
 30
0.0
 10
7.657190205579695
 20
-14.08739082990738
 30
0.0
 10
7.650924108365175
 20
-14.08503718213329
 30
0.0
 10
7.644759009326939
 20
-14.08243978905443
 30
0.0
 10
7.639262618877372
 20
-14.08012412690143
 30
0.0
 10
7.633846504953642
 20
-14.07761472831688
 30
0.0
 10
7.628567050335681
 20
-14.07483523347451
 30
0.0
 10
7.62394254006022
 20
-14.07240054970707
 30
0.0
 10
7.619422885615549
 20
-14.06975862672278
 30
0.0
 10
7.615102308949619
 20
-14.06682044658163
 30
0.0
 10
7.613167393683195
 20
-14.06550462000339
 30
0.0
 10
7.611272405102099
 20
-14.06412937661652
 30
0.0
 10
7.609434268468564
 20
-14.06268310506569
 30
0.0
 10
7.607733746511497
 20
-14.06134511066236
 30
0.0
 10
7.606081882554349
 20
-14.0599463252301
 30
0.0
 10
7.604492789372898
 20
-14.05847257171533
 30
0.0
 10
7.601674828152416
 20
-14.05585914394308
 30
0.0
 10
7.599054258588542
 20
-14.05300996834401
 30
0.0
 10
7.596839470981497
 20
-14.04987237625682
 30
0.0
 10
7.59585223260587
 20
-14.0484737991176
 30
0.0
 10
7.594945619767208
 20
-14.04701791599463
 30
0.0
 10
7.594147891746729
 20
-14.04550324106142
 30
0.0
 10
7.593400978908157
 20
-14.04408505074505
 30
0.0
 10
7.592749520806528
 20
-14.04261532012325
 30
0.0
 10
7.59222005823253
 20
-14.04110218253542
 30
0.0
 10
7.591716257005448
 20
-14.03966238185641
 30
0.0
 10
7.591322912415913
 20
-14.03818327983895
 30
0.0
 10
7.591060232558106
 20
-14.0366798418579
 30
0.0
 10
7.590804562924264
 20
-14.03521652662208
 30
0.0
 10
7.590672676897812
 20
-14.03373015701395
 30
0.0
 10
7.590672676897812
 20
-14.03224686008085
 30
0.0
  0
SPLINE
  5
11D
330
70
100
AcDbEntity
  8
Layer 1
 62
    18
420
        0
370
     5
100
AcDbSpline
210
0.0
220
0.0
230
1.0
 70
     8
 71
     3
 72
    68
 73
    64
 74
     0
 42
0.0000000001
 43
0.0000000001
 40
0.0
 40
0.0
 40
0.0
 40
0.0
 40
1.0
 40
1.0
 40
1.0
 40
2.0
 40
2.0
 40
2.0
 40
3.0
 40
3.0
 40
3.0
 40
4.0
 40
4.0
 40
4.0
 40
5.0
 40
5.0
 40
5.0
 40
6.0
 40
6.0
 40
6.0
 40
7.0
 40
7.0
 40
7.0
 40
8.0
 40
8.0
 40
8.0
 40
9.0
 40
9.0
 40
9.0
 40
10.0
 40
10.0
 40
10.0
 40
11.0
 40
11.0
 40
11.0
 40
12.0
 40
12.0
 40
12.0
 40
13.0
 40
13.0
 40
13.0
 40
14.0
 40
14.0
 40
14.0
 40
15.0
 40
15.0
 40
15.0
 40
16.0
 40
16.0
 40
16.0
 40
17.0
 40
17.0
 40
17.0
 40
18.0
 40
18.0
 40
18.0
 40
19.0
 40
19.0
 40
19.0
 40
20.0
 40
20.0
 40
20.0
 40
21.0
 40
21.0
 40
21.0
 40
21.0
 10
8.291174332591303
 20
-14.01823791937093
 30
0.0
 10
8.291174332591303
 20
-14.01648349460156
 30
0.0
 10
8.291019290706987
 20
-14.01472543902865
 30
0.0
 10
8.29071785367561
 20
-14.01299447749989
 30
0.0
 10
8.29040818118613
 20
-14.01121622496268
 30
0.0
 10
8.289944005053976
 20
-14.00946656714743
 30
0.0
 10
8.289348416780423
 20
-14.00776369816721
 30
0.0
 10
8.288722383801919
 20
-14.00597378357843
 30
0.0
 10
8.28795116051117
 20
-14.00423556349458
 30
0.0
 10
8.287067036849723
 20
-14.00255821398463
 30
0.0
 10
8.286122621365342
 20
-14.00076647950343
 30
0.0
 10
8.285049382249086
 20
-13.99904420067019
 30
0.0
 10
8.283880809957306
 20
-13.99739047768083
 30
0.0
 10
8.282620813162376
 20
-13.99560737390445
 30
0.0
 10
8.281249982682867
 20
-13.99390397267363
 30
0.0
 10
8.279799086842039
 20
-13.99227287510406
 30
0.0
 10
8.278228159440333
 20
-13.99050683801523
 30
0.0
 10
8.276563371200785
 20
-13.98882556270248
 30
0.0
 10
8.274831222008641
 20
-13.98721779215192
 30
0.0
 10
8.272954663169583
 20
-13.98547598142831
 30
0.0
 10
8.270999043385534
 20
-13.98382044258366
 30
0.0
 10
8.26898689149737
 20
-13.98223758526948
 30
0.0
 10
8.26681138718273
 20
-13.98052622692878
 30
0.0
 10
8.264569799293502
 20
-13.97889983014033
 30
0.0
 10
8.262280580851122
 20
-13.97734417025789
 30
0.0
 10
8.259814258765105
 20
-13.9756681579319
 30
0.0
 10
8.257292651243295
 20
-13.97407425090197
 30
0.0
 10
8.254730478359281
 20
-13.97254912364858
 30
0.0
 10
8.251981284679358
 20
-13.97091267271589
 30
0.0
 10
8.2491853875271
 20
-13.96935540890778
 30
0.0
 10
8.246354867361775
 20
-13.96786401321684
 30
0.0
 10
8.240114398331405
 20
-13.96457592195543
 30
0.0
 10
8.233705636004376
 20
-13.96160799816645
 30
0.0
 10
8.227203492155556
 20
-13.95886934953806
 30
0.0
 10
8.219909603015821
 20
-13.95579722441248
 30
0.0
 10
8.212498206232515
 20
-13.95301361015403
 30
0.0
 10
8.205013605205104
 20
-13.95044612025915
 30
0.0
 10
8.196753346469272
 20
-13.94761255160867
 30
0.0
 10
8.188403924408993
 20
-13.94504222407168
 30
0.0
 10
8.179998016178425
 20
-13.94267598642687
 30
0.0
 10
8.170857020308201
 20
-13.94010282384329
 30
0.0
 10
8.161649226990371
 20
-13.93777100677466
 30
0.0
 10
8.152397078681133
 20
-13.93563346254667
 30
0.0
 10
8.142469179228807
 20
-13.93333979804189
 30
0.0
 10
8.132490209046169
 20
-13.93126982100777
 30
0.0
 10
8.122476559508235
 20
-13.92938638920706
 30
0.0
 10
8.111860597616644
 20
-13.92738967061349
 30
0.0
 10
8.10120565903623
 20
-13.92560261322748
 30
0.0
 10
8.09052394615465
 20
-13.9239952624422
 30
0.0
 10
8.079326937579025
 20
-13.92231037157077
 30
0.0
 10
8.068100509159409
 20
-13.92082294393577
 30
0.0
 10
8.056853773203062
 20
-13.91951128820417
 30
0.0
 10
8.045183659282718
 20
-13.91815025582357
 30
0.0
 10
8.033491680112762
 20
-13.916978478132
 30
0.0
 10
8.021785122743898
 20
-13.915978747235
 30
0.0
 10
8.009750898631397
 20
-13.91495103385286
 30
0.0
 10
7.997701268810764
 20
-13.91410513323939
 30
0.0
 10
7.985642202546626
 20
-13.91343020660487
 30
0.0
 10
7.973360772896827
 20
-13.91274283464771
 30
0.0
 10
7.961069555587957
 20
-13.91223280015937
 30
0.0
 10
7.948773503714467
 20
-13.91189196862238
 30
0.0
 10
7.936382557969472
 20
-13.9115485067433
 30
0.0
 10
7.92398670275112
 20
-13.91137686951563
 30
0.0
 10
7.911591518451144
 20
-13.91137686951563
 30
0.0
  0
SPLINE
  5
11E
330
70
100
AcDbEntity
  8
Layer 1
 62
    18
420
        0
370
     5
100
AcDbSpline
210
0.0
220
0.0
230
1.0
 70
     8
 71
     3
 72
    62
 73
    58
 74
     0
 42
0.0000000001
 43
0.0000000001
 40
0.0
 40
0.0
 40
0.0
 40
0.0
 40
1.0
 40
1.0
 40
1.0
 40
2.0
 40
2.0
 40
2.0
 40
3.0
 40
3.0
 40
3.0
 40
4.0
 40
4.0
 40
4.0
 40
5.0
 40
5.0
 40
5.0
 40
6.0
 40
6.0
 40
6.0
 40
7.0
 40
7.0
 40
7.0
 40
8.0
 40
8.0
 40
8.0
 40
9.0
 40
9.0
 40
9.0
 40
10.0
 40
10.0
 40
10.0
 40
11.0
 40
11.0
 40
11.0
 40
12.0
 40
12.0
 40
12.0
 40
13.0
 40
13.0
 40
13.0
 40
14.0
 40
14.0
 40
14.0
 40
15.0
 40
15.0
 40
15.0
 40
16.0
 40
16.0
 40
16.0
 40
17.0
 40
17.0
 40
17.0
 40
18.0
 40
18.0
 40
18.0
 40
19.0
 40
19.0
 40
19.0
 40
19.0
 10
8.232510360004514
 20
-14.03224686008085
 30
0.0
 10
8.232510360004514
 20
-14.03373015701395
 30
0.0
 10
8.23237847393006
 20
-14.03521652662208
 30
0.0
 10
8.232122804287326
 20
-14.0366798418579
 30
0.0
 10
8.231860124420425
 20
-14.03818327983895
 30
0.0
 10
8.231466779863062
 20
-14.03966238185641
 30
0.0
 10
8.230962978652428
 20
-14.04110218253542
 30
0.0
 10
8.230433516095823
 20
-14.04261532012325
 30
0.0
 10
8.229782057994157
 20
-14.04408505074505
 30
0.0
 10
8.229035145155584
 20
-14.04550324106142
 30
0.0
 10
8.228237417135106
 20
-14.04701791599463
 30
0.0
 10
8.227330804296457
 20
-14.0484737991176
 30
0.0
 10
8.226343565914197
 20
-14.04987237625682
 30
0.0
 10
8.224128778292184
 20
-14.05300996834401
 30
0.0
 10
8.22150820867988
 20
-14.05585914394308
 30
0.0
 10
8.218690247441941
 20
-14.05847257171533
 30
0.0
 10
8.217101154250661
 20
-14.0599463252301
 30
0.0
 10
8.215449290293538
 20
-14.06134511066236
 30
0.0
 10
8.213748768346817
 20
-14.06268310506569
 30
0.0
 10
8.211910631724549
 20
-14.06412937661652
 30
0.0
 10
8.210015643166835
 20
-14.06550462000339
 30
0.0
 10
8.208080727911388
 20
-14.06682044658163
 30
0.0
 10
8.203760151269888
 20
-14.06975862672278
 30
0.0
 10
8.199240496787675
 20
-14.07240054970707
 30
0.0
 10
8.194615986492193
 20
-14.07483523347451
 30
0.0
 10
8.189336531851369
 20
-14.07761472831688
 30
0.0
 10
8.183920417927627
 20
-14.08012412690143
 30
0.0
 10
8.178424027491713
 20
-14.08243978905443
 30
0.0
 10
8.172258928468812
 20
-14.08503718213329
 30
0.0
 10
8.16599283128677
 20
-14.08739082990738
 30
0.0
 10
8.159665138859383
 20
-14.08956132370437
 30
0.0
 10
8.152680813311146
 20
-14.09195705255064
 30
0.0
 10
8.145621445587481
 20
-14.09412964286086
 30
0.0
 10
8.138514347370497
 20
-14.09613025895755
 30
0.0
 10
8.13078649646161
 20
-14.09830561413756
 30
0.0
 10
8.123002213121809
 20
-14.10027764179618
 30
0.0
 10
8.115180315503783
 20
-14.10208476337779
 30
0.0
 10
8.106786203808256
 20
-14.10402408566811
 30
0.0
 10
8.09834877315821
 20
-14.10577349181029
 30
0.0
 10
8.08988214214907
 20
-14.10736583519178
 30
0.0
 10
8.08090743823253
 20
-14.10905373329051
 30
0.0
 10
8.071899924243792
 20
-14.11056515272003
 30
0.0
 10
8.062869697935802
 20
-14.11192418707621
 30
0.0
 10
8.053403786273102
 20
-14.11334879136891
 30
0.0
 10
8.043912917798239
 20
-14.11460595148274
 30
0.0
 10
8.03440491699089
 20
-14.11571477147825
 30
0.0
 10
8.024538163523844
 20
-14.11686542909357
 30
0.0
 10
8.014652960470572
 20
-14.11785634116386
 30
0.0
 10
8.004755410284385
 20
-14.11870157616065
 30
0.0
 10
7.994579567085666
 20
-14.11957057693689
 30
0.0
 10
7.984390672654866
 20
-14.12028559335903
 30
0.0
 10
7.974193811193294
 20
-14.12085615295478
 30
0.0
 10
7.963809984975189
 20
-14.12143717405729
 30
0.0
 10
7.953417896888645
 20
-14.12186839238615
 30
0.0
 10
7.943021719403203
 20
-14.12215661454489
 30
0.0
 10
7.932547564344304
 20
-14.12244699854295
 30
0.0
 10
7.922069258310632
 20
-14.12259223321184
 30
0.0
 10
7.911591518451144
 20
-14.12259223321184
 30
0.0
  0
SPLINE
  5
11F
330
70
100
AcDbEntity
  8
Layer 1
 62
    18
420
        0
370
     5
100
AcDbSpline
210
0.0
220
0.0
230
1.0
 70
     8
 71
     3
 72
    68
 73
    64
 74
     0
 42
0.0000000001
 43
0.0000000001
 40
0.0
 40
0.0
 40
0.0
 40
0.0
 40
1.0
 40
1.0
 40
1.0
 40
2.0
 40
2.0
 40
2.0
 40
3.0
 40
3.0
 40
3.0
 40
4.0
 40
4.0
 40
4.0
 40
5.0
 40
5.0
 40
5.0
 40
6.0
 40
6.0
 40
6.0
 40
7.0
 40
7.0
 40
7.0
 40
8.0
 40
8.0
 40
8.0
 40
9.0
 40
9.0
 40
9.0
 40
10.0
 40
10.0
 40
10.0
 40
11.0
 40
11.0
 40
11.0
 40
12.0
 40
12.0
 40
12.0
 40
13.0
 40
13.0
 40
13.0
 40
14.0
 40
14.0
 40
14.0
 40
15.0
 40
15.0
 40
15.0
 40
16.0
 40
16.0
 40
16.0
 40
17.0
 40
17.0
 40
17.0
 40
18.0
 40
18.0
 40
18.0
 40
19.0
 40
19.0
 40
19.0
 40
20.0
 40
20.0
 40
20.0
 40
21.0
 40
21.0
 40
21.0
 40
21.0
 10
7.911591518451144
 20
-13.91137686951563
 30
0.0
 10
7.899196334053852
 20
-13.91137686951563
 30
0.0
 10
7.88680047884241
 20
-13.91154850674315
 30
0.0
 10
7.874409533107849
 20
-13.91189196862193
 30
0.0
 10
7.862113481230911
 20
-13.91223280015881
 30
0.0
 10
7.849822263922103
 20
-13.91274283464706
 30
0.0
 10
7.837540834274818
 20
-13.91343020660403
 30
0.0
 10
7.825481767999171
 20
-13.91410513323904
 30
0.0
 10
7.813432138169471
 20
-13.91495103385316
 30
0.0
 10
7.801397914028787
 20
-13.91597874723634
 30
0.0
 10
7.789691356645536
 20
-13.91697847813331
 30
0.0
 10
7.777999377443052
 20
-13.91815025582499
 30
0.0
 10
7.766329263497418
 20
-13.91951128820682
 30
0.0
 10
7.755082527529907
 20
-13.92082294393814
 30
0.0
 10
7.743856099105729
 20
-13.92231037157381
 30
0.0
 10
7.732659090520591
 20
-13.92399526244705
 30
0.0
 10
7.721977377657177
 20
-13.92560261322983
 30
0.0
 10
7.711322439090293
 20
-13.92738967061364
 30
0.0
 10
7.700706477231922
 20
-13.92938638920413
 30
0.0
 10
7.690692827713367
 20
-13.93126982100413
 30
0.0
 10
7.680713857567714
 20
-13.93333979803732
 30
0.0
 10
7.670785958137634
 20
-13.93563346254023
 30
0.0
 10
7.66153380982319
 20
-13.93777100677251
 30
0.0
 10
7.65232601648755
 20
-13.94010282384556
 30
0.0
 10
7.643185020602029
 20
-13.94267598643379
 30
0.0
 10
7.634779112382855
 20
-13.9450422240758
 30
0.0
 10
7.626429690335726
 20
-13.94761255160867
 30
0.0
 10
7.618169431610365
 20
-13.95044612025544
 30
0.0
 10
7.61068483058063
 20
-13.95301361015099
 30
0.0
 10
7.603273433793042
 20
-13.95579722441102
 30
0.0
 10
7.595979544648381
 20
-13.95886934953867
 30
0.0
 10
7.589477400795153
 20
-13.96160799816895
 30
0.0
 10
7.583068638463297
 20
-13.96457592196018
 30
0.0
 10
7.576828169431614
 20
-13.96786401322278
 30
0.0
 10
7.573997649277885
 20
-13.96935540890778
 30
0.0
 10
7.571201752137666
 20
-13.97091267270914
 30
0.0
 10
7.568452558469338
 20
-13.9725491236345
 30
0.0
 10
7.565890385573285
 20
-13.97407425089452
 30
0.0
 10
7.56336877803988
 20
-13.9756681579319
 30
0.0
 10
7.560902455962806
 20
-13.97734417026433
 30
0.0
 10
7.558613237539248
 20
-13.97889983014556
 30
0.0
 10
7.556371649686171
 20
-13.98052622693123
 30
0.0
 10
7.554196145368741
 20
-13.98223758527233
 30
0.0
 10
7.552183993477986
 20
-13.983820442587
 30
0.0
 10
7.550228373658026
 20
-13.98547598143444
 30
0.0
 10
7.548351814800159
 20
-13.9872177921616
 30
0.0
 10
7.546619665600701
 20
-13.98882556270599
 30
0.0
 10
7.544954877367608
 20
-13.99050683801233
 30
0.0
 10
7.543383949971623
 20
-13.9922728750941
 30
0.0
 10
7.541933054127651
 20
-13.99390397266676
 30
0.0
 10
7.540562223645261
 20
-13.99560737390114
 30
0.0
 10
7.539302226848954
 20
-13.99739047769726
 30
0.0
 10
7.538133654555899
 20
-13.99904420070508
 30
0.0
 10
7.537060415439643
 20
-14.0007664795705
 30
0.0
 10
7.536115999955275
 20
-14.00255821404951
 30
0.0
 10
7.535231876293841
 20
-14.00423556355748
 30
0.0
 10
7.53446065300309
 20
-14.0059737836091
 30
0.0
 10
7.533834620041893
 20
-14.00776369818214
 30
0.0
 10
7.533239031784849
 20
-14.00946656714743
 30
0.0
 10
7.532774855684856
 20
-14.01121622496268
 30
0.0
 10
7.532465183186255
 20
-14.01299447749989
 30
0.0
 10
7.532163746145985
 20
-14.01472543902865
 30
0.0
 10
7.532008704213694
 20
-14.01648349460156
 30
0.0
 10
7.532008704213694
 20
-14.01823791937093
 30
0.0
  0
SPLINE
  5
120
330
70
100
AcDbEntity
  8
Layer 1
 62
    18
420
        0
370
     5
100
AcDbSpline
210
0.0
220
0.0
230
1.0
 70
     8
 71
     3
 72
    50
 73
    46
 74
     0
 42
0.0000000001
 43
0.0000000001
 40
0.0
 40
0.0
 40
0.0
 40
0.0
 40
1.0
 40
1.0
 40
1.0
 40
2.0
 40
2.0
 40
2.0
 40
3.0
 40
3.0
 40
3.0
 40
4.0
 40
4.0
 40
4.0
 40
5.0
 40
5.0
 40
5.0
 40
6.0
 40
6.0
 40
6.0
 40
7.0
 40
7.0
 40
7.0
 40
8.0
 40
8.0
 40
8.0
 40
9.0
 40
9.0
 40
9.0
 40
10.0
 40
10.0
 40
10.0
 40
11.0
 40
11.0
 40
11.0
 40
12.0
 40
12.0
 40
12.0
 40
13.0
 40
13.0
 40
13.0
 40
14.0
 40
14.0
 40
14.0
 40
15.0
 40
15.0
 40
15.0
 40
15.0
 10
8.291176251051499
 20
-10.46216603677754
 30
0.0
 10
8.291176251051499
 20
-10.48603262276386
 30
0.0
 10
8.28871171148061
 20
-10.50999183731068
 30
0.0
 10
8.283870378012831
 20
-10.53339208223497
 30
0.0
 10
8.281440981893322
 20
-10.54513439756887
 30
0.0
 10
8.278413093986285
 20
-10.55673596080439
 30
0.0
 10
8.274804437402066
 20
-10.5681584501145
 30
0.0
 10
8.271189719094484
 20
-10.57960012661194
 30
0.0
 10
8.26699227935204
 20
-10.59086212707153
 30
0.0
 10
8.262238558327997
 20
-10.60188278479308
 30
0.0
 10
8.257472241918055
 20
-10.61293264267922
 30
0.0
 10
8.252146692492626
 20
-10.62373987721687
 30
0.0
 10
8.246293857571673
 20
-10.63425362553794
 30
0.0
 10
8.24042162983369
 20
-10.64480221017354
 30
0.0
 10
8.234018616589676
 20
-10.65505536049247
 30
0.0
 10
8.227123777197043
 20
-10.66496609741855
 30
0.0
 10
8.220204737122962
 20
-10.67491162073692
 30
0.0
 10
8.212790412250607
 20
-10.68451232272231
 30
0.0
 10
8.204919684764011
 20
-10.6937227264542
 30
0.0
 10
8.197020148706807
 20
-10.70296684226248
 30
0.0
 10
8.188660862855638
 20
-10.71181779743574
 30
0.0
 10
8.179890432497561
 20
-10.72024031246312
 30
0.0
 10
8.171087258748418
 20
-10.72869427197979
 30
0.0
 10
8.161869864840506
 20
-10.7367165863152
 30
0.0
 10
8.152284042721918
 20
-10.74427112127556
 30
0.0
 10
8.142663006380214
 20
-10.75185340837634
 30
0.0
 10
8.132670829959478
 20
-10.75896447294536
 30
0.0
 10
8.122360663620826
 20
-10.76557943352206
 30
0.0
 10
8.112015640960924
 20
-10.77221675777185
 30
0.0
 10
8.101350474645805
 20
-10.77835461793024
 30
0.0
 10
8.090416217652204
 20
-10.78396815200477
 30
0.0
 10
8.079450340255169
 20
-10.78959791966652
 30
0.0
 10
8.068213813581058
 20
-10.79470032429832
 30
0.0
 10
8.056760329249236
 20
-10.79925680379149
 30
0.0
 10
8.045276628026638
 20
-10.80382530431176
 30
0.0
 10
8.033574822869164
 20
-10.80784499534477
 30
0.0
 10
8.021708904931188
 20
-10.81130167536995
 30
0.0
 10
8.009813442233861
 20
-10.8147669621274
 30
0.0
 10
7.997753048495016
 20
-10.81766643072215
 30
0.0
 10
7.985583362275392
 20
-10.81998934335408
 30
0.0
 10
7.973394078137566
 20
-10.82231599677682
 30
0.0
 10
7.96109514922888
 20
-10.82406423578353
 30
0.0
 10
7.948739261885608
 20
-10.8252326852925
 30
0.0
 10
7.936392035626239
 20
-10.82640031575546
 30
0.0
 10
7.923987930756386
 20
-10.82698896926356
 30
0.0
 10
7.911591518256487
 20
-10.82698896926356
 30
0.0
  0
SPLINE
  5
121
330
70
100
AcDbEntity
  8
Layer 1
 62
    18
420
        0
370
     5
100
AcDbSpline
210
0.0
220
0.0
230
1.0
 70
     8
 71
     3
 72
    50
 73
    46
 74
     0
 42
0.0000000001
 43
0.0000000001
 40
0.0
 40
0.0
 40
0.0
 40
0.0
 40
1.0
 40
1.0
 40
1.0
 40
2.0
 40
2.0
 40
2.0
 40
3.0
 40
3.0
 40
3.0
 40
4.0
 40
4.0
 40
4.0
 40
5.0
 40
5.0
 40
5.0
 40
6.0
 40
6.0
 40
6.0
 40
7.0
 40
7.0
 40
7.0
 40
8.0
 40
8.0
 40
8.0
 40
9.0
 40
9.0
 40
9.0
 40
10.0
 40
10.0
 40
10.0
 40
11.0
 40
11.0
 40
11.0
 40
12.0
 40
12.0
 40
12.0
 40
13.0
 40
13.0
 40
13.0
 40
14.0
 40
14.0
 40
14.0
 40
15.0
 40
15.0
 40
15.0
 40
15.0
 10
7.911591518451144
 20
-10.82698896926356
 30
0.0
 10
7.899195102642048
 20
-10.82698896926356
 30
0.0
 10
7.886790994602215
 20
-10.82640031367211
 30
0.0
 10
7.874443765299714
 20
-10.82523268150518
 30
0.0
 10
7.862087870470278
 20
-10.82406422987113
 30
0.0
 10
7.849788934243443
 20
-10.82231598870233
 30
0.0
 10
7.837599642506638
 20
-10.81998933399071
 30
0.0
 10
7.825429949472814
 20
-10.81766642021971
 30
0.0
 10
7.813369548626028
 20
-10.81476695142926
 30
0.0
 10
7.801474079697426
 20
-10.8113016617029
 30
0.0
 10
7.789608161102667
 20
-10.80784498033565
 30
0.0
 10
7.777906356007065
 20
-10.80382528572831
 30
0.0
 10
7.766422654465763
 20
-10.79925678298142
 30
0.0
 10
7.75496917330804
 20
-10.79470030265649
 30
0.0
 10
7.743732649297271
 20
-10.78959789886615
 30
0.0
 10
7.732766775062877
 20
-10.78396813108217
 30
0.0
 10
7.721832522287222
 20
-10.77835459743202
 30
0.0
 10
7.711167360634059
 20
-10.7722167368418
 30
0.0
 10
7.700822342118031
 20
-10.76557941326579
 30
0.0
 10
7.690512180477854
 20
-10.75896445372554
 30
0.0
 10
7.680520008205929
 20
-10.75185339134603
 30
0.0
 10
7.670898975594505
 20
-10.74427110690201
 30
0.0
 10
7.661313157924988
 20
-10.73671657516555
 30
0.0
 10
7.652095767994435
 20
-10.72869426458942
 30
0.0
 10
7.643292598367148
 20
-10.72024030868839
 30
0.0
 10
7.634522172270761
 20
-10.71181779741219
 30
0.0
 10
7.626162890810114
 20
-10.70296684586307
 30
0.0
 10
7.61826335848261
 20
-10.69372273431594
 30
0.0
 10
7.610392634269739
 20
-10.68451233431195
 30
0.0
 10
7.602978312066359
 20
-10.67491163664302
 30
0.0
 10
7.596059273784539
 20
-10.66496611809796
 30
0.0
 10
7.589164435853994
 20
-10.65505538546277
 30
0.0
 10
7.582761423247789
 20
-10.64480223985603
 30
0.0
 10
7.576889196654986
 20
-10.63425365964031
 30
0.0
 10
7.571036362361155
 20
-10.6237399148005
 30
0.0
 10
7.565710814159602
 20
-10.61293268340195
 30
0.0
 10
7.560944497296645
 20
-10.60188282922559
 30
0.0
 10
7.556190774465625
 20
-10.59086217206257
 30
0.0
 10
7.551993331565313
 20
-10.57960017259135
 30
0.0
 10
7.548378612327787
 20
-10.56815849635543
 30
0.0
 10
7.544769953142311
 20
-10.55673600201122
 30
0.0
 10
7.541742065393021
 20
-10.545134432851
 30
0.0
 10
7.539312668156727
 20
-10.53339211181519
 30
0.0
 10
7.534471332704129
 20
-10.50999185669148
 30
0.0
 10
7.532006785850853
 20
-10.48603263288613
 30
0.0
 10
7.532006785850853
 20
-10.46216603677754
 30
0.0
  0
SPLINE
  5
122
330
70
100
AcDbEntity
  8
Layer 1
 62
    18
420
        0
370
     5
100
AcDbSpline
210
0.0
220
0.0
230
1.0
 70
     8
 71
     3
 72
    44
 73
    40
 74
     0
 42
0.0000000001
 43
0.0000000001
 40
0.0
 40
0.0
 40
0.0
 40
0.0
 40
1.0
 40
1.0
 40
1.0
 40
2.0
 40
2.0
 40
2.0
 40
3.0
 40
3.0
 40
3.0
 40
4.0
 40
4.0
 40
4.0
 40
5.0
 40
5.0
 40
5.0
 40
6.0
 40
6.0
 40
6.0
 40
7.0
 40
7.0
 40
7.0
 40
8.0
 40
8.0
 40
8.0
 40
9.0
 40
9.0
 40
9.0
 40
10.0
 40
10.0
 40
10.0
 40
11.0
 40
11.0
 40
11.0
 40
12.0
 40
12.0
 40
12.0
 40
13.0
 40
13.0
 40
13.0
 40
13.0
 10
7.911591518451144
 20
-10.82639849718121
 30
0.0
 10
7.886797957251625
 20
-10.82639849718121
 30
0.0
 10
7.861939875174028
 20
-10.82405407180234
 30
0.0
 10
7.837540834265988
 20
-10.81939976381596
 30
0.0
 10
7.813211977227839
 20
-10.81475884395197
 30
0.0
 10
7.789339524292522
 20
-10.80782131112808
 30
0.0
 10
7.766329263440499
 20
-10.79867259209903
 30
0.0
 10
7.743447843407125
 20
-10.7895750992797
 30
0.0
 10
7.721418987184202
 20
-10.77829111301717
 30
0.0
 10
7.700706477213783
 20
-10.76501362713323
 30
0.0
 10
7.690392928325864
 20
-10.75840226038106
 30
0.0
 10
7.680405757488061
 20
-10.75129662054655
 30
0.0
 10
7.670785958099131
 20
-10.74372067796414
 30
0.0
 10
7.661204084807372
 20
-10.73617460356528
 30
0.0
 10
7.65198669194779
 20
-10.72816192744931
 30
0.0
 10
7.643185020619966
 20
-10.71971646116382
 30
0.0
 10
7.634419005683487
 20
-10.71130520824989
 30
0.0
 10
7.62606535084794
 20
-10.70246466461056
 30
0.0
 10
7.618169431573114
 20
-10.69323220922191
 30
0.0
 10
7.610304875489001
 20
-10.68403642584679
 30
0.0
 10
7.602894425866692
 20
-10.6744518379453
 30
0.0
 10
7.595979544633538
 20
-10.66452190252299
 30
0.0
 10
7.589090928272412
 20
-10.65462968408729
 30
0.0
 10
7.582694122803975
 20
-10.64439473662335
 30
0.0
 10
7.576828169476597
 20
-10.63386387989643
 30
0.0
 10
7.570982324849169
 20
-10.62336912332696
 30
0.0
 10
7.565663699040479
 20
-10.61258048279261
 30
0.0
 10
7.56090245600031
 20
-10.60155106868395
 30
0.0
 10
7.556155250434471
 20
-10.5905541723686
 30
0.0
 10
7.551962145842012
 20
-10.57931792012151
 30
0.0
 10
7.548351814805565
 20
-10.56789714517233
 30
0.0
 10
7.544749852961141
 20
-10.5565028449863
 30
0.0
 10
7.541727965922632
 20
-10.54492487659922
 30
0.0
 10
7.539302226890614
 20
-10.53322387288143
 30
0.0
 10
7.5368803951905
 20
-10.52154171690626
 30
0.0
 10
7.535052792517085
 20
-10.50973692164686
 30
0.0
 10
7.533834620058073
 20
-10.4978670835252
 30
0.0
 10
7.532617446612611
 20
-10.48600697976323
 30
0.0
 10
7.532008704213694
 20
-10.47408193977751
 30
0.0
 10
7.532008704213694
 20
-10.46216603677754
 30
0.0
  0
SPLINE
  5
123
330
70
100
AcDbEntity
  8
Layer 1
 62
    18
420
        0
370
     5
100
AcDbSpline
210
0.0
220
0.0
230
1.0
 70
     8
 71
     3
 72
    41
 73
    37
 74
     0
 42
0.0000000001
 43
0.0000000001
 40
0.0
 40
0.0
 40
0.0
 40
0.0
 40
1.0
 40
1.0
 40
1.0
 40
2.0
 40
2.0
 40
2.0
 40
3.0
 40
3.0
 40
3.0
 40
4.0
 40
4.0
 40
4.0
 40
5.0
 40
5.0
 40
5.0
 40
6.0
 40
6.0
 40
6.0
 40
7.0
 40
7.0
 40
7.0
 40
8.0
 40
8.0
 40
8.0
 40
9.0
 40
9.0
 40
9.0
 40
10.0
 40
10.0
 40
10.0
 40
11.0
 40
11.0
 40
11.0
 40
12.0
 40
12.0
 40
12.0
 40
12.0
 10
8.291174332591303
 20
-10.46216603677754
 30
0.0
 10
8.291174332591303
 20
-10.47249969911998
 30
0.0
 10
8.290716801867814
 20
-10.48283935167751
 30
0.0
 10
8.289801334375713
 20
-10.4931366045579
 30
0.0
 10
8.288885305699864
 20
-10.50344016967892
 30
0.0
 10
8.287510778650622
 20
-10.51370128312475
 30
0.0
 10
8.285686051492385
 20
-10.52388240537796
 30
0.0
 10
8.283859078180423
 20
-10.53407606011615
 30
0.0
 10
8.281580795726716
 20
-10.54418952660977
 30
0.0
 10
8.278862440977869
 20
-10.55418172156282
 30
0.0
 10
8.276139282094655
 20
-10.56419157567049
 30
0.0
 10
8.272974494066829
 20
-10.57407972921373
 30
0.0
 10
8.269379431642542
 20
-10.58381439393621
 30
0.0
 10
8.262169909210152
 20
-10.60333624791421
 30
0.0
 10
8.253229990280399
 20
-10.62224082947225
 30
0.0
 10
8.242724678556555
 20
-10.64022836022819
 30
0.0
 10
8.232155165698827
 20
-10.65832581821902
 30
0.0
 10
8.220001068406151
 20
-10.67549498240863
 30
0.0
 10
8.2064923920781
 20
-10.69149200239164
 30
0.0
 10
8.199697191844494
 20
-10.69953890138332
 30
0.0
 10
8.192559237024358
 20
-10.70728920800772
 30
0.0
 10
8.185103808754837
 20
-10.71472279458483
 30
0.0
 10
8.177622070189361
 20
-10.72218261437807
 30
0.0
 10
8.169820613485411
 20
-10.72932347476204
 30
0.0
 10
8.161732668598295
 20
-10.7361232917245
 30
0.0
 10
8.153616627704611
 20
-10.74294672997808
 30
0.0
 10
8.145212104757938
 20
-10.74942675125273
 30
0.0
 10
8.136551173576599
 20
-10.75554165009614
 30
0.0
 10
8.127861282495308
 20
-10.76167699557017
 30
0.0
 10
8.118913265587757
 20
-10.76744477278192
 30
0.0
 10
8.109737243517884
 20
-10.77283231345394
 30
0.0
 10
8.091321105441604
 20
-10.78364502643055
 30
0.0
 10
8.071986565185044
 20
-10.79292615098367
 30
0.0
 10
8.052017127115517
 20
-10.8005576581404
 30
0.0
 10
8.03195232257091
 20
-10.80822561048578
 30
0.0
 10
8.01124654167039
 20
-10.81422815191654
 30
0.0
 10
7.99022912978248
 20
-10.81849662428097
 30
0.0
  0
SPLINE
  5
124
330
70
100
AcDbEntity
  8
Layer 1
 62
    18
420
        0
370
     5
100
AcDbSpline
210
0.0
220
0.0
230
1.0
 70
     8
 71
     3
 72
   116
 73
   112
 74
     0
 42
0.0000000001
 43
0.0000000001
 40
0.0
 40
0.0
 40
0.0
 40
0.0
 40
1.0
 40
1.0
 40
1.0
 40
2.0
 40
2.0
 40
2.0
 40
3.0
 40
3.0
 40
3.0
 40
4.0
 40
4.0
 40
4.0
 40
5.0
 40
5.0
 40
5.0
 40
6.0
 40
6.0
 40
6.0
 40
7.0
 40
7.0
 40
7.0
 40
8.0
 40
8.0
 40
8.0
 40
9.0
 40
9.0
 40
9.0
 40
10.0
 40
10.0
 40
10.0
 40
11.0
 40
11.0
 40
11.0
 40
12.0
 40
12.0
 40
12.0
 40
13.0
 40
13.0
 40
13.0
 40
14.0
 40
14.0
 40
14.0
 40
15.0
 40
15.0
 40
15.0
 40
16.0
 40
16.0
 40
16.0
 40
17.0
 40
17.0
 40
17.0
 40
18.0
 40
18.0
 40
18.0
 40
19.0
 40
19.0
 40
19.0
 40
20.0
 40
20.0
 40
20.0
 40
21.0
 40
21.0
 40
21.0
 40
22.0
 40
22.0
 40
22.0
 40
23.0
 40
23.0
 40
23.0
 40
24.0
 40
24.0
 40
24.0
 40
25.0
 40
25.0
 40
25.0
 40
26.0
 40
26.0
 40
26.0
 40
27.0
 40
27.0
 40
27.0
 40
28.0
 40
28.0
 40
28.0
 40
29.0
 40
29.0
 40
29.0
 40
30.0
 40
30.0
 40
30.0
 40
31.0
 40
31.0
 40
31.0
 40
32.0
 40
32.0
 40
32.0
 40
33.0
 40
33.0
 40
33.0
 40
34.0
 40
34.0
 40
34.0
 40
35.0
 40
35.0
 40
35.0
 40
36.0
 40
36.0
 40
36.0
 40
37.0
 40
37.0
 40
37.0
 40
37.0
 10
18.07138347658833
 20
-16.13094131788539
 30
0.0
 10
18.0547026874157
 20
-16.13094131788464
 30
0.0
 10
18.03801999387992
 20
-16.13062626774414
 30
0.0
 10
18.02135021513494
 20
-16.12998669570871
 30
0.0
 10
18.00563654343765
 20
-16.12938380678345
 30
0.0
 10
17.98993434754271
 20
-16.12849255476029
 30
0.0
 10
17.97425403486634
 20
-16.12731055605769
 30
0.0
 10
17.95946409317457
 20
-16.12619567447016
 30
0.0
 10
17.94469362008107
 20
-16.12482212753624
 30
0.0
 10
17.92995124271147
 20
-16.12319448909253
 30
0.0
 10
17.916039818473
 20
-16.12165859238282
 30
0.0
 10
17.90215341199155
 20
-16.11989644061567
 30
0.0
 10
17.88829814538874
 20
-16.11792008494265
 30
0.0
 10
17.88166499485058
 20
-16.11697391298713
 30
0.0
 10
17.87503898149569
 20
-16.11597864602542
 30
0.0
 10
17.86842032825254
 20
-16.11493650334311
 30
0.0
 10
17.8619902162907
 20
-16.11392404750331
 30
0.0
 10
17.85556705108769
 20
-16.112867348541
 30
0.0
 10
17.84915104986263
 20
-16.11176893378138
 30
0.0
 10
17.84291807710446
 20
-16.11070185336249
 30
0.0
 10
17.83669186542238
 20
-16.10959540324122
 30
0.0
 10
17.83047234861118
 20
-16.10845257503067
 30
0.0
 10
17.82443076134152
 20
-16.10734244114426
 30
0.0
 10
17.8183954913649
 20
-16.1061979808231
 30
0.0
 10
17.8123662628655
 20
-16.1050226258224
 30
0.0
 10
17.80651026193507
 20
-16.10388104029835
 30
0.0
 10
17.80065996031024
 20
-16.10271030988009
 30
0.0
 10
17.79481483098551
 20
-16.1015142849431
 30
0.0
 10
17.78913427042056
 20
-16.10035193391284
 30
0.0
 10
17.78345859500501
 20
-16.09916569264002
 30
0.0
 10
17.7777913587345
 20
-16.09793977647549
 30
0.0
 10
17.77226325607812
 20
-16.09674395719384
 30
0.0
 10
17.76674318328246
 20
-16.09551038718614
 30
0.0
 10
17.76123571161052
 20
-16.0942233461378
 30
0.0
 10
17.75583684809271
 20
-16.0929616857289
 30
0.0
 10
17.75045009360711
 20
-16.09164864239912
 30
0.0
 10
17.74507975163619
 20
-16.09026818341117
 30
0.0
 10
17.7345366571138
 20
-16.08755805625876
 30
0.0
 10
17.72405681942442
 20
-16.08458809683192
 30
0.0
 10
17.71369434185999
 20
-16.0812544191186
 30
0.0
 10
17.70854118331105
 20
-16.07959661385904
 30
0.0
 10
17.70341704763258
 20
-16.0778488619606
 30
0.0
 10
17.69832861623157
 20
-16.07600219654258
 30
0.0
 10
17.69321058786813
 20
-16.07414478995838
 30
0.0
 10
17.6881286803391
 20
-16.07218731584334
 30
0.0
 10
17.68309002638115
 20
-16.07012399980287
 30
0.0
 10
17.67798359471276
 20
-16.06803292896155
 30
0.0
 10
17.67292158809722
 20
-16.06583314956715
 30
0.0
 10
17.66791043431016
 20
-16.06352301838794
 30
0.0
 10
17.66279278325782
 20
-16.06116379219704
 30
0.0
 10
17.65772816945501
 20
-16.05868947397875
 30
0.0
 10
17.6527217021075
 20
-16.0561024417603
 30
0.0
 10
17.64757022393244
 20
-16.05344047692837
 30
0.0
 10
17.64248030938405
 20
-16.05065917407998
 30
0.0
 10
17.63745569204517
 20
-16.04776545959453
 30
0.0
 10
17.63487737278168
 20
-16.04628058636002
 30
0.0
 10
17.63231624692844
 20
-16.04476611401406
 30
0.0
 10
17.62977241463305
 20
-16.04322306307179
 30
0.0
 10
17.62717841626944
 20
-16.04164958213644
 30
0.0
 10
17.62460240027025
 20
-16.04004638431247
 30
0.0
 10
17.62204426608372
 20
-16.03841526128591
 30
0.0
 10
17.62074503665013
 20
-16.03758684381781
 30
0.0
 10
17.61945041971891
 20
-16.03675122321735
 30
0.0
 10
17.61816079821872
 20
-16.03590796322924
 30
0.0
 10
17.61685736311998
 20
-16.03505567078077
 30
0.0
 10
17.61555903104131
 20
-16.03419557441164
 30
0.0
 10
17.61426710275034
 20
-16.03332586889415
 30
0.0
 10
17.61164260413766
 20
-16.03155909829231
 30
0.0
 10
17.60904453282607
 20
-16.02975267243265
 30
0.0
 10
17.60648301195624
 20
-16.02789553362206
 30
0.0
 10
17.60386753337232
 20
-16.02599927470644
 30
0.0
 10
17.60129016129783
 20
-16.0240501438293
 30
0.0
 10
17.59876185235266
 20
-16.02203897133447
 30
0.0
 10
17.59617737947782
 20
-16.01998312259429
 30
0.0
 10
17.59364417372287
 20
-16.01786244523252
 30
0.0
 10
17.59117386179185
 20
-16.01567054451046
 30
0.0
 10
17.58864236031937
 20
-16.01342435048281
 30
0.0
 10
17.58617690701506
 20
-16.01110336099521
 30
0.0
 10
17.5837892779195
 20
-16.00870461551168
 30
0.0
 10
17.58133293068961
 20
-16.00623683195418
 30
0.0
 10
17.57895895183623
 20
-16.00368675221598
 30
0.0
 10
17.57667833840251
 20
-16.00105554663165
 30
0.0
 10
17.5743198162646
 20
-15.99833445566206
 30
0.0
 10
17.57206114747027
 20
-15.99552660144546
 30
0.0
 10
17.56991128095261
 20
-15.99263770034031
 30
0.0
 10
17.56767398001835
 20
-15.98963130850701
 30
0.0
 10
17.56555451123328
 20
-15.98653714342688
 30
0.0
 10
17.56355834320291
 20
-15.98336543891416
 30
0.0
 10
17.56146652690237
 20
-15.98004175919436
 30
0.0
 10
17.55951011059081
 20
-15.97663293126629
 30
0.0
 10
17.55768976295924
 20
-15.97315312478129
 30
0.0
 10
17.55576855352117
 20
-15.96948050920749
 30
0.0
 10
17.55399890908468
 20
-15.9657288316107
 30
0.0
 10
17.55237577774485
 20
-15.96191512026608
 30
0.0
 10
17.55065098843422
 20
-15.9578625532315
 30
0.0
 10
17.54909163939151
 20
-15.95373993867146
 30
0.0
 10
17.54768662537026
 20
-15.94956578770403
 30
0.0
 10
17.54618447800062
 20
-15.94510306363061
 30
0.0
 10
17.54485874268367
 20
-15.94058143106486
 30
0.0
 10
17.54369254344192
 20
-15.93601948952518
 30
0.0
 10
17.54243935186569
 20
-15.93111725112241
 30
0.0
 10
17.5413703851887
 20
-15.92616846577627
 30
0.0
 10
17.54046376966643
 20
-15.92119058804009
 30
0.0
 10
17.53948566748946
 20
-15.91582020453054
 30
0.0
 10
17.53869652864159
 20
-15.91041595988278
 30
0.0
 10
17.53807054177378
 20
-15.90499344566635
 30
0.0
 10
17.53739330034321
 20
-15.8991269467452
 30
0.0
 10
17.53690702178604
 20
-15.89323906402395
 30
0.0
 10
17.53658309738178
 20
-15.88734242471699
 30
0.0
 10
17.5362320396498
 20
-15.88095185706086
 30
0.0
 10
17.53607167421473
 20
-15.87455100439858
 30
0.0
 10
17.53607167421498
 20
-15.86815188759952
 30
0.0
  0
SPLINE
  5
125
330
70
100
AcDbEntity
  8
Layer 1
 62
    18
420
        0
370
     5
100
AcDbSpline
210
0.0
220
0.0
230
1.0
 70
     8
 71
     3
 72
   116
 73
   112
 74
     0
 42
0.0000000001
 43
0.0000000001
 40
0.0
 40
0.0
 40
0.0
 40
0.0
 40
1.0
 40
1.0
 40
1.0
 40
2.0
 40
2.0
 40
2.0
 40
3.0
 40
3.0
 40
3.0
 40
4.0
 40
4.0
 40
4.0
 40
5.0
 40
5.0
 40
5.0
 40
6.0
 40
6.0
 40
6.0
 40
7.0
 40
7.0
 40
7.0
 40
8.0
 40
8.0
 40
8.0
 40
9.0
 40
9.0
 40
9.0
 40
10.0
 40
10.0
 40
10.0
 40
11.0
 40
11.0
 40
11.0
 40
12.0
 40
12.0
 40
12.0
 40
13.0
 40
13.0
 40
13.0
 40
14.0
 40
14.0
 40
14.0
 40
15.0
 40
15.0
 40
15.0
 40
16.0
 40
16.0
 40
16.0
 40
17.0
 40
17.0
 40
17.0
 40
18.0
 40
18.0
 40
18.0
 40
19.0
 40
19.0
 40
19.0
 40
20.0
 40
20.0
 40
20.0
 40
21.0
 40
21.0
 40
21.0
 40
22.0
 40
22.0
 40
22.0
 40
23.0
 40
23.0
 40
23.0
 40
24.0
 40
24.0
 40
24.0
 40
25.0
 40
25.0
 40
25.0
 40
26.0
 40
26.0
 40
26.0
 40
27.0
 40
27.0
 40
27.0
 40
28.0
 40
28.0
 40
28.0
 40
29.0
 40
29.0
 40
29.0
 40
30.0
 40
30.0
 40
30.0
 40
31.0
 40
31.0
 40
31.0
 40
32.0
 40
32.0
 40
32.0
 40
33.0
 40
33.0
 40
33.0
 40
34.0
 40
34.0
 40
34.0
 40
35.0
 40
35.0
 40
35.0
 40
36.0
 40
36.0
 40
36.0
 40
37.0
 40
37.0
 40
37.0
 40
37.0
 10
16.31945394150989
 20
-16.13094131780672
 30
0.0
 10
16.33613473068256
 20
-16.13094131780745
 30
0.0
 10
16.35281742421835
 20
-16.13062626766853
 30
0.0
 10
16.36948720296333
 20
-16.12998669563457
 30
0.0
 10
16.38520087466072
 20
-16.12938380671074
 30
0.0
 10
16.40090307055566
 20
-16.12849255468892
 30
0.0
 10
16.41658338323219
 20
-16.12731055598773
 30
0.0
 10
16.43137332492415
 20
-16.12619567440151
 30
0.0
 10
16.44614379801775
 20
-16.12482212746896
 30
0.0
 10
16.46088617538751
 20
-16.12319448902659
 30
0.0
 10
16.47479759962612
 20
-16.12165859231812
 30
0.0
 10
16.48868400610768
 20
-16.11989644055221
 30
0.0
 10
16.50253927271059
 20
-16.11792008488047
 30
0.0
 10
16.50917242324885
 20
-16.11697391292558
 30
0.0
 10
16.51579843660394
 20
-16.11597864596438
 30
0.0
 10
16.52241708984709
 20
-16.1149365032826
 30
0.0
 10
16.52884720180908
 20
-16.11392404744343
 30
0.0
 10
16.53527036701224
 20
-16.11286734848173
 30
0.0
 10
16.5416863682373
 20
-16.11176893372271
 30
0.0
 10
16.54791934099552
 20
-16.11070185330441
 30
0.0
 10
16.55414555267776
 20
-16.1095954031837
 30
0.0
 10
16.560365069489
 20
-16.10845257497362
 30
0.0
 10
16.56640665675882
 20
-16.10734244108784
 30
0.0
 10
16.57244192673559
 20
-16.10619798076712
 30
0.0
 10
16.57847115523514
 20
-16.10502262576698
 30
0.0
 10
16.58432715616552
 20
-16.10388104024342
 30
0.0
 10
16.59017745779051
 20
-16.10271030982577
 30
0.0
 10
16.59602258711538
 20
-16.10151428488929
 30
0.0
 10
16.60170314768048
 20
-16.10035193385957
 30
0.0
 10
16.60737882309599
 20
-16.09916569258717
 30
0.0
 10
16.61304605936665
 20
-16.09793977642314
 30
0.0
 10
16.61857416202307
 20
-16.09674395714202
 30
0.0
 10
16.62409423481899
 20
-16.09551038713483
 30
0.0
 10
16.62960170649108
 20
-16.09422334608701
 30
0.0
 10
16.63500057000889
 20
-16.09296168567862
 30
0.0
 10
16.64038732449464
 20
-16.0916486423492
 30
0.0
 10
16.64575766646567
 20
-16.09026818336186
 30
0.0
 10
16.65630076098836
 20
-16.0875580562104
 30
0.0
 10
16.66678059867798
 20
-16.0845880967845
 30
0.0
 10
16.67714307624272
 20
-16.08125441907203
 30
0.0
 10
16.68229623479187
 20
-16.07959661381293
 30
0.0
 10
16.68742037047039
 20
-16.07784886191499
 30
0.0
 10
16.69250880187155
 20
-16.07600219649743
 30
0.0
 10
16.69762683023524
 20
-16.07414478991366
 30
0.0
 10
16.70270873776437
 20
-16.07218731579908
 30
0.0
 10
16.70774739172248
 20
-16.07012399975908
 30
0.0
 10
16.71285382339106
 20
-16.06803292891818
 30
0.0
 10
16.71791583000691
 20
-16.06583314952425
 30
0.0
 10
16.72292698379397
 20
-16.0635230183455
 30
0.0
 10
16.72804463484671
 20
-16.06116379215506
 30
0.0
 10
16.73310924864967
 20
-16.05868947393717
 30
0.0
 10
16.73811571599743
 20
-16.05610244171933
 30
0.0
 10
16.74326719417275
 20
-16.05344047688779
 30
0.0
 10
16.74835710872144
 20
-16.05065917403979
 30
0.0
 10
16.75338172606062
 20
-16.04776545955481
 30
0.0
 10
16.75596004532407
 20
-16.04628058632053
 30
0.0
 10
16.75852117117746
 20
-16.04476611397492
 30
0.0
 10
16.761065003473
 20
-16.04322306303273
 30
0.0
 10
16.76365900183676
 20
-16.04164958209768
 30
0.0
 10
16.7662350178362
 20
-16.04004638427391
 30
0.0
 10
16.76879315202293
 20
-16.03841526124756
 30
0.0
 10
16.77009238145648
 20
-16.03758684377956
 30
0.0
 10
16.77138699838784
 20
-16.0367512231793
 30
0.0
 10
16.77267661988799
 20
-16.03590796319134
 30
0.0
 10
16.77398005498677
 20
-16.0350556707429
 30
0.0
 10
16.77527838706565
 20
-16.03419557437385
 30
0.0
 10
16.77657031535662
 20
-16.03332586885654
 30
0.0
 10
16.7791948139695
 20
-16.03155909825492
 30
0.0
 10
16.78179288528124
 20
-16.02975267239556
 30
0.0
 10
16.78435440615122
 20
-16.0278955335851
 30
0.0
 10
16.78696988473545
 20
-16.02599927466981
 30
0.0
 10
16.78954725681008
 20
-16.02405014379289
 30
0.0
 10
16.79207556575536
 20
-16.02203897129819
 30
0.0
 10
16.79466003863025
 20
-16.01998312255836
 30
0.0
 10
16.7971932443855
 20
-16.01786244519679
 30
0.0
 10
16.79966355631667
 20
-16.01567054447491
 30
0.0
 10
16.80219505778945
 20
-16.01342435044747
 30
0.0
 10
16.80466051109392
 20
-16.0111033609601
 30
0.0
 10
16.80704814018978
 20
-16.00870461547682
 30
0.0
 10
16.80950448741977
 20
-16.00623683191952
 30
0.0
 10
16.81187846627345
 20
-16.00368675218151
 30
0.0
 10
16.81415907970737
 20
-16.00105554659742
 30
0.0
 10
16.81651760184544
 20
-15.99833445562803
 30
0.0
 10
16.81877627064012
 20
-15.99552660141163
 30
0.0
 10
16.82092613715804
 20
-15.99263770030666
 30
0.0
 10
16.8231634380925
 20
-15.98963130847356
 30
0.0
 10
16.82528290687787
 20
-15.98653714339368
 30
0.0
 10
16.8272790749086
 20
-15.98336543888106
 30
0.0
 10
16.82937089120933
 20
-15.98004175916144
 30
0.0
 10
16.83132730752115
 20
-15.97663293123355
 30
0.0
 10
16.83314765515317
 20
-15.9731531247488
 30
0.0
 10
16.8350688645915
 20
-15.96948050917515
 30
0.0
 10
16.83683850902828
 20
-15.96572883157849
 30
0.0
 10
16.83846164036857
 20
-15.96191512023402
 30
0.0
 10
16.84018642967951
 20
-15.95786255319957
 30
0.0
 10
16.84174577872262
 20
-15.95373993863963
 30
0.0
 10
16.84315079274428
 20
-15.94956578767237
 30
0.0
 10
16.84465294011432
 20
-15.94510306359908
 30
0.0
 10
16.84597867543172
 20
-15.94058143103348
 30
0.0
 10
16.84714487467393
 20
-15.9360194894939
 30
0.0
 10
16.84839806625051
 20
-15.93111725109128
 30
0.0
 10
16.84946703292785
 20
-15.92616846574517
 30
0.0
 10
16.85037364845059
 20
-15.92119058800914
 30
0.0
 10
16.8513517506281
 20
-15.91582020449964
 30
0.0
 10
16.85214088947638
 20
-15.91041595985191
 30
0.0
 10
16.85276687634475
 20
-15.90499344563563
 30
0.0
 10
16.85344411777578
 20
-15.89912694671453
 30
0.0
 10
16.85393039633355
 20
-15.89323906399328
 30
0.0
 10
16.85425432073831
 20
-15.88734242468629
 30
0.0
 10
16.85460537847085
 20
-15.88095185703021
 30
0.0
 10
16.85476574390648
 20
-15.87455100436803
 30
0.0
 10
16.85476574390673
 20
-15.86815188756898
 30
0.0
  0
SPLINE
  5
126
330
70
100
AcDbEntity
  8
Layer 1
 62
    18
420
        0
370
     5
100
AcDbSpline
210
0.0
220
0.0
230
1.0
 70
     8
 71
     3
 72
     8
 73
     4
 74
     0
 42
0.0000000001
 43
0.0000000001
 40
0.0
 40
0.0
 40
0.0
 40
0.0
 40
1.0
 40
1.0
 40
1.0
 40
1.0
 10
1.095229838755522
 20
-4.863821447910873
 30
0.0
 10
1.075448671733309
 20
-4.927756627764639
 30
0.0
 10
1.064716312056563
 20
-5.006298976752961
 30
0.0
 10
1.064716312056753
 20
-5.087127797588676
 30
0.0
  0
SPLINE
  5
127
330
70
100
AcDbEntity
  8
Layer 1
 62
    18
420
        0
370
     5
100
AcDbSpline
210
0.0
220
0.0
230
1.0
 70
     8
 71
     3
 72
     8
 73
     4
 74
     0
 42
0.0000000001
 43
0.0000000001
 40
0.0
 40
0.0
 40
0.0
 40
0.0
 40
1.0
 40
1.0
 40
1.0
 40
1.0
 10
1.064716312056753
 20
-5.087127797584975
 30
0.0
 10
1.064716312056563
 20
-5.167956618420703
 30
0.0
 10
1.075448671733309
 20
-5.246498967409011
 30
0.0
 10
1.095229838755522
 20
-5.310434147262841
 30
0.0
  0
SPLINE
  5
128
330
70
100
AcDbEntity
  8
Layer 1
 62
    18
420
        0
370
     5
100
AcDbSpline
210
0.0
220
0.0
230
1.0
 70
     8
 71
     3
 72
     8
 73
     4
 74
     0
 42
0.0000000001
 43
0.0000000001
 40
0.0
 40
0.0
 40
0.0
 40
0.0
 40
1.0
 40
1.0
 40
1.0
 40
1.0
 10
14.72795319805042
 20
-5.310434147259861
 30
0.0
 10
14.76863790031186
 20
-5.178936154572069
 30
0.0
 10
14.76863790031439
 20
-4.995319440628691
 30
0.0
 10
14.72795319805654
 20
-4.863821447933812
 30
0.0
  0
ENDSEC
  0
SECTION
  2
OBJECTS
  0
DICTIONARY
  5
C
330
0
100
AcDbDictionary
281
     1
  3
ACAD_COLOR
350
63
  3
ACAD_DETAILVIEWSTYLE
350
6A
  3
ACAD_GROUP
350
D
  3
ACAD_LAYOUT
350
62
  3
ACAD_MATERIAL
350
10
  3
ACAD_MLEADERSTYLE
350
66
  3
ACAD_MLINESTYLE
350
5F
  3
ACAD_PLOTSETTINGS
350
61
  3
ACAD_PLOTSTYLENAME
350
E
  3
ACAD_SCALELIST
350
42
  3
ACAD_SECTIONVIEWSTYLE
350
68
  3
ACAD_TABLESTYLE
350
64
  3
ACAD_VISUALSTYLE
350
29
  3
ACDB_RECOMPOSE_DATA
350
131
  3
AcDbVariableDictionary
350
129
  0
DICTIONARY
  5
63
102
{ACAD_REACTORS
330
C
102
}
330
C
100
AcDbDictionary
281
     1
  0
DICTIONARY
  5
6A
102
{ACAD_REACTORS
330
C
102
}
330
C
100
AcDbDictionary
281
     1
  3
Imperial24
350
6B
  0
DICTIONARY
  5
D
102
{ACAD_REACTORS
330
C
102
}
330
C
100
AcDbDictionary
281
     1
  0
DICTIONARY
  5
62
102
{ACAD_REACTORS
330
C
102
}
330
C
100
AcDbDictionary
281
     1
  3
Layout1
350
6F
  3
Layout2
350
77
  3
Model
350
73
  0
DICTIONARY
  5
10
102
{ACAD_REACTORS
330
C
102
}
330
C
100
AcDbDictionary
281
     1
  3
ByBlock
350
19
  3
ByLayer
350
11
  3
Global
350
21
  0
DICTIONARY
  5
66
102
{ACAD_REACTORS
330
C
102
}
330
C
100
AcDbDictionary
281
     1
  3
Standard
350
67
  0
DICTIONARY
  5
5F
102
{ACAD_REACTORS
330
C
102
}
330
C
100
AcDbDictionary
281
     1
  3
Standard
350
60
  0
DICTIONARY
  5
61
102
{ACAD_REACTORS
330
C
102
}
330
C
100
AcDbDictionary
281
     1
  0
ACDBDICTIONARYWDFLT
  5
E
102
{ACAD_REACTORS
330
C
102
}
330
C
100
AcDbDictionary
281
     1
  3
Normal
350
F
100
AcDbDictionaryWithDefault
340
F
  0
DICTIONARY
  5
42
102
{ACAD_REACTORS
330
C
102
}
330
C
100
AcDbDictionary
281
     1
  3
A0
350
43
  3
A1
350
44
  3
A2
350
45
  3
A3
350
46
  3
A4
350
47
  3
A5
350
48
  3
A6
350
49
  3
A7
350
4A
  3
A8
350
4B
  3
A9
350
4C
  3
B0
350
4D
  3
B1
350
4E
  3
B2
350
4F
  3
B3
350
50
  3
B4
350
51
  3
B5
350
52
  3
B6
350
53
  0
DICTIONARY
  5
68
102
{ACAD_REACTORS
330
C
102
}
330
C
100
AcDbDictionary
281
     1
  3
Imperial24
350
69
  0
DICTIONARY
  5
64
102
{ACAD_REACTORS
330
C
102
}
330
C
100
AcDbDictionary
281
     1
  3
Standard
350
65
  0
DICTIONARY
  5
29
102
{ACAD_REACTORS
330
C
102
}
330
C
100
AcDbDictionary
281
     1
  3
2dWireframe
350
2F
  3
Basic
350
2E
  3
Brighten
350
35
  3
ColorChange
350
39
  3
Conceptual
350
32
  3
Dim
350
34
  3
EdgeColorOff
350
41
  3
Facepattern
350
38
  3
Flat
350
2A
  3
FlatWithEdges
350
2B
  3
Gouraud
350
2C
  3
GouraudWithEdges
350
2D
  3
Hidden
350
31
  3
JitterOff
350
3F
  3
Linepattern
350
37
  3
OverhangOff
350
40
  3
Realistic
350
33
  3
Shaded
350
3E
  3
Shaded with edges
350
3D
  3
Shades of Gray
350
3A
  3
Sketchy
350
3B
  3
Thicken
350
36
  3
Wireframe
350
30
  3
X-Ray
350
3C
  0
XRECORD
  5
131
102
{ACAD_REACTORS
330
C
102
}
330
C
100
AcDbXrecord
280
     1
 90
        1
330
65
  0
DICTIONARY
  5
129
102
{ACAD_REACTORS
330
C
102
}
330
C
100
AcDbDictionary
281
     1
  3
CANNOSCALE
350
12E
  3
CMLEADERSTYLE
350
12B
  3
CTABLESTYLE
350
12A
  3
CVIEWDETAILSTYLE
350
12C
  3
CVIEWSECTIONSTYLE
350
12D
  0
ACDBDETAILVIEWSTYLE
  5
6B
102
{ACAD_REACTORS
330
6A
102
}
330
6A
100
AcDbModelDocViewStyle
 70
     0
  3
Imperial24
290
     1
300
Imperial24
 90
        0
100
AcDbDetailViewStyle
 70
     0
 71
     0
 90
        3
 71
     1
340
55
 62
   256
 40
0.24
340
0
 62
   256
 40
0.24
300

 40
0.36
280
     3
 71
     2
340
5D
 90
       25
 62
   256
 71
     3
340
55
 62
   256
 40
0.24
 90
        1
 40
0.75
 90
        1
300
%<\AcVar ViewType \f "%tc1">% %<\AcVar ViewDetailId>%\PSCALE %<\AcVar ViewScale \f "%sn">%
 71
     4
340
5D
 90
       25
 62
   256
340
5D
 90
       25
 62
   256
280
     0
  0
LAYOUT
  5
6F
102
{ACAD_REACTORS
330
62
102
}
330
62
100
AcDbPlotSettings
  1

  2

  4

  6

 40
0.0
 41
0.0
 42
0.0
 43
0.0
 44
0.0
 45
0.0
 46
0.0
 47
0.0
 48
0.0
 49
0.0
140
0.0
141
0.0
142
1.0
143
1.0
 70
   688
 72
     0
 73
     0
 74
     5
  7

 75
    16
147
1.0
 76
     0
 77
     2
 78
   300
148
0.0
149
0.0
100
AcDbLayout
  1
Layout1
 70
     1
 71
     1
 10
0.0
 20
0.0
 11
12.0
 21
9.0
 12
0.0
 22
0.0
 32
0.0
 14
0.0
 24
0.0
 34
0.0
 15
0.0
 25
0.0
 35
0.0
146
0.0
 13
0.0
 23
0.0
 33
0.0
 16
1.0
 26
0.0
 36
0.0
 17
0.0
 27
1.0
 37
0.0
 76
     0
330
6C
  0
LAYOUT
  5
77
102
{ACAD_REACTORS
330
62
102
}
330
62
100
AcDbPlotSettings
  1

  2

  4

  6

 40
0.0
 41
0.0
 42
0.0
 43
0.0
 44
0.0
 45
0.0
 46
0.0
 47
0.0
 48
0.0
 49
0.0
140
0.0
141
0.0
142
1.0
143
1.0
 70
   688
 72
     0
 73
     0
 74
     5
  7

 75
    16
147
1.0
 76
     0
 77
     2
 78
   300
148
0.0
149
0.0
100
AcDbLayout
  1
Layout2
 70
     1
 71
     2
 10
0.0
 20
0.0
 11
12.0
 21
9.0
 12
0.0
 22
0.0
 32
0.0
 14
0.0
 24
0.0
 34
0.0
 15
0.0
 25
0.0
 35
0.0
146
0.0
 13
0.0
 23
0.0
 33
0.0
 16
1.0
 26
0.0
 36
0.0
 17
0.0
 27
1.0
 37
0.0
 76
     0
330
74
  0
LAYOUT
  5
73
102
{ACAD_REACTORS
330
62
102
}
330
62
100
AcDbPlotSettings
  1

  2

  4

  6

 40
0.0
 41
0.0
 42
0.0
 43
0.0
 44
0.0
 45
0.0
 46
0.0
 47
0.0
 48
0.0
 49
0.0
140
0.0
141
0.0
142
1.0
143
1.0
 70
  1712
 72
     0
 73
     0
 74
     0
  7

 75
     0
147
1.0
 76
     0
 77
     2
 78
   300
148
0.0
149
0.0
100
AcDbLayout
  1
Model
 70
     1
 71
     0
 10
0.0
 20
0.0
 11
12.0
 21
9.0
 12
0.0
 22
0.0
 32
0.0
 14
0.0
 24
0.0
 34
0.0
 15
0.0
 25
0.0
 35
0.0
146
0.0
 13
0.0
 23
0.0
 33
0.0
 16
1.0
 26
0.0
 36
0.0
 17
0.0
 27
1.0
 37
0.0
 76
     0
330
70
  0
MATERIAL
  5
19
102
{ACAD_XDICTIONARY
360
1A
102
}
102
{ACAD_REACTORS
330
10
102
}
330
10
100
AcDbMaterial
  1
ByBlock
 72
     0
 43
0.0208333333333333
 43
0.0
 43
0.0
 43
0.0
 43
0.0
 43
0.0208333333333333
 43
0.0
 43
0.0
 43
0.0
 43
0.0
 43
1.0
 43
0.0
 43
0.0
 43
0.0
 43
0.0
 43
1.0
 77
     0
 47
0.0208333333333333
 47
0.0
 47
0.0
 47
0.0
 47
0.0
 47
0.0208333333333333
 47
0.0
 47
0.0
 47
0.0
 47
0.0
 47
1.0
 47
0.0
 47
0.0
 47
0.0
 47
0.0
 47
1.0
171
     0
 49
0.0208333333333333
 49
0.0
 49
0.0
 49
0.0
 49
0.0
 49
0.0208333333333333
 49
0.0
 49
0.0
 49
0.0
 49
0.0
 49
1.0
 49
0.0
 49
0.0
 49
0.0
 49
0.0
 49
1.0
175
     0
142
0.0208333333333333
142
0.0
142
0.0
142
0.0
142
0.0
142
0.0208333333333333
142
0.0
142
0.0
142
0.0
142
0.0
142
1.0
142
0.0
142
0.0
142
0.0
142
0.0
142
1.0
179
     0
144
0.0208333333333333
144
0.0
144
0.0
144
0.0
144
0.0
144
0.0208333333333333
144
0.0
144
0.0
144
0.0
144
0.0
144
1.0
144
0.0
144
0.0
144
0.0
144
0.0
144
1.0
147
0.0208333333333333
147
0.0
147
0.0
147
0.0
147
0.0
147
0.0208333333333333
147
0.0
147
0.0
147
0.0
147
0.0
147
1.0
147
0.0
147
0.0
147
0.0
147
0.0
147
1.0
  0
MATERIAL
  5
11
102
{ACAD_XDICTIONARY
360
12
102
}
102
{ACAD_REACTORS
330
10
102
}
330
10
100
AcDbMaterial
  1
ByLayer
 72
     0
 43
0.0208333333333333
 43
0.0
 43
0.0
 43
0.0
 43
0.0
 43
0.0208333333333333
 43
0.0
 43
0.0
 43
0.0
 43
0.0
 43
1.0
 43
0.0
 43
0.0
 43
0.0
 43
0.0
 43
1.0
 77
     0
 47
0.0208333333333333
 47
0.0
 47
0.0
 47
0.0
 47
0.0
 47
0.0208333333333333
 47
0.0
 47
0.0
 47
0.0
 47
0.0
 47
1.0
 47
0.0
 47
0.0
 47
0.0
 47
0.0
 47
1.0
171
     0
 49
0.0208333333333333
 49
0.0
 49
0.0
 49
0.0
 49
0.0
 49
0.0208333333333333
 49
0.0
 49
0.0
 49
0.0
 49
0.0
 49
1.0
 49
0.0
 49
0.0
 49
0.0
 49
0.0
 49
1.0
175
     0
142
0.0208333333333333
142
0.0
142
0.0
142
0.0
142
0.0
142
0.0208333333333333
142
0.0
142
0.0
142
0.0
142
0.0
142
1.0
142
0.0
142
0.0
142
0.0
142
0.0
142
1.0
179
     0
144
0.0208333333333333
144
0.0
144
0.0
144
0.0
144
0.0
144
0.0208333333333333
144
0.0
144
0.0
144
0.0
144
0.0
144
1.0
144
0.0
144
0.0
144
0.0
144
0.0
144
1.0
147
0.0208333333333333
147
0.0
147
0.0
147
0.0
147
0.0
147
0.0208333333333333
147
0.0
147
0.0
147
0.0
147
0.0
147
1.0
147
0.0
147
0.0
147
0.0
147
0.0
147
1.0
  0
MATERIAL
  5
21
102
{ACAD_XDICTIONARY
360
22
102
}
102
{ACAD_REACTORS
330
10
102
}
330
10
100
AcDbMaterial
  1
Global
 72
     0
 43
0.0208333333333333
 43
0.0
 43
0.0
 43
0.0
 43
0.0
 43
0.0208333333333333
 43
0.0
 43
0.0
 43
0.0
 43
0.0
 43
1.0
 43
0.0
 43
0.0
 43
0.0
 43
0.0
 43
1.0
 77
     0
 47
0.0208333333333333
 47
0.0
 47
0.0
 47
0.0
 47
0.0
 47
0.0208333333333333
 47
0.0
 47
0.0
 47
0.0
 47
0.0
 47
1.0
 47
0.0
 47
0.0
 47
0.0
 47
0.0
 47
1.0
171
     0
 49
0.0208333333333333
 49
0.0
 49
0.0
 49
0.0
 49
0.0
 49
0.0208333333333333
 49
0.0
 49
0.0
 49
0.0
 49
0.0
 49
1.0
 49
0.0
 49
0.0
 49
0.0
 49
0.0
 49
1.0
175
     0
142
0.0208333333333333
142
0.0
142
0.0
142
0.0
142
0.0
142
0.0208333333333333
142
0.0
142
0.0
142
0.0
142
0.0
142
1.0
142
0.0
142
0.0
142
0.0
142
0.0
142
1.0
179
     0
144
0.0208333333333333
144
0.0
144
0.0
144
0.0
144
0.0
144
0.0208333333333333
144
0.0
144
0.0
144
0.0
144
0.0
144
1.0
144
0.0
144
0.0
144
0.0
144
0.0
144
1.0
147
0.0208333333333333
147
0.0
147
0.0
147
0.0
147
0.0
147
0.0208333333333333
147
0.0
147
0.0
147
0.0
147
0.0
147
1.0
147
0.0
147
0.0
147
0.0
147
0.0
147
1.0
  0
MLEADERSTYLE
  5
67
102
{ACAD_REACTORS
330
66
102
}
330
66
100
AcDbMLeaderStyle
179
     2
170
     2
171
     1
172
     0
 90
        2
 40
0.0
 41
0.0
173
     1
 91
-1056964608
340
5B
 92
       -2
290
     1
 42
0.09
291
     1
 43
0.36
  3
Standard
 44
0.18
300

342
55
174
     1
178
     6
175
     1
176
     0
 93
-1056964608
 45
0.18
292
     0
297
     0
 46
0.18
 94
-1056964608
 47
1.0
 49
1.0
140
1.0
293
     1
141
0.0
294
     1
177
     0
142
1.0
295
     1
296
     0
143
0.125
271
     0
272
     9
273
     9
298
     1
  0
MLINESTYLE
  5
60
102
{ACAD_REACTORS
330
5F
102
}
330
5F
100
AcDbMlineStyle
  2
STANDARD
 70
     0
  3

 62
   256
 51
90.0
 52
90.0
 71
     2
 49
0.5
 62
   256
  6
BYLAYER
 49
-0.5
 62
   256
  6
BYLAYER
  0
ACDBPLACEHOLDER
  5
F
102
{ACAD_REACTORS
330
E
102
}
330
E
  0
SCALE
  5
43
102
{ACAD_REACTORS
330
42
102
}
330
42
100
AcDbScale
 70
     0
300
1:1
140
1.0
141
1.0
290
     1
  0
SCALE
  5
44
102
{ACAD_REACTORS
330
42
102
}
330
42
100
AcDbScale
 70
     0
300
1/128" = 1'-0"
140
0.0078125
141
12.0
290
     0
  0
SCALE
  5
45
102
{ACAD_REACTORS
330
42
102
}
330
42
100
AcDbScale
 70
     0
300
1/64" = 1'-0"
140
0.015625
141
12.0
290
     0
  0
SCALE
  5
46
102
{ACAD_REACTORS
330
42
102
}
330
42
100
AcDbScale
 70
     0
300
1/32" = 1'-0"
140
0.03125
141
12.0
290
     0
  0
SCALE
  5
47
102
{ACAD_REACTORS
330
42
102
}
330
42
100
AcDbScale
 70
     0
300
1/16" = 1'-0"
140
0.0625
141
12.0
290
     0
  0
SCALE
  5
48
102
{ACAD_REACTORS
330
42
102
}
330
42
100
AcDbScale
 70
     0
300
3/32" = 1'-0"
140
0.09375
141
12.0
290
     0
  0
SCALE
  5
49
102
{ACAD_REACTORS
330
42
102
}
330
42
100
AcDbScale
 70
     0
300
1/8" = 1'-0"
140
0.125
141
12.0
290
     0
  0
SCALE
  5
4A
102
{ACAD_REACTORS
330
42
102
}
330
42
100
AcDbScale
 70
     0
300
3/16" = 1'-0"
140
0.1875
141
12.0
290
     0
  0
SCALE
  5
4B
102
{ACAD_REACTORS
330
42
102
}
330
42
100
AcDbScale
 70
     0
300
1/4" = 1'-0"
140
0.25
141
12.0
290
     0
  0
SCALE
  5
4C
102
{ACAD_REACTORS
330
42
102
}
330
42
100
AcDbScale
 70
     0
300
3/8" = 1'-0"
140
0.375
141
12.0
290
     0
  0
SCALE
  5
4D
102
{ACAD_REACTORS
330
42
102
}
330
42
100
AcDbScale
 70
     0
300
1/2" = 1'-0"
140
0.5
141
12.0
290
     0
  0
SCALE
  5
4E
102
{ACAD_REACTORS
330
42
102
}
330
42
100
AcDbScale
 70
     0
300
3/4" = 1'-0"
140
0.75
141
12.0
290
     0
  0
SCALE
  5
4F
102
{ACAD_REACTORS
330
42
102
}
330
42
100
AcDbScale
 70
     0
300
1" = 1'-0"
140
1.0
141
12.0
290
     0
  0
SCALE
  5
50
102
{ACAD_REACTORS
330
42
102
}
330
42
100
AcDbScale
 70
     0
300
1-1/2" = 1'-0"
140
1.5
141
12.0
290
     0
  0
SCALE
  5
51
102
{ACAD_REACTORS
330
42
102
}
330
42
100
AcDbScale
 70
     0
300
3" = 1'-0"
140
3.0
141
12.0
290
     0
  0
SCALE
  5
52
102
{ACAD_REACTORS
330
42
102
}
330
42
100
AcDbScale
 70
     0
300
6" = 1'-0"
140
6.0
141
12.0
290
     0
  0
SCALE
  5
53
102
{ACAD_REACTORS
330
42
102
}
330
42
100
AcDbScale
 70
     0
300
1'-0" = 1'-0"
140
12.0
141
12.0
290
     0
  0
ACDBSECTIONVIEWSTYLE
  5
69
102
{ACAD_REACTORS
330
68
102
}
330
68
100
AcDbModelDocViewStyle
 70
     0
  3
Imperial24
290
     1
300
Imperial24
 90
        0
100
AcDbSectionViewStyle
 70
     0
 71
     0
 90
       78
 71
     1
340
55
 62
   256
 40
0.24
340
0
340
0
 62
   256
 40
0.24
300
I, O, Q, S, X, Z
 40
0.48
 90
        3
 40
0.18
 90
        1
 71
     2
340
5D
 90
       25
 62
   256
340
5D
 90
       50
 62
   256
 40
0.24
 40
0.0
 40
0.24
 71
     3
340
55
 62
   256
 40
0.24
 90
        1
 40
0.75
 90
        1
300
%<\AcVar ViewType \f "%tc1">% %<\AcVar ViewSectionStartId>%-%<\AcVar ViewSectionEndId>%\PSCALE %<\AcVar ViewScale \f "%sn">%
 71
     4
 62
   256
 62
   257
300
ANSI31
 40
1.0
 90
        0
290
     0
290
     0
 90
        6
 40
0.0
 40
1.570796326794896
 40
0.2617993877991494
 40
1.308996938995747
 40
-0.2617993877991494
 40
1.832595714594046
  0
TABLESTYLE
  5
65
102
{ACAD_XDICTIONARY
360
12F
102
}
102
{ACAD_REACTORS
330
64
102
}
330
64
100
AcDbTableStyle
280
     0
  3
Standard
 70
     0
 71
     0
 40
0.06
 41
0.06
280
     0
281
     0
  7
Standard
140
0.18
170
     2
 62
     0
 63
     7
283
     0
 90
      512
 91
        0
  1

274
    -2
284
     1
 64
     0
275
    -2
285
     1
 65
     0
276
    -2
286
     1
 66
     0
277
    -2
287
     1
 67
     0
278
    -2
288
     1
 68
     0
279
    -2
289
     1
 69
     0
  7
Standard
140
0.25
170
     5
 62
     0
 63
     7
283
     0
 90
      512
 91
        0
  1

274
    -2
284
     1
 64
     0
275
    -2
285
     1
 65
     0
276
    -2
286
     1
 66
     0
277
    -2
287
     1
 67
     0
278
    -2
288
     1
 68
     0
279
    -2
289
     1
 69
     0
  7
Standard
140
0.18
170
     5
 62
     0
 63
     7
283
     0
 90
      512
 91
        0
  1

274
    -2
284
     1
 64
     0
275
    -2
285
     1
 65
     0
276
    -2
286
     1
 66
     0
277
    -2
287
     1
 67
     0
278
    -2
288
     1
 68
     0
279
    -2
289
     1
 69
     0
  0
VISUALSTYLE
  5
2F
102
{ACAD_REACTORS
330
29
102
}
330
29
100
AcDbVisualStyle
  2
2dWireframe
 70
     4
177
     3
291
     0
 70
    58
 90
        0
176
     1
 90
        2
176
     1
 90
        0
176
     1
 90
        0
176
     1
 40
0.6
176
     1
 40
30.0
176
     1
 62
     7
420
 16777215
176
     1
 90
        1
176
     1
 90
        4
176
     1
 62
     7
176
     1
 62
   257
176
     1
 90
        1
176
     1
 90
        1
176
     1
 40
1.0
176
     1
 90
        0
176
     1
 62
   257
176
     1
 40
1.0
176
     1
 90
        1
176
     1
 90
        6
176
     1
 90
        2
176
     1
 62
     7
176
     1
 90
        5
176
     1
 90
        0
176
     1
 90
        0
176
     1
290
     0
176
     1
 90
        1
176
     1
 40
0.0
176
     1
 90
        0
176
     1
290
     1
176
     1
290
     1
176
     1
290
     0
176
     1
290
     0
176
     1
290
     0
176
     1
290
     0
176
     1
290
     0
176
     1
290
     0
176
     1
290
     0
176
     1
 90
       50
176
     1
 40
0.0
176
     1
 40
1.0
176
     1
 90
        0
176
     1
 62
    18
420
        0
176
     1
 90
       50
176
     1
 90
        3
176
     1
 62
     5
420
      255
176
     1
290
     0
176
     1
 90
       50
176
     1
 90
       50
176
     1
 90
       50
176
     1
290
     0
176
     1
 90
       50
176
     1
 62
   256
176
     0
 40
1.0
176
     0
 90
        2
176
     1
  1
strokes_ogs.tif
176
     1
290
     0
176
     1
 40
1.0
176
     1
 40
1.0
176
     1
  0
VISUALSTYLE
  5
2E
102
{ACAD_REACTORS
330
29
102
}
330
29
100
AcDbVisualStyle
  2
Basic
 70
     7
177
     3
291
     1
 70
    58
 90
        1
176
     1
 90
        0
176
     1
 90
        1
176
     1
 90
        0
176
     1
 40
0.6
176
     1
 40
30.0
176
     1
 62
     7
420
 16777215
176
     1
 90
        0
176
     1
 90
        4
176
     1
 62
     7
176
     1
 62
   257
176
     1
 90
        1
176
     1
 90
        1
176
     1
 40
1.0
176
     1
 90
        8
176
     1
 62
     7
176
     1
 40
1.0
176
     1
 90
        1
176
     1
 90
        6
176
     1
 90
        2
176
     1
 62
     7
176
     1
 90
        5
176
     1
 90
        0
176
     1
 90
        0
176
     1
290
     0
176
     1
 90
        1
176
     1
 40
0.0
176
     1
 90
        0
176
     1
290
     0
176
     1
290
     1
176
     1
290
     1
176
     1
290
     0
176
     1
290
     0
176
     1
290
     0
176
     1
290
     0
176
     1
290
     0
176
     1
290
     0
176
     1
 90
       50
176
     1
 40
0.0
176
     1
 40
1.0
176
     1
 90
        0
176
     1
 62
    18
420
        0
176
     1
 90
       50
176
     1
 90
        3
176
     1
 62
     5
420
      255
176
     1
290
     0
176
     1
 90
       50
176
     1
 90
       50
176
     1
 90
       50
176
     1
290
     0
176
     1
 90
       50
176
     1
 62
   256
176
     0
 40
1.0
176
     0
 90
        2
176
     1
  1
strokes_ogs.tif
176
     1
290
     0
176
     1
 40
1.0
176
     1
 40
1.0
176
     1
  0
VISUALSTYLE
  5
35
102
{ACAD_REACTORS
330
29
102
}
330
29
100
AcDbVisualStyle
  2
Brighten
 70
    12
177
     3
291
     1
 70
    58
 90
        2
176
     1
 90
        2
176
     1
 90
        0
176
     1
 90
        0
176
     1
 40
0.6
176
     1
 40
30.0
176
     1
 62
     7
420
 16777215
176
     1
 90
        1
176
     1
 90
        4
176
     1
 62
     7
176
     1
 62
   257
176
     1
 90
        1
176
     1
 90
        1
176
     1
 40
1.0
176
     1
 90
        8
176
     1
 62
     7
176
     1
 40
1.0
176
     1
 90
        1
176
     1
 90
        6
176
     1
 90
        2
176
     1
 62
     7
176
     1
 90
        5
176
     1
 90
        0
176
     1
 90
        0
176
     1
290
     0
176
     1
 90
        1
176
     1
 40
50.0
176
     1
 90
        0
176
     1
290
     0
176
     1
290
     1
176
     1
290
     1
176
     1
290
     0
176
     1
290
     0
176
     1
290
     0
176
     1
290
     0
176
     1
290
     0
176
     1
290
     0
176
     1
 90
       50
176
     1
 40
0.0
176
     1
 40
1.0
176
     1
 90
        0
176
     1
 62
    18
420
        0
176
     1
 90
       50
176
     1
 90
        3
176
     1
 62
     5
420
      255
176
     1
290
     0
176
     1
 90
       50
176
     1
 90
       50
176
     1
 90
       50
176
     1
290
     0
176
     1
 90
       50
176
     1
 62
   256
176
     0
 40
1.0
176
     0
 90
        2
176
     1
  1
strokes_ogs.tif
176
     1
290
     0
176
     1
 40
1.0
176
     1
 40
1.0
176
     1
  0
VISUALSTYLE
  5
39
102
{ACAD_REACTORS
330
29
102
}
330
29
100
AcDbVisualStyle
  2
ColorChange
 70
    16
177
     3
291
     1
 70
    58
 90
        2
176
     1
 90
        2
176
     1
 90
        3
176
     1
 90
        0
176
     1
 40
0.6
176
     1
 40
30.0
176
     1
 62
     8
420
  8421504
176
     1
 90
        1
176
     1
 90
        4
176
     1
 62
     7
176
     1
 62
   257
176
     1
 90
        1
176
     1
 90
        1
176
     1
 40
1.0
176
     1
 90
        8
176
     1
 62
     8
420
  8421504
176
     1
 40
1.0
176
     1
 90
        1
176
     1
 90
        6
176
     1
 90
        2
176
     1
 62
     7
176
     1
 90
        5
176
     1
 90
        0
176
     1
 90
        0
176
     1
290
     0
176
     1
 90
        1
176
     1
 40
0.0
176
     1
 90
        0
176
     1
290
     0
176
     1
290
     1
176
     1
290
     1
176
     1
290
     0
176
     1
290
     0
176
     1
290
     0
176
     1
290
     0
176
     1
290
     0
176
     1
290
     0
176
     1
 90
       50
176
     1
 40
0.0
176
     1
 40
1.0
176
     1
 90
        0
176
     1
 62
    18
420
        0
176
     1
 90
       50
176
     1
 90
        3
176
     1
 62
     5
420
      255
176
     1
290
     0
176
     1
 90
       50
176
     1
 90
       50
176
     1
 90
       50
176
     1
290
     0
176
     1
 90
       50
176
     1
 62
   256
176
     0
 40
1.0
176
     0
 90
        2
176
     1
  1
strokes_ogs.tif
176
     1
290
     0
176
     1
 40
1.0
176
     1
 40
1.0
176
     1
  0
VISUALSTYLE
  5
32
102
{ACAD_REACTORS
330
29
102
}
330
29
100
AcDbVisualStyle
  2
Conceptual
 70
     9
177
     3
291
     0
 70
    58
 90
        3
176
     1
 90
        2
176
     1
 90
        0
176
     1
 90
        0
176
     1
 40
0.6
176
     1
 40
30.0
176
     1
 62
     7
420
 16777215
176
     1
 90
        2
176
     1
 90
        2
176
     1
 62
     7
176
     1
 62
   257
176
     1
 90
        1
176
     1
 90
        1
176
     1
 40
179.0
176
     1
 90
        8
176
     1
 62
     7
176
     1
 40
1.0
176
     1
 90
        1
176
     1
 90
        6
176
     1
 90
        2
176
     1
 62
     7
176
     1
 90
        3
176
     1
 90
        0
176
     1
 90
        0
176
     1
290
     0
176
     1
 90
        1
176
     1
 40
0.0
176
     1
 90
        0
176
     1
290
     0
176
     1
290
     1
176
     1
290
     1
176
     1
290
     0
176
     1
290
     0
176
     1
290
     0
176
     1
290
     0
176
     1
290
     0
176
     1
290
     0
176
     1
 90
       50
176
     1
 40
0.0
176
     1
 40
1.0
176
     1
 90
        0
176
     1
 62
    18
420
        0
176
     1
 90
       50
176
     1
 90
        3
176
     1
 62
     5
420
      255
176
     1
290
     0
176
     1
 90
       50
176
     1
 90
       50
176
     1
 90
       50
176
     1
290
     0
176
     1
 90
       50
176
     1
 62
   256
176
     0
 40
1.0
176
     0
 90
        2
176
     1
  1
strokes_ogs.tif
176
     1
290
     0
176
     1
 40
1.0
176
     1
 40
1.0
176
     1
  0
VISUALSTYLE
  5
34
102
{ACAD_REACTORS
330
29
102
}
330
29
100
AcDbVisualStyle
  2
Dim
 70
    11
177
     3
291
     1
 70
    58
 90
        2
176
     1
 90
        2
176
     1
 90
        0
176
     1
 90
        0
176
     1
 40
0.6
176
     1
 40
30.0
176
     1
 62
     7
420
 16777215
176
     1
 90
        1
176
     1
 90
        4
176
     1
 62
     7
176
     1
 62
   257
176
     1
 90
        1
176
     1
 90
        1
176
     1
 40
1.0
176
     1
 90
        8
176
     1
 62
     7
176
     1
 40
1.0
176
     1
 90
        1
176
     1
 90
        6
176
     1
 90
        2
176
     1
 62
     7
176
     1
 90
        5
176
     1
 90
        0
176
     1
 90
        0
176
     1
290
     0
176
     1
 90
        1
176
     1
 40
-50.0
176
     1
 90
        0
176
     1
290
     0
176
     1
290
     1
176
     1
290
     1
176
     1
290
     0
176
     1
290
     0
176
     1
290
     0
176
     1
290
     0
176
     1
290
     0
176
     1
290
     0
176
     1
 90
       50
176
     1
 40
0.0
176
     1
 40
1.0
176
     1
 90
        0
176
     1
 62
    18
420
        0
176
     1
 90
       50
176
     1
 90
        3
176
     1
 62
     5
420
      255
176
     1
290
     0
176
     1
 90
       50
176
     1
 90
       50
176
     1
 90
       50
176
     1
290
     0
176
     1
 90
       50
176
     1
 62
   256
176
     0
 40
1.0
176
     0
 90
        2
176
     1
  1
strokes_ogs.tif
176
     1
290
     0
176
     1
 40
1.0
176
     1
 40
1.0
176
     1
  0
VISUALSTYLE
  5
41
102
{ACAD_REACTORS
330
29
102
}
330
29
100
AcDbVisualStyle
  2
EdgeColorOff
 70
    22
177
     3
291
     1
 70
    58
 90
        2
176
     0
 90
        2
176
     0
 90
        0
176
     0
 90
        0
176
     0
 40
0.6
176
     0
 40
30.0
176
     0
 62
     7
420
 16777215
176
     0
 90
        1
176
     0
 90
        4
176
     0
 62
     7
176
     0
 62
   257
176
     0
 90
        1
176
     0
 90
        1
176
     0
 40
1.0
176
     0
 90
        8
176
     2
 62
     7
176
     0
 40
1.0
176
     0
 90
        1
176
     0
 90
        6
176
     0
 90
        2
176
     0
 62
     7
176
     0
 90
        5
176
     0
 90
        0
176
     0
 90
        0
176
     0
290
     0
176
     0
 90
        1
176
     0
 40
0.0
176
     0
 90
        0
176
     0
290
     0
176
     0
290
     1
176
     0
290
     1
176
     0
290
     0
176
     0
290
     0
176
     0
290
     0
176
     0
290
     0
176
     0
290
     0
176
     0
290
     0
176
     0
 90
       50
176
     0
 40
0.0
176
     0
 40
1.0
176
     0
 90
        0
176
     0
 62
    18
420
        0
176
     0
 90
       50
176
     0
 90
        3
176
     0
 62
     5
420
      255
176
     0
290
     0
176
     0
 90
       50
176
     0
 90
       50
176
     0
 90
       50
176
     0
290
     0
176
     0
 90
       50
176
     0
 62
   256
176
     0
 40
1.0
176
     0
 90
        2
176
     0
  1
strokes_ogs.tif
176
     0
290
     0
176
     0
 40
1.0
176
     0
 40
1.0
176
     0
  0
VISUALSTYLE
  5
38
102
{ACAD_REACTORS
330
29
102
}
330
29
100
AcDbVisualStyle
  2
Facepattern
 70
    15
177
     3
291
     1
 70
    58
 90
        2
176
     1
 90
        2
176
     1
 90
        0
176
     1
 90
        0
176
     1
 40
0.6
176
     1
 40
30.0
176
     1
 62
     7
420
 16777215
176
     1
 90
        1
176
     1
 90
        4
176
     1
 62
     7
176
     1
 62
   257
176
     1
 90
        1
176
     1
 90
        1
176
     1
 40
1.0
176
     1
 90
        8
176
     1
 62
     7
176
     1
 40
1.0
176
     1
 90
        1
176
     1
 90
        6
176
     1
 90
        2
176
     1
 62
     7
176
     1
 90
        5
176
     1
 90
        0
176
     1
 90
        0
176
     1
290
     0
176
     1
 90
        1
176
     1
 40
0.0
176
     1
 90
        0
176
     1
290
     0
176
     1
290
     1
176
     1
290
     1
176
     1
290
     0
176
     1
290
     0
176
     1
290
     0
176
     1
290
     0
176
     1
290
     0
176
     1
290
     0
176
     1
 90
       50
176
     1
 40
0.0
176
     1
 40
1.0
176
     1
 90
        0
176
     1
 62
    18
420
        0
176
     1
 90
       50
176
     1
 90
        3
176
     1
 62
     5
420
      255
176
     1
290
     0
176
     1
 90
       50
176
     1
 90
       50
176
     1
 90
       50
176
     1
290
     0
176
     1
 90
       50
176
     1
 62
   256
176
     0
 40
1.0
176
     0
 90
        2
176
     1
  1
strokes_ogs.tif
176
     1
290
     0
176
     1
 40
1.0
176
     1
 40
1.0
176
     1
  0
VISUALSTYLE
  5
2A
102
{ACAD_REACTORS
330
29
102
}
330
29
100
AcDbVisualStyle
  2
Flat
 70
     0
177
     3
291
     1
 70
    58
 90
        2
176
     1
 90
        1
176
     1
 90
        1
176
     1
 90
        2
176
     1
 40
0.6
176
     1
 40
30.0
176
     1
 62
     7
420
 16777215
176
     1
 90
        0
176
     1
 90
        0
176
     1
 62
     7
176
     1
 62
   257
176
     1
 90
        1
176
     1
 90
        1
176
     1
 40
1.0
176
     1
 90
        8
176
     1
 62
     7
176
     1
 40
1.0
176
     1
 90
        1
176
     1
 90
        6
176
     1
 90
        2
176
     1
 62
     7
176
     1
 90
        5
176
     1
 90
        0
176
     1
 90
        0
176
     1
290
     0
176
     1
 90
       13
176
     1
 40
0.0
176
     1
 90
        0
176
     1
290
     0
176
     1
290
     1
176
     1
290
     1
176
     1
290
     0
176
     1
290
     0
176
     1
290
     0
176
     1
290
     0
176
     1
290
     0
176
     1
290
     0
176
     1
 90
       50
176
     1
 40
0.0
176
     1
 40
1.0
176
     1
 90
        0
176
     1
 62
    18
420
        0
176
     1
 90
       50
176
     1
 90
        3
176
     1
 62
     5
420
      255
176
     1
290
     0
176
     1
 90
       50
176
     1
 90
       50
176
     1
 90
       50
176
     1
290
     0
176
     1
 90
       50
176
     1
 62
   256
176
     0
 40
1.0
176
     0
 90
        2
176
     1
  1
strokes_ogs.tif
176
     1
290
     0
176
     1
 40
1.0
176
     1
 40
1.0
176
     1
  0
VISUALSTYLE
  5
2B
102
{ACAD_REACTORS
330
29
102
}
330
29
100
AcDbVisualStyle
  2
FlatWithEdges
 70
     1
177
     3
291
     1
 70
    58
 90
        2
176
     1
 90
        1
176
     1
 90
        1
176
     1
 90
        2
176
     1
 40
0.6
176
     1
 40
30.0
176
     1
 62
     7
420
 16777215
176
     1
 90
        1
176
     1
 90
        0
176
     1
 62
     7
176
     1
 62
   257
176
     1
 90
        1
176
     1
 90
        1
176
     1
 40
1.0
176
     1
 90
        0
176
     1
 62
   257
176
     1
 40
1.0
176
     1
 90
        1
176
     1
 90
        6
176
     1
 90
        2
176
     1
 62
     7
176
     1
 90
        5
176
     1
 90
        0
176
     1
 90
        0
176
     1
290
     0
176
     1
 90
       13
176
     1
 40
0.0
176
     1
 90
        0
176
     1
290
     0
176
     1
290
     1
176
     1
290
     1
176
     1
290
     0
176
     1
290
     0
176
     1
290
     0
176
     1
290
     0
176
     1
290
     0
176
     1
290
     0
176
     1
 90
       50
176
     1
 40
0.0
176
     1
 40
1.0
176
     1
 90
        0
176
     1
 62
    18
420
        0
176
     1
 90
       50
176
     1
 90
        3
176
     1
 62
     5
420
      255
176
     1
290
     0
176
     1
 90
       50
176
     1
 90
       50
176
     1
 90
       50
176
     1
290
     0
176
     1
 90
       50
176
     1
 62
   256
176
     0
 40
1.0
176
     0
 90
        2
176
     1
  1
strokes_ogs.tif
176
     1
290
     0
176
     1
 40
1.0
176
     1
 40
1.0
176
     1
  0
VISUALSTYLE
  5
2C
102
{ACAD_REACTORS
330
29
102
}
330
29
100
AcDbVisualStyle
  2
Gouraud
 70
     2
177
     3
291
     1
 70
    58
 90
        2
176
     1
 90
        2
176
     1
 90
        1
176
     1
 90
        2
176
     1
 40
0.6
176
     1
 40
30.0
176
     1
 62
     7
420
 16777215
176
     1
 90
        0
176
     1
 90
        0
176
     1
 62
     7
176
     1
 62
   257
176
     1
 90
        1
176
     1
 90
        1
176
     1
 40
1.0
176
     1
 90
        0
176
     1
 62
     7
176
     1
 40
1.0
176
     1
 90
        1
176
     1
 90
        6
176
     1
 90
        2
176
     1
 62
     7
176
     1
 90
        5
176
     1
 90
        0
176
     1
 90
        0
176
     1
290
     0
176
     1
 90
       13
176
     1
 40
0.0
176
     1
 90
        0
176
     1
290
     0
176
     1
290
     1
176
     1
290
     1
176
     1
290
     0
176
     1
290
     0
176
     1
290
     0
176
     1
290
     0
176
     1
290
     0
176
     1
290
     0
176
     1
 90
       50
176
     1
 40
0.0
176
     1
 40
1.0
176
     1
 90
        0
176
     1
 62
    18
420
        0
176
     1
 90
       50
176
     1
 90
        3
176
     1
 62
     5
420
      255
176
     1
290
     0
176
     1
 90
       50
176
     1
 90
       50
176
     1
 90
       50
176
     1
290
     0
176
     1
 90
       50
176
     1
 62
   256
176
     0
 40
1.0
176
     0
 90
        2
176
     1
  1
strokes_ogs.tif
176
     1
290
     0
176
     1
 40
1.0
176
     1
 40
1.0
176
     1
  0
VISUALSTYLE
  5
2D
102
{ACAD_REACTORS
330
29
102
}
330
29
100
AcDbVisualStyle
  2
GouraudWithEdges
 70
     3
177
     3
291
     1
 70
    58
 90
        2
176
     1
 90
        2
176
     1
 90
        1
176
     1
 90
        2
176
     1
 40
0.6
176
     1
 40
30.0
176
     1
 62
     7
420
 16777215
176
     1
 90
        1
176
     1
 90
        0
176
     1
 62
     7
176
     1
 62
   257
176
     1
 90
        1
176
     1
 90
        1
176
     1
 40
1.0
176
     1
 90
        0
176
     1
 62
   257
176
     1
 40
1.0
176
     1
 90
        1
176
     1
 90
        6
176
     1
 90
        2
176
     1
 62
     7
176
     1
 90
        5
176
     1
 90
        0
176
     1
 90
        0
176
     1
290
     0
176
     1
 90
       13
176
     1
 40
0.0
176
     1
 90
        0
176
     1
290
     0
176
     1
290
     1
176
     1
290
     1
176
     1
290
     0
176
     1
290
     0
176
     1
290
     0
176
     1
290
     0
176
     1
290
     0
176
     1
290
     0
176
     1
 90
       50
176
     1
 40
0.0
176
     1
 40
1.0
176
     1
 90
        0
176
     1
 62
    18
420
        0
176
     1
 90
       50
176
     1
 90
        3
176
     1
 62
     5
420
      255
176
     1
290
     0
176
     1
 90
       50
176
     1
 90
       50
176
     1
 90
       50
176
     1
290
     0
176
     1
 90
       50
176
     1
 62
   256
176
     0
 40
1.0
176
     0
 90
        2
176
     1
  1
strokes_ogs.tif
176
     1
290
     0
176
     1
 40
1.0
176
     1
 40
1.0
176
     1
  0
VISUALSTYLE
  5
31
102
{ACAD_REACTORS
330
29
102
}
330
29
100
AcDbVisualStyle
  2
Hidden
 70
     6
177
     3
291
     0
 70
    58
 90
        1
176
     1
 90
        2
176
     1
 90
        2
176
     1
 90
        0
176
     1
 40
0.6
176
     1
 40
30.0
176
     1
 62
     7
420
 16777215
176
     1
 90
        2
176
     1
 90
        2
176
     1
 62
     7
176
     1
 62
   257
176
     1
 90
        2
176
     1
 90
        1
176
     1
 40
40.0
176
     1
 90
        0
176
     1
 62
   257
176
     1
 40
1.0
176
     1
 90
        1
176
     1
 90
        6
176
     1
 90
        2
176
     1
 62
     7
176
     1
 90
        3
176
     1
 90
        0
176
     1
 90
        0
176
     1
290
     0
176
     1
 90
        1
176
     1
 40
0.0
176
     1
 90
        0
176
     1
290
     0
176
     1
290
     1
176
     1
290
     1
176
     1
290
     0
176
     1
290
     0
176
     1
290
     0
176
     1
290
     0
176
     1
290
     0
176
     1
290
     0
176
     1
 90
       50
176
     1
 40
0.0
176
     1
 40
1.0
176
     1
 90
        0
176
     1
 62
    18
420
        0
176
     1
 90
       50
176
     1
 90
        3
176
     1
 62
     5
420
      255
176
     1
290
     0
176
     1
 90
       50
176
     1
 90
       50
176
     1
 90
       50
176
     1
290
     0
176
     1
 90
       50
176
     1
 62
   256
176
     0
 40
1.0
176
     0
 90
        2
176
     1
  1
strokes_ogs.tif
176
     1
290
     0
176
     1
 40
1.0
176
     1
 40
1.0
176
     1
  0
VISUALSTYLE
  5
3F
102
{ACAD_REACTORS
330
29
102
}
330
29
100
AcDbVisualStyle
  2
JitterOff
 70
    20
177
     3
291
     1
 70
    58
 90
        2
176
     0
 90
        2
176
     0
 90
        0
176
     0
 90
        0
176
     0
 40
0.6
176
     0
 40
30.0
176
     0
 62
     7
420
 16777215
176
     0
 90
        1
176
     0
 90
        4
176
     0
 62
     7
176
     0
 62
   257
176
     0
 90
        1
176
     0
 90
        1
176
     0
 40
1.0
176
     0
 90
       10
176
     2
 62
     7
176
     0
 40
1.0
176
     0
 90
        1
176
     0
 90
        6
176
     0
 90
        2
176
     0
 62
     7
176
     0
 90
        5
176
     0
 90
        0
176
     0
 90
        0
176
     0
290
     0
176
     0
 90
        1
176
     0
 40
0.0
176
     0
 90
        0
176
     0
290
     0
176
     0
290
     1
176
     0
290
     1
176
     0
290
     0
176
     0
290
     0
176
     0
290
     0
176
     0
290
     0
176
     0
290
     0
176
     0
290
     0
176
     0
 90
       50
176
     0
 40
0.0
176
     0
 40
1.0
176
     0
 90
        0
176
     0
 62
    18
420
        0
176
     0
 90
       50
176
     0
 90
        3
176
     0
 62
     5
420
      255
176
     0
290
     0
176
     0
 90
       50
176
     0
 90
       50
176
     0
 90
       50
176
     0
290
     0
176
     0
 90
       50
176
     0
 62
   256
176
     0
 40
1.0
176
     0
 90
        2
176
     0
  1
strokes_ogs.tif
176
     0
290
     0
176
     0
 40
1.0
176
     0
 40
1.0
176
     0
  0
VISUALSTYLE
  5
37
102
{ACAD_REACTORS
330
29
102
}
330
29
100
AcDbVisualStyle
  2
Linepattern
 70
    14
177
     3
291
     1
 70
    58
 90
        2
176
     1
 90
        2
176
     1
 90
        0
176
     1
 90
        0
176
     1
 40
0.6
176
     1
 40
30.0
176
     1
 62
     7
420
 16777215
176
     1
 90
        1
176
     1
 90
        4
176
     1
 62
     7
176
     1
 62
   257
176
     1
 90
        7
176
     1
 90
        7
176
     1
 40
1.0
176
     1
 90
        8
176
     1
 62
     7
176
     1
 40
1.0
176
     1
 90
        1
176
     1
 90
        6
176
     1
 90
        2
176
     1
 62
     7
176
     1
 90
        5
176
     1
 90
        0
176
     1
 90
        0
176
     1
290
     0
176
     1
 90
        1
176
     1
 40
0.0
176
     1
 90
        0
176
     1
290
     0
176
     1
290
     1
176
     1
290
     1
176
     1
290
     0
176
     1
290
     0
176
     1
290
     0
176
     1
290
     0
176
     1
290
     0
176
     1
290
     0
176
     1
 90
       50
176
     1
 40
0.0
176
     1
 40
1.0
176
     1
 90
        0
176
     1
 62
    18
420
        0
176
     1
 90
       50
176
     1
 90
        3
176
     1
 62
     5
420
      255
176
     1
290
     0
176
     1
 90
       50
176
     1
 90
       50
176
     1
 90
       50
176
     1
290
     0
176
     1
 90
       50
176
     1
 62
   256
176
     0
 40
1.0
176
     0
 90
        2
176
     1
  1
strokes_ogs.tif
176
     1
290
     0
176
     1
 40
1.0
176
     1
 40
1.0
176
     1
  0
VISUALSTYLE
  5
40
102
{ACAD_REACTORS
330
29
102
}
330
29
100
AcDbVisualStyle
  2
OverhangOff
 70
    21
177
     3
291
     1
 70
    58
 90
        2
176
     0
 90
        2
176
     0
 90
        0
176
     0
 90
        0
176
     0
 40
0.6
176
     0
 40
30.0
176
     0
 62
     7
420
 16777215
176
     0
 90
        1
176
     0
 90
        4
176
     0
 62
     7
176
     0
 62
   257
176
     0
 90
        1
176
     0
 90
        1
176
     0
 40
1.0
176
     0
 90
        9
176
     2
 62
     7
176
     0
 40
1.0
176
     0
 90
        1
176
     0
 90
        6
176
     0
 90
        2
176
     0
 62
     7
176
     0
 90
        5
176
     0
 90
        0
176
     0
 90
        0
176
     0
290
     0
176
     0
 90
        1
176
     0
 40
0.0
176
     0
 90
        0
176
     0
290
     0
176
     0
290
     1
176
     0
290
     1
176
     0
290
     0
176
     0
290
     0
176
     0
290
     0
176
     0
290
     0
176
     0
290
     0
176
     0
290
     0
176
     0
 90
       50
176
     0
 40
0.0
176
     0
 40
1.0
176
     0
 90
        0
176
     0
 62
    18
420
        0
176
     0
 90
       50
176
     0
 90
        3
176
     0
 62
     5
420
      255
176
     0
290
     0
176
     0
 90
       50
176
     0
 90
       50
176
     0
 90
       50
176
     0
290
     0
176
     0
 90
       50
176
     0
 62
   256
176
     0
 40
1.0
176
     0
 90
        2
176
     0
  1
strokes_ogs.tif
176
     0
290
     0
176
     0
 40
1.0
176
     0
 40
1.0
176
     0
  0
VISUALSTYLE
  5
33
102
{ACAD_REACTORS
330
29
102
}
330
29
100
AcDbVisualStyle
  2
Realistic
 70
     8
177
     3
291
     0
 70
    58
 90
        2
176
     1
 90
        3
176
     1
 90
        0
176
     1
 90
        2
176
     1
 40
0.6
176
     1
 40
30.0
176
     1
 62
     7
420
 16777215
176
     1
 90
        0
176
     1
 90
        0
176
     1
 62
     7
176
     1
 62
   257
176
     1
 90
        1
176
     1
 90
        1
176
     1
 40
1.0
176
     1
 90
        8
176
     1
 62
   257
176
     1
 40
1.0
176
     1
 90
        1
176
     1
 90
        6
176
     1
 90
        2
176
     1
 62
     7
176
     1
 90
        3
176
     1
 90
        0
176
     1
 90
        0
176
     1
290
     0
176
     1
 90
       13
176
     1
 40
0.0
176
     1
 90
        0
176
     1
290
     0
176
     1
290
     1
176
     1
290
     1
176
     1
290
     0
176
     1
290
     0
176
     1
290
     0
176
     1
290
     0
176
     1
290
     0
176
     1
290
     0
176
     1
 90
       50
176
     1
 40
0.0
176
     1
 40
1.0
176
     1
 90
        0
176
     1
 62
    18
420
        0
176
     1
 90
       50
176
     1
 90
        3
176
     1
 62
     5
420
      255
176
     1
290
     0
176
     1
 90
       50
176
     1
 90
       50
176
     1
 90
       50
176
     1
290
     0
176
     1
 90
       50
176
     1
 62
   256
176
     0
 40
1.0
176
     0
 90
        2
176
     1
  1
strokes_ogs.tif
176
     1
290
     0
176
     1
 40
1.0
176
     1
 40
1.0
176
     1
  0
VISUALSTYLE
  5
3E
102
{ACAD_REACTORS
330
29
102
}
330
29
100
AcDbVisualStyle
  2
Shaded
 70
    27
177
     3
291
     0
 70
    58
 90
        2
176
     1
 90
        2
176
     1
 90
        1
176
     1
 90
        2
176
     1
 40
0.6
176
     1
 40
30.0
176
     1
 62
     7
420
 16777215
176
     1
 90
        0
176
     1
 90
        4
176
     1
 62
     7
176
     1
 62
   257
176
     1
 90
        1
176
     1
 90
        1
176
     1
 40
1.0
176
     1
 90
        8
176
     1
 62
   257
176
     1
 40
1.0
176
     1
 90
        1
176
     1
 90
        6
176
     1
 90
        2
176
     1
 62
     8
420
  7895160
176
     1
 90
        3
176
     1
 90
        0
176
     1
 90
        0
176
     1
290
     0
176
     1
 90
        5
176
     1
 40
0.0
176
     1
 90
        0
176
     1
290
     0
176
     1
290
     1
176
     1
290
     1
176
     1
290
     0
176
     1
290
     0
176
     1
290
     0
176
     1
290
     0
176
     1
290
     0
176
     1
290
     0
176
     1
 90
       50
176
     1
 40
0.0
176
     1
 40
1.0
176
     1
 90
        0
176
     1
 62
    18
420
        0
176
     1
 90
       50
176
     1
 90
        3
176
     1
 62
     5
420
      255
176
     1
290
     0
176
     1
 90
       50
176
     1
 90
       50
176
     1
 90
       50
176
     1
290
     0
176
     1
 90
       50
176
     1
 62
   256
176
     0
 40
1.0
176
     0
 90
        2
176
     1
  1
strokes_ogs.tif
176
     1
290
     0
176
     1
 40
1.0
176
     1
 40
1.0
176
     1
  0
VISUALSTYLE
  5
3D
102
{ACAD_REACTORS
330
29
102
}
330
29
100
AcDbVisualStyle
  2
Shaded with edges
 70
    26
177
     3
291
     0
 70
    58
 90
        2
176
     1
 90
        2
176
     1
 90
        1
176
     1
 90
        2
176
     1
 40
0.6
176
     1
 40
30.0
176
     1
 62
     7
420
 16777215
176
     1
 90
        1
176
     1
 90
        2
176
     1
 62
     7
176
     1
 62
   257
176
     1
 90
        2
176
     1
 90
        1
176
     1
 40
1.0
176
     1
 90
        8
176
     1
 62
   257
176
     1
 40
1.0
176
     1
 90
        1
176
     1
 90
        6
176
     1
 90
        2
176
     1
 62
     7
176
     1
 90
        3
176
     1
 90
        0
176
     1
 90
        0
176
     1
290
     0
176
     1
 90
        5
176
     1
 40
0.0
176
     1
 90
        0
176
     1
290
     0
176
     1
290
     1
176
     1
290
     1
176
     1
290
     0
176
     1
290
     0
176
     1
290
     0
176
     1
290
     0
176
     1
290
     0
176
     1
290
     0
176
     1
 90
       50
176
     1
 40
0.0
176
     1
 40
1.0
176
     1
 90
        0
176
     1
 62
    18
420
        0
176
     1
 90
       50
176
     1
 90
        3
176
     1
 62
     5
420
      255
176
     1
290
     0
176
     1
 90
       50
176
     1
 90
       50
176
     1
 90
       50
176
     1
290
     0
176
     1
 90
       50
176
     1
 62
   256
176
     0
 40
1.0
176
     0
 90
        2
176
     1
  1
strokes_ogs.tif
176
     1
290
     0
176
     1
 40
1.0
176
     1
 40
1.0
176
     1
  0
VISUALSTYLE
  5
3A
102
{ACAD_REACTORS
330
29
102
}
330
29
100
AcDbVisualStyle
  2
Shades of Gray
 70
    23
177
     3
291
     0
 70
    58
 90
        2
176
     1
 90
        2
176
     1
 90
        3
176
     1
 90
        0
176
     1
 40
0.6
176
     1
 40
30.0
176
     1
 62
     7
420
 16777215
176
     1
 90
        2
176
     1
 90
        2
176
     1
 62
     7
176
     1
 62
     7
176
     1
 90
        1
176
     1
 90
        1
176
     1
 40
40.0
176
     1
 90
        8
176
     1
 62
     7
176
     1
 40
1.0
176
     1
 90
        1
176
     1
 90
        6
176
     1
 90
        2
176
     1
 62
     7
176
     1
 90
        3
176
     1
 90
        0
176
     1
 90
        0
176
     1
290
     0
176
     1
 90
        1
176
     1
 40
0.0
176
     1
 90
        0
176
     1
290
     0
176
     1
290
     1
176
     1
290
     1
176
     1
290
     0
176
     1
290
     0
176
     1
290
     0
176
     1
290
     0
176
     1
290
     0
176
     1
290
     0
176
     1
 90
       50
176
     1
 40
0.0
176
     1
 40
1.0
176
     1
 90
        0
176
     1
 62
    18
420
        0
176
     1
 90
       50
176
     1
 90
        3
176
     1
 62
     5
420
      255
176
     1
290
     0
176
     1
 90
       50
176
     1
 90
       50
176
     1
 90
       50
176
     1
290
     0
176
     1
 90
       50
176
     1
 62
   256
176
     0
 40
1.0
176
     0
 90
        2
176
     1
  1
strokes_ogs.tif
176
     1
290
     0
176
     1
 40
1.0
176
     1
 40
1.0
176
     1
  0
VISUALSTYLE
  5
3B
102
{ACAD_REACTORS
330
29
102
}
330
29
100
AcDbVisualStyle
  2
Sketchy
 70
    24
177
     3
291
     0
 70
    58
 90
        1
176
     1
 90
        2
176
     1
 90
        2
176
     1
 90
        0
176
     1
 40
0.6
176
     1
 40
30.0
176
     1
 62
     7
420
 16777215
176
     1
 90
        2
176
     1
 90
        2
176
     1
 62
     7
176
     1
 62
     7
176
     1
 90
        1
176
     1
 90
        1
176
     1
 40
40.0
176
     1
 90
       11
176
     1
 62
     7
176
     1
 40
1.0
176
     1
 90
        1
176
     1
 90
        6
176
     1
 90
        2
176
     1
 62
     7
176
     1
 90
        6
176
     1
 90
        0
176
     1
 90
        0
176
     1
290
     0
176
     1
 90
        1
176
     1
 40
0.0
176
     1
 90
        0
176
     1
290
     0
176
     1
290
     1
176
     1
290
     1
176
     1
290
     0
176
     1
290
     0
176
     1
290
     0
176
     1
290
     0
176
     1
290
     0
176
     1
290
     0
176
     1
 90
       50
176
     1
 40
0.0
176
     1
 40
1.0
176
     1
 90
        0
176
     1
 62
    18
420
        0
176
     1
 90
       50
176
     1
 90
        3
176
     1
 62
     5
420
      255
176
     1
290
     0
176
     1
 90
       50
176
     1
 90
       50
176
     1
 90
       50
176
     1
290
     0
176
     1
 90
       50
176
     1
 62
   256
176
     0
 40
1.0
176
     0
 90
        2
176
     1
  1
strokes_ogs.tif
176
     1
290
     0
176
     1
 40
1.0
176
     1
 40
1.0
176
     1
  0
VISUALSTYLE
  5
36
102
{ACAD_REACTORS
330
29
102
}
330
29
100
AcDbVisualStyle
  2
Thicken
 70
    13
177
     3
291
     1
 70
    58
 90
        2
176
     1
 90
        2
176
     1
 90
        0
176
     1
 90
        0
176
     1
 40
0.6
176
     1
 40
30.0
176
     1
 62
     7
420
 16777215
176
     1
 90
        1
176
     1
 90
        4
176
     1
 62
     7
176
     1
 62
   257
176
     1
 90
        1
176
     1
 90
        1
176
     1
 40
1.0
176
     1
 90
       12
176
     1
 62
     7
176
     1
 40
1.0
176
     1
 90
        1
176
     1
 90
        6
176
     1
 90
        2
176
     1
 62
     7
176
     1
 90
        5
176
     1
 90
        0
176
     1
 90
        0
176
     1
290
     0
176
     1
 90
        1
176
     1
 40
0.0
176
     1
 90
        0
176
     1
290
     0
176
     1
290
     1
176
     1
290
     1
176
     1
290
     0
176
     1
290
     0
176
     1
290
     0
176
     1
290
     0
176
     1
290
     0
176
     1
290
     0
176
     1
 90
       50
176
     1
 40
0.0
176
     1
 40
1.0
176
     1
 90
        0
176
     1
 62
    18
420
        0
176
     1
 90
       50
176
     1
 90
        3
176
     1
 62
     5
420
      255
176
     1
290
     0
176
     1
 90
       50
176
     1
 90
       50
176
     1
 90
       50
176
     1
290
     0
176
     1
 90
       50
176
     1
 62
   256
176
     0
 40
1.0
176
     0
 90
        2
176
     1
  1
strokes_ogs.tif
176
     1
290
     0
176
     1
 40
1.0
176
     1
 40
1.0
176
     1
  0
VISUALSTYLE
  5
30
102
{ACAD_REACTORS
330
29
102
}
330
29
100
AcDbVisualStyle
  2
Wireframe
 70
     5
177
     3
291
     0
 70
    58
 90
        0
176
     1
 90
        2
176
     1
 90
        0
176
     1
 90
        0
176
     1
 40
0.6
176
     1
 40
30.0
176
     1
 62
     7
420
 16777215
176
     1
 90
        1
176
     1
 90
        4
176
     1
 62
     7
176
     1
 62
   257
176
     1
 90
        1
176
     1
 90
        1
176
     1
 40
1.0
176
     1
 90
        0
176
     1
 62
   257
176
     1
 40
1.0
176
     1
 90
        1
176
     1
 90
        6
176
     1
 90
        2
176
     1
 62
     7
176
     1
 90
        3
176
     1
 90
        0
176
     1
 90
        0
176
     1
290
     0
176
     1
 90
        1
176
     1
 40
0.0
176
     1
 90
        0
176
     1
290
     0
176
     1
290
     1
176
     1
290
     1
176
     1
290
     0
176
     1
290
     0
176
     1
290
     0
176
     1
290
     0
176
     1
290
     0
176
     1
290
     0
176
     1
 90
       50
176
     1
 40
0.0
176
     1
 40
1.0
176
     1
 90
        0
176
     1
 62
    18
420
        0
176
     1
 90
       50
176
     1
 90
        3
176
     1
 62
     5
420
      255
176
     1
290
     0
176
     1
 90
       50
176
     1
 90
       50
176
     1
 90
       50
176
     1
290
     0
176
     1
 90
       50
176
     1
 62
   256
176
     0
 40
1.0
176
     0
 90
        2
176
     1
  1
strokes_ogs.tif
176
     1
290
     0
176
     1
 40
1.0
176
     1
 40
1.0
176
     1
  0
VISUALSTYLE
  5
3C
102
{ACAD_REACTORS
330
29
102
}
330
29
100
AcDbVisualStyle
  2
X-Ray
 70
    25
177
     3
291
     0
 70
    58
 90
        2
176
     1
 90
        2
176
     1
 90
        1
176
     1
 90
        1
176
     1
 40
0.5
176
     1
 40
30.0
176
     1
 62
     7
420
 16777215
176
     1
 90
        1
176
     1
 90
        0
176
     1
 62
     7
176
     1
 62
   257
176
     1
 90
        1
176
     1
 90
        1
176
     1
 40
1.0
176
     1
 90
        8
176
     1
 62
     7
176
     1
 40
1.0
176
     1
 90
        1
176
     1
 90
        6
176
     1
 90
        2
176
     1
 62
     7
176
     1
 90
        3
176
     1
 90
        0
176
     1
 90
        0
176
     1
290
     0
176
     1
 90
       13
176
     1
 40
0.0
176
     1
 90
        0
176
     1
290
     0
176
     1
290
     1
176
     1
290
     1
176
     1
290
     0
176
     1
290
     0
176
     1
290
     0
176
     1
290
     0
176
     1
290
     0
176
     1
290
     0
176
     1
 90
       50
176
     1
 40
0.0
176
     1
 40
1.0
176
     1
 90
        0
176
     1
 62
    18
420
        0
176
     1
 90
       50
176
     1
 90
        3
176
     1
 62
     5
420
      255
176
     1
290
     0
176
     1
 90
       50
176
     1
 90
       50
176
     1
 90
       50
176
     1
290
     0
176
     1
 90
       50
176
     1
 62
   256
176
     0
 40
1.0
176
     0
 90
        2
176
     1
  1
strokes_ogs.tif
176
     1
290
     0
176
     1
 40
1.0
176
     1
 40
1.0
176
     1
  0
DICTIONARYVAR
  5
12E
102
{ACAD_REACTORS
330
129
102
}
330
129
100
DictionaryVariables
280
     0
  1
1:1
  0
DICTIONARYVAR
  5
12B
102
{ACAD_REACTORS
330
129
102
}
330
129
100
DictionaryVariables
280
     0
  1
STANDARD
  0
DICTIONARYVAR
  5
12A
102
{ACAD_REACTORS
330
129
102
}
330
129
100
DictionaryVariables
280
     0
  1
STANDARD
  0
DICTIONARYVAR
  5
12C
102
{ACAD_REACTORS
330
129
102
}
330
129
100
DictionaryVariables
280
     0
  1
Imperial24
  0
DICTIONARYVAR
  5
12D
102
{ACAD_REACTORS
330
129
102
}
330
129
100
DictionaryVariables
280
     0
  1
Imperial24
  0
DICTIONARY
  5
1A
330
19
100
AcDbDictionary
280
     1
281
     1
  3
BUMPTILE
360
1C
  3
DIFFUSETILE
360
1B
  3
OPACITYTILE
360
1F
  3
REFLECTIONTILE
360
1E
  3
REFRACTIONTILE
360
20
  3
SPECULARTILE
360
1D
  0
DICTIONARY
  5
12
330
11
100
AcDbDictionary
280
     1
281
     1
  3
BUMPTILE
360
14
  3
DIFFUSETILE
360
13
  3
OPACITYTILE
360
17
  3
REFLECTIONTILE
360
16
  3
REFRACTIONTILE
360
18
  3
SPECULARTILE
360
15
  0
DICTIONARY
  5
22
330
21
100
AcDbDictionary
280
     1
281
     1
  3
BUMPTILE
360
24
  3
DIFFUSETILE
360
23
  3
OPACITYTILE
360
27
  3
REFLECTIONTILE
360
26
  3
REFRACTIONTILE
360
28
  3
SPECULARTILE
360
25
  0
DICTIONARY
  5
12F
330
65
100
AcDbDictionary
280
     1
281
     1
  3
ACAD_ROUNDTRIP_2008_TABLESTYLE_CELLSTYLEMAP
360
130
  0
XRECORD
  5
1C
102
{ACAD_REACTORS
330
1A
102
}
330
1A
100
AcDbXrecord
280
     1
270
     1
271
     1
  0
XRECORD
  5
1B
102
{ACAD_REACTORS
330
1A
102
}
330
1A
100
AcDbXrecord
280
     1
270
     1
271
     1
  0
XRECORD
  5
1F
102
{ACAD_REACTORS
330
1A
102
}
330
1A
100
AcDbXrecord
280
     1
270
     1
271
     1
  0
XRECORD
  5
1E
102
{ACAD_REACTORS
330
1A
102
}
330
1A
100
AcDbXrecord
280
     1
270
     1
271
     1
  0
XRECORD
  5
20
102
{ACAD_REACTORS
330
1A
102
}
330
1A
100
AcDbXrecord
280
     1
270
     1
271
     1
  0
XRECORD
  5
1D
102
{ACAD_REACTORS
330
1A
102
}
330
1A
100
AcDbXrecord
280
     1
270
     1
271
     1
  0
XRECORD
  5
14
102
{ACAD_REACTORS
330
12
102
}
330
12
100
AcDbXrecord
280
     1
270
     1
271
     1
  0
XRECORD
  5
13
102
{ACAD_REACTORS
330
12
102
}
330
12
100
AcDbXrecord
280
     1
270
     1
271
     1
  0
XRECORD
  5
17
102
{ACAD_REACTORS
330
12
102
}
330
12
100
AcDbXrecord
280
     1
270
     1
271
     1
  0
XRECORD
  5
16
102
{ACAD_REACTORS
330
12
102
}
330
12
100
AcDbXrecord
280
     1
270
     1
271
     1
  0
XRECORD
  5
18
102
{ACAD_REACTORS
330
12
102
}
330
12
100
AcDbXrecord
280
     1
270
     1
271
     1
  0
XRECORD
  5
15
102
{ACAD_REACTORS
330
12
102
}
330
12
100
AcDbXrecord
280
     1
270
     1
271
     1
  0
XRECORD
  5
24
102
{ACAD_REACTORS
330
22
102
}
330
22
100
AcDbXrecord
280
     1
270
     1
271
     1
  0
XRECORD
  5
23
102
{ACAD_REACTORS
330
22
102
}
330
22
100
AcDbXrecord
280
     1
270
     1
271
     1
  0
XRECORD
  5
27
102
{ACAD_REACTORS
330
22
102
}
330
22
100
AcDbXrecord
280
     1
270
     1
271
     1
  0
XRECORD
  5
26
102
{ACAD_REACTORS
330
22
102
}
330
22
100
AcDbXrecord
280
     1
270
     1
271
     1
  0
XRECORD
  5
28
102
{ACAD_REACTORS
330
22
102
}
330
22
100
AcDbXrecord
280
     1
270
     1
271
     1
  0
XRECORD
  5
25
102
{ACAD_REACTORS
330
22
102
}
330
22
100
AcDbXrecord
280
     1
270
     1
271
     1
  0
CELLSTYLEMAP
  5
130
102
{ACAD_REACTORS
330
12F
102
}
330
12F
100
AcDbCellStyleMap
 90
        3
300
CELLSTYLE
  1
TABLEFORMAT_BEGIN
 90
        5
170
     1
 91
        0
 92
    32768
 62
   257
 93
        1
300
CONTENTFORMAT
  1
CONTENTFORMAT_BEGIN
 90
        0
 91
        0
 92
      512
 93
        0
300

 40
0.0
140
1.0
 94
        5
 62
     0
340
55
144
0.25
309
CONTENTFORMAT_END
171
     0
 94
        0
309
TABLEFORMAT_END
  1
CELLSTYLE_BEGIN
 90
        1
 91
        1
300
_TITLE
309
CELLSTYLE_END
300
CELLSTYLE
  1
TABLEFORMAT_BEGIN
 90
        5
170
     1
 91
        0
 92
        0
 62
   257
 93
        1
300
CONTENTFORMAT
  1
CONTENTFORMAT_BEGIN
 90
        0
 91
        0
 92
      512
 93
        0
300

 40
0.0
140
1.0
 94
        5
 62
     0
340
55
144
0.18
309
CONTENTFORMAT_END
171
     0
 94
        0
309
TABLEFORMAT_END
  1
CELLSTYLE_BEGIN
 90
        2
 91
        1
300
_HEADER
309
CELLSTYLE_END
300
CELLSTYLE
  1
TABLEFORMAT_BEGIN
 90
        5
170
     1
 91
        0
 92
        0
 62
   257
 93
        1
300
CONTENTFORMAT
  1
CONTENTFORMAT_BEGIN
 90
        0
 91
        0
 92
      512
 93
        0
300

 40
0.0
140
1.0
 94
        2
 62
     0
340
55
144
0.18
309
CONTENTFORMAT_END
171
     0
 94
        0
309
TABLEFORMAT_END
  1
CELLSTYLE_BEGIN
 90
        3
 91
        2
300
_DATA
309
CELLSTYLE_END
  0
ENDSEC
  0
EOF
