  0
SECTION
  2
HEADER
  9
$ACADVER
  1
AC1032
  9
$ACADMAINTVER
 90
      329
  9
$DWGCODEPAGE
  3
ANSI_936
  9
$REQUIREDVERSIONS
160
                 0
  9
$INSBASE
 10
0.0
 20
0.0
 30
0.0
  9
$EXTMIN
 10
1.000000000000000E+20
 20
1.000000000000000E+20
 30
1.000000000000000E+20
  9
$EXTMAX
 10
-1.000000000000000E+20
 20
-1.000000000000000E+20
 30
-1.000000000000000E+20
  9
$LIMMIN
 10
0.0
 20
0.0
  9
$LIMMAX
 10
12.0
 20
9.0
  9
$ORTHOMODE
 70
     0
  9
$REGENMODE
 70
     1
  9
$FILLMODE
 70
     1
  9
$QTEXTMODE
 70
     0
  9
$MIRRTEXT
 70
     0
  9
$LTSCALE
 40
1.0
  9
$ATTMODE
 70
     1
  9
$TEXTSIZE
 40
0.2
  9
$TRACEWID
 40
0.05
  9
$TEXTSTYLE
  7
Standard
  9
$CLAYER
  8
0
  9
$CELTYPE
  6
ByLayer
  9
$CECOLOR
 62
   256
  9
$CELTSCALE
 40
1.0
  9
$DISPSILH
 70
     0
  9
$DIMSCALE
 40
1.0
  9
$DIMASZ
 40
0.18
  9
$DIMEXO
 40
0.0625
  9
$DIMDLI
 40
0.38
  9
$DIMRND
 40
0.0
  9
$DIMDLE
 40
0.0
  9
$DIMEXE
 40
0.18
  9
$DIMTP
 40
0.0
  9
$DIMTM
 40
0.0
  9
$DIMTXT
 40
0.18
  9
$DIMCEN
 40
0.09
  9
$DIMTSZ
 40
0.0
  9
$DIMTOL
 70
     0
  9
$DIMLIM
 70
     0
  9
$DIMTIH
 70
     1
  9
$DIMTOH
 70
     1
  9
$DIMSE1
 70
     0
  9
$DIMSE2
 70
     0
  9
$DIMTAD
 70
     0
  9
$DIMZIN
 70
     0
  9
$DIMBLK
  1

  9
$DIMASO
 70
     1
  9
$DIMSHO
 70
     1
  9
$DIMPOST
  1

  9
$DIMAPOST
  1

  9
$DIMALT
 70
     0
  9
$DIMALTD
 70
     2
  9
$DIMALTF
 40
25.4
  9
$DIMLFAC
 40
1.0
  9
$DIMTOFL
 70
     0
  9
$DIMTVP
 40
0.0
  9
$DIMTIX
 70
     0
  9
$DIMSOXD
 70
     0
  9
$DIMSAH
 70
     0
  9
$DIMBLK1
  1

  9
$DIMBLK2
  1

  9
$DIMSTYLE
  2
Standard
  9
$DIMCLRD
 70
     0
  9
$DIMCLRE
 70
     0
  9
$DIMCLRT
 70
     0
  9
$DIMTFAC
 40
1.0
  9
$DIMGAP
 40
0.09
  9
$DIMJUST
 70
     0
  9
$DIMSD1
 70
     0
  9
$DIMSD2
 70
     0
  9
$DIMTOLJ
 70
     1
  9
$DIMTZIN
 70
     0
  9
$DIMALTZ
 70
     0
  9
$DIMALTTZ
 70
     0
  9
$DIMUPT
 70
     0
  9
$DIMDEC
 70
     4
  9
$DIMTDEC
 70
     4
  9
$DIMALTU
 70
     2
  9
$DIMALTTD
 70
     2
  9
$DIMTXSTY
  7
Standard
  9
$DIMAUNIT
 70
     0
  9
$DIMADEC
 70
     0
  9
$DIMALTRND
 40
0.0
  9
$DIMAZIN
 70
     0
  9
$DIMDSEP
 70
    46
  9
$DIMATFIT
 70
     3
  9
$DIMFRAC
 70
     0
  9
$DIMLDRBLK
  1

  9
$DIMLUNIT
 70
     2
  9
$DIMLWD
 70
    -2
  9
$DIMLWE
 70
    -2
  9
$DIMTMOVE
 70
     0
  9
$DIMFXL
 40
1.0
  9
$DIMFXLON
 70
     0
  9
$DIMJOGANG
 40
0.7853981633974483
  9
$DIMTFILL
 70
     0
  9
$DIMTFILLCLR
 70
     0
  9
$DIMARCSYM
 70
     0
  9
$DIMLTYPE
  6

  9
$DIMLTEX1
  6

  9
$DIMLTEX2
  6

  9
$DIMTXTDIRECTION
 70
     0
  9
$LUNITS
 70
     2
  9
$LUPREC
 70
     4
  9
$SKETCHINC
 40
0.1
  9
$FILLETRAD
 40
0.0
  9
$AUNITS
 70
     0
  9
$AUPREC
 70
     0
  9
$MENU
  1
.
  9
$ELEVATION
 40
0.0
  9
$PELEVATION
 40
0.0
  9
$THICKNESS
 40
0.0
  9
$LIMCHECK
 70
     0
  9
$CHAMFERA
 40
0.0
  9
$CHAMFERB
 40
0.0
  9
$CHAMFERC
 40
0.0
  9
$CHAMFERD
 40
0.0
  9
$SKPOLY
 70
     0
  9
$TDCREATE
 40
2460887.386400463
  9
$TDUCREATE
 40
2460887.053067130
  9
$TDUPDATE
 40
2460887.386400463
  9
$TDUUPDATE
 40
2460887.053067130
  9
$TDINDWG
 40
0.0000000000
  9
$TDUSRTIMER
 40
0.0000000000
  9
$USRTIMER
 70
     1
  9
$ANGBASE
 50
0.0
  9
$ANGDIR
 70
     0
  9
$PDMODE
 70
     0
  9
$PDSIZE
 40
0.0
  9
$PLINEWID
 40
0.0
  9
$SPLFRAME
 70
     0
  9
$SPLINETYPE
 70
     6
  9
$SPLINESEGS
 70
     8
  9
$HANDSEED
  5
144
  9
$SURFTAB1
 70
     6
  9
$SURFTAB2
 70
     6
  9
$SURFTYPE
 70
     6
  9
$SURFU
 70
     6
  9
$SURFV
 70
     6
  9
$UCSBASE
  2

  9
$UCSNAME
  2

  9
$UCSORG
 10
0.0
 20
0.0
 30
0.0
  9
$UCSXDIR
 10
1.0
 20
0.0
 30
0.0
  9
$UCSYDIR
 10
0.0
 20
1.0
 30
0.0
  9
$UCSORTHOREF
  2

  9
$UCSORTHOVIEW
 70
     0
  9
$UCSORGTOP
 10
0.0
 20
0.0
 30
0.0
  9
$UCSORGBOTTOM
 10
0.0
 20
0.0
 30
0.0
  9
$UCSORGLEFT
 10
0.0
 20
0.0
 30
0.0
  9
$UCSORGRIGHT
 10
0.0
 20
0.0
 30
0.0
  9
$UCSORGFRONT
 10
0.0
 20
0.0
 30
0.0
  9
$UCSORGBACK
 10
0.0
 20
0.0
 30
0.0
  9
$PUCSBASE
  2

  9
$PUCSNAME
  2

  9
$PUCSORG
 10
0.0
 20
0.0
 30
0.0
  9
$PUCSXDIR
 10
1.0
 20
0.0
 30
0.0
  9
$PUCSYDIR
 10
0.0
 20
1.0
 30
0.0
  9
$PUCSORTHOREF
  2

  9
$PUCSORTHOVIEW
 70
     0
  9
$PUCSORGTOP
 10
0.0
 20
0.0
 30
0.0
  9
$PUCSORGBOTTOM
 10
0.0
 20
0.0
 30
0.0
  9
$PUCSORGLEFT
 10
0.0
 20
0.0
 30
0.0
  9
$PUCSORGRIGHT
 10
0.0
 20
0.0
 30
0.0
  9
$PUCSORGFRONT
 10
0.0
 20
0.0
 30
0.0
  9
$PUCSORGBACK
 10
0.0
 20
0.0
 30
0.0
  9
$USERI1
 70
     0
  9
$USERI2
 70
     0
  9
$USERI3
 70
     0
  9
$USERI4
 70
     0
  9
$USERI5
 70
     0
  9
$USERR1
 40
0.0
  9
$USERR2
 40
0.0
  9
$USERR3
 40
0.0
  9
$USERR4
 40
0.0
  9
$USERR5
 40
0.0
  9
$WORLDVIEW
 70
     1
  9
$SHADEDGE
 70
     3
  9
$SHADEDIF
 70
    70
  9
$TILEMODE
 70
     1
  9
$MAXACTVP
 70
    64
  9
$PINSBASE
 10
0.0
 20
0.0
 30
0.0
  9
$PLIMCHECK
 70
     0
  9
$PEXTMIN
 10
1.000000000000000E+20
 20
1.000000000000000E+20
 30
1.000000000000000E+20
  9
$PEXTMAX
 10
-1.000000000000000E+20
 20
-1.000000000000000E+20
 30
-1.000000000000000E+20
  9
$PLIMMIN
 10
0.0
 20
0.0
  9
$PLIMMAX
 10
12.0
 20
9.0
  9
$UNITMODE
 70
     0
  9
$VISRETAIN
 70
     1
  9
$PLINEGEN
 70
     0
  9
$PSLTSCALE
 70
     1
  9
$TREEDEPTH
 70
  3020
  9
$CMLSTYLE
  2
Standard
  9
$CMLJUST
 70
     0
  9
$CMLSCALE
 40
1.0
  9
$PROXYGRAPHICS
 70
     1
  9
$MEASUREMENT
 70
     0
  9
$CELWEIGHT
370
    -1
  9
$ENDCAPS
280
     0
  9
$JOINSTYLE
280
     0
  9
$LWDISPLAY
290
     1
  9
$INSUNITS
 70
     1
  9
$HYPERLINKBASE
  1

  9
$STYLESHEET
  1

  9
$XEDIT
290
     1
  9
$CEPSNTYPE
380
     0
  9
$PSTYLEMODE
290
     1
  9
$FINGERPRINTGUID
  2
{03F6802E-2B1C-794A-AC31-3FC183CCF8B8}
  9
$VERSIONGUID
  2
{740C3D91-E4D8-E947-BF92-7BDEEAFFE6D4}
  9
$EXTNAMES
290
     1
  9
$PSVPSCALE
 40
0.0
  9
$OLESTARTUP
290
     0
  9
$SORTENTS
280
   127
  9
$INDEXCTL
280
     0
  9
$HIDETEXT
280
     1
  9
$XCLIPFRAME
280
     2
  9
$HALOGAP
280
     0
  9
$OBSCOLOR
 70
   257
  9
$OBSLTYPE
280
     0
  9
$INTERSECTIONDISPLAY
280
     0
  9
$INTERSECTIONCOLOR
 70
   257
  9
$DIMASSOC
280
     2
  9
$PROJECTNAME
  1

  9
$CAMERADISPLAY
290
     0
  9
$LENSLENGTH
 40
50.0
  9
$CAMERAHEIGHT
 40
0.0
  9
$STEPSPERSEC
 40
2.0
  9
$STEPSIZE
 40
6.0
  9
$3DDWFPREC
 40
2.0
  9
$PSOLWIDTH
 40
0.25
  9
$PSOLHEIGHT
 40
4.0
  9
$LOFTANG1
 40
1.570796326794896
  9
$LOFTANG2
 40
1.570796326794896
  9
$LOFTMAG1
 40
0.0
  9
$LOFTMAG2
 40
0.0
  9
$LOFTPARAM
 70
     7
  9
$LOFTNORMALS
280
     1
  9
$LATITUDE
 40
37.795
  9
$LONGITUDE
 40
-122.394
  9
$NORTHDIRECTION
 40
0.0
  9
$TIMEZONE
 70
 -8000
  9
$LIGHTGLYPHDISPLAY
280
     1
  9
$TILEMODELIGHTSYNCH
280
     1
  9
$CMATERIAL
347
11
  9
$SOLIDHIST
280
     0
  9
$SHOWHIST
280
     1
  9
$DWFFRAME
280
     2
  9
$DGNFRAME
280
     0
  9
$REALWORLDSCALE
290
     1
  9
$INTERFERECOLOR
 62
     1
  9
$INTERFEREOBJVS
345
33
  9
$INTERFEREVPVS
346
30
  9
$CSHADOW
280
     0
  9
$SHADOWPLANELOCATION
 40
0.0
  0
ENDSEC
  0
SECTION
  2
CLASSES
  0
CLASS
  1
ACDBDICTIONARYWDFLT
  2
AcDbDictionaryWithDefault
  3
ObjectDBX Classes
 90
        0
 91
        1
280
     0
281
     0
  0
CLASS
  1
MATERIAL
  2
AcDbMaterial
  3
ObjectDBX Classes
 90
     1153
 91
        3
280
     0
281
     0
  0
CLASS
  1
VISUALSTYLE
  2
AcDbVisualStyle
  3
ObjectDBX Classes
 90
     4095
 91
       24
280
     0
281
     0
  0
CLASS
  1
SCALE
  2
AcDbScale
  3
ObjectDBX Classes
 90
     1153
 91
       17
280
     0
281
     0
  0
CLASS
  1
TABLESTYLE
  2
AcDbTableStyle
  3
ObjectDBX Classes
 90
     4095
 91
        1
280
     0
281
     0
  0
CLASS
  1
MLEADERSTYLE
  2
AcDbMLeaderStyle
  3
ACDB_MLEADERSTYLE_CLASS
 90
     4095
 91
        1
280
     0
281
     0
  0
CLASS
  1
ACDBSECTIONVIEWSTYLE
  2
AcDbSectionViewStyle
  3
ObjectDBX Classes
 90
     1025
 91
        1
280
     0
281
     0
  0
CLASS
  1
ACDBDETAILVIEWSTYLE
  2
AcDbDetailViewStyle
  3
ObjectDBX Classes
 90
     1025
 91
        1
280
     0
281
     0
  0
CLASS
  1
DICTIONARYVAR
  2
AcDbDictionaryVar
  3
ObjectDBX Classes
 90
        0
 91
        5
280
     0
281
     0
  0
CLASS
  1
CELLSTYLEMAP
  2
AcDbCellStyleMap
  3
ObjectDBX Classes
 90
     1152
 91
        1
280
     0
281
     0
  0
ENDSEC
  0
SECTION
  2
TABLES
  0
TABLE
  2
VPORT
  5
8
330
0
100
AcDbSymbolTable
 70
     1
  0
VPORT
  5
57
330
8
100
AcDbSymbolTableRecord
100
AcDbViewportTableRecord
  2
*Active
 70
     0
 10
0.0
 20
0.0
 11
1.0
 21
1.0
 12
0.0
 22
0.0
 13
0.0
 23
0.0
 14
1.0
 24
1.0
 15
0.0
 25
0.0
 16
0.0
 26
0.0
 36
1.0
 17
12.0
 27
-10.0
 37
0.0
 40
20.4
 41
1.2
 42
50.0
 43
0.0
 44
0.0
 50
0.0
 51
0.0
 71
     0
 72
   100
 73
     1
 74
     1
 75
     0
 76
     0
 77
     0
 78
     0
281
     0
 65
     1
110
0.0
120
0.0
130
0.0
111
1.0
121
0.0
131
0.0
112
0.0
122
1.0
132
0.0
 79
     0
146
0.0
 60
     3
 61
     5
292
     1
282
     1
141
0.0
142
0.0
 63
   250
421
  3355443
  0
ENDTAB
  0
TABLE
  2
LTYPE
  5
5
330
0
100
AcDbSymbolTable
 70
     1
  0
LTYPE
  5
5B
330
5
100
AcDbSymbolTableRecord
100
AcDbLinetypeTableRecord
  2
ByBlock
 70
     0
  3

 72
    65
 73
     0
 40
0.0
  0
LTYPE
  5
5C
330
5
100
AcDbSymbolTableRecord
100
AcDbLinetypeTableRecord
  2
ByLayer
 70
     0
  3

 72
    65
 73
     0
 40
0.0
  0
LTYPE
  5
5D
330
5
100
AcDbSymbolTableRecord
100
AcDbLinetypeTableRecord
  2
Continuous
 70
     0
  3
Solid line
 72
    65
 73
     0
 40
0.0
  0
ENDTAB
  0
TABLE
  2
LAYER
  5
2
330
0
100
AcDbSymbolTable
 70
     2
  0
LAYER
  5
54
330
2
100
AcDbSymbolTableRecord
100
AcDbLayerTableRecord
  2
0
 70
     0
 62
     7
  6
Continuous
370
    -3
390
F
347
21
348
0
  0
LAYER
  5
78
330
2
100
AcDbSymbolTableRecord
100
AcDbLayerTableRecord
  2
Layer 1
 70
     0
 62
     7
  6
Continuous
370
     0
390
F
347
21
348
0
  0
ENDTAB
  0
TABLE
  2
STYLE
  5
3
330
0
100
AcDbSymbolTable
 70
     2
  0
STYLE
  5
55
330
3
100
AcDbSymbolTableRecord
100
AcDbTextStyleTableRecord
  2
Standard
 70
     0
 40
0.0
 41
1.0
 50
0.0
 71
     0
 42
0.2
  3
txt
  4

  0
STYLE
  5
5A
330
3
100
AcDbSymbolTableRecord
100
AcDbTextStyleTableRecord
  2
Annotative
 70
     0
 40
0.0
 41
1.0
 50
0.0
 71
     0
 42
0.2
  3
txt
  4

1001
AcadAnnotative
1000
AnnotativeData
1002
{
1070
     1
1070
     1
1002
}
  0
ENDTAB
  0
TABLE
  2
VIEW
  5
6
330
0
100
AcDbSymbolTable
 70
     0
  0
ENDTAB
  0
TABLE
  2
UCS
  5
7
330
0
100
AcDbSymbolTable
 70
     0
  0
ENDTAB
  0
TABLE
  2
APPID
  5
9
330
0
100
AcDbSymbolTable
 70
     2
  0
APPID
  5
56
330
9
100
AcDbSymbolTableRecord
100
AcDbRegAppTableRecord
  2
ACAD
 70
     0
  0
APPID
  5
5E
330
9
100
AcDbSymbolTableRecord
100
AcDbRegAppTableRecord
  2
AcadAnnotative
 70
     0
  0
ENDTAB
  0
TABLE
  2
DIMSTYLE
  5
A
330
0
100
AcDbSymbolTable
 70
     2
100
AcDbDimStyleTable
 71
     0
  0
DIMSTYLE
105
58
330
A
100
AcDbSymbolTableRecord
100
AcDbDimStyleTableRecord
  2
Standard
 70
     0
340
55
  0
DIMSTYLE
105
59
330
A
100
AcDbSymbolTableRecord
100
AcDbDimStyleTableRecord
  2
Annotative
 70
     0
340
55
1001
AcadAnnotative
1000
AnnotativeData
1002
{
1070
     1
1070
     1
1002
}
  0
ENDTAB
  0
TABLE
  2
BLOCK_RECORD
  5
1
330
0
100
AcDbSymbolTable
 70
     1
  0
BLOCK_RECORD
  5
70
330
1
100
AcDbSymbolTableRecord
100
AcDbBlockTableRecord
  2
*Model_Space
340
73
 70
     0
280
     1
281
     0
  0
BLOCK_RECORD
  5
6C
330
1
100
AcDbSymbolTableRecord
100
AcDbBlockTableRecord
  2
*Paper_Space
340
6F
 70
     0
280
     1
281
     0
  0
BLOCK_RECORD
  5
74
330
1
100
AcDbSymbolTableRecord
100
AcDbBlockTableRecord
  2
*Paper_Space0
340
77
 70
     0
280
     1
281
     0
  0
ENDTAB
  0
ENDSEC
  0
SECTION
  2
BLOCKS
  0
BLOCK
  5
71
330
70
100
AcDbEntity
  8
0
100
AcDbBlockBegin
  2
*Model_Space
 70
     0
 10
0.0
 20
0.0
 30
0.0
  3
*Model_Space
  1

  0
ENDBLK
  5
72
330
70
100
AcDbEntity
  8
0
100
AcDbBlockEnd
  0
BLOCK
  5
6D
330
6C
100
AcDbEntity
 67
     1
  8
0
100
AcDbBlockBegin
  2
*Paper_Space
 70
     0
 10
0.0
 20
0.0
 30
0.0
  3
*Paper_Space
  1

  0
ENDBLK
  5
6E
330
6C
100
AcDbEntity
 67
     1
  8
0
100
AcDbBlockEnd
  0
BLOCK
  5
75
330
74
100
AcDbEntity
 67
     1
  8
0
100
AcDbBlockBegin
  2
*Paper_Space0
 70
     0
 10
0.0
 20
0.0
 30
0.0
  3
*Paper_Space0
  1

  0
ENDBLK
  5
76
330
74
100
AcDbEntity
 67
     1
  8
0
100
AcDbBlockEnd
  0
ENDSEC
  0
SECTION
  2
ENTITIES
  0
LINE
  5
79
330
70
100
AcDbEntity
  8
Layer 1
 62
    18
420
        0
370
     5
100
AcDbLine
 10
0.6617711676474553
 20
-15.4357303984661
 30
0.0
 11
0.6617711676474553
 21
-15.92588479506965
 31
0.0
  0
LINE
  5
7A
330
70
100
AcDbEntity
  8
Layer 1
 62
    18
420
        0
370
     5
100
AcDbLine
 10
2.692912960755089
 20
-17.01271332905381
 30
0.0
 11
2.692912960755089
 21
-16.76253035578732
 31
0.0
  0
LINE
  5
7B
330
70
100
AcDbEntity
  8
Layer 1
 62
    18
420
        0
370
     5
100
AcDbLine
 10
2.749076485365915
 20
-16.73189570599965
 30
0.0
 11
2.749076485365915
 21
-16.70636683117653
 31
0.0
  0
LINE
  5
7C
330
70
100
AcDbEntity
  8
Layer 1
 62
    18
420
        0
370
     5
100
AcDbLine
 10
3.356663706155801
 20
-16.41533765819311
 30
0.0
 11
3.356663706155801
 21
-16.40002033329928
 31
0.0
  0
LINE
  5
7D
330
70
100
AcDbEntity
  8
Layer 1
 62
    18
420
        0
370
     5
100
AcDbLine
 10
3.468990755377439
 20
-16.14032734358375
 30
0.0
 11
3.468990755377439
 21
-16.38470300840544
 31
0.0
  0
LINE
  5
7E
330
70
100
AcDbEntity
  8
Layer 1
 62
    18
420
        0
370
     5
100
AcDbLine
 10
3.959145151981033
 20
-16.38470300840544
 30
0.0
 11
3.959145151981033
 21
-16.14032734358375
 31
0.0
  0
LINE
  5
7F
330
70
100
AcDbEntity
  8
Layer 1
 62
    18
420
        0
370
     5
100
AcDbLine
 10
4.071472201202671
 20
-16.41533765819311
 30
0.0
 11
4.071472201202671
 21
-16.40002033329928
 31
0.0
  0
LINE
  5
80
330
70
100
AcDbEntity
  8
Layer 1
 62
    18
420
        0
370
     5
100
AcDbLine
 10
4.679059421992544
 20
-16.73189570599965
 30
0.0
 11
4.679059421992544
 21
-16.70636683117653
 31
0.0
  0
LINE
  5
81
330
70
100
AcDbEntity
  8
Layer 1
 62
    18
420
        0
370
     5
100
AcDbLine
 10
4.735222946603395
 20
-17.01271332905381
 30
0.0
 11
4.735222946603395
 21
-16.76253035578732
 31
0.0
  0
LINE
  5
82
330
70
100
AcDbEntity
  8
Layer 1
 62
    18
420
        0
370
     5
100
AcDbLine
 10
10.86215290414823
 20
-17.01271332905381
 30
0.0
 11
10.86215290414823
 21
-16.76253035578732
 31
0.0
  0
LINE
  5
83
330
70
100
AcDbEntity
  8
Layer 1
 62
    18
420
        0
370
     5
100
AcDbLine
 10
10.91831642875908
 20
-16.73189570599965
 30
0.0
 11
10.91831642875908
 21
-16.70636683117653
 31
0.0
  0
LINE
  5
84
330
70
100
AcDbEntity
  8
Layer 1
 62
    18
420
        0
370
     5
100
AcDbLine
 10
11.52590364954893
 20
-16.41533765819311
 30
0.0
 11
11.52590364954893
 21
-16.40002033329928
 31
0.0
  0
LINE
  5
85
330
70
100
AcDbEntity
  8
Layer 1
 62
    18
420
        0
370
     5
100
AcDbLine
 10
11.6382306987706
 20
-16.38470300840544
 30
0.0
 11
11.6382306987706
 21
-16.14032734358375
 31
0.0
  0
LINE
  5
86
330
70
100
AcDbEntity
  8
Layer 1
 62
    18
420
        0
370
     5
100
AcDbLine
 10
12.12838509537414
 20
-16.14032734358375
 30
0.0
 11
12.12838509537414
 21
-16.38470300840544
 31
0.0
  0
LINE
  5
87
330
70
100
AcDbEntity
  8
Layer 1
 62
    18
420
        0
370
     5
100
AcDbLine
 10
12.24071214459582
 20
-16.41533765819311
 30
0.0
 11
12.24071214459582
 21
-16.40002033329928
 31
0.0
  0
LINE
  5
88
330
70
100
AcDbEntity
  8
Layer 1
 62
    18
420
        0
370
     5
100
AcDbLine
 10
12.84829936538573
 20
-16.73189570599965
 30
0.0
 11
12.84829936538573
 21
-16.70636683117653
 31
0.0
  0
LINE
  5
89
330
70
100
AcDbEntity
  8
Layer 1
 62
    18
420
        0
370
     5
100
AcDbLine
 10
12.90446288999656
 20
-17.01271332905381
 30
0.0
 11
12.90446288999656
 21
-16.76253035578732
 31
0.0
  0
LINE
  5
8A
330
70
100
AcDbEntity
  8
Layer 1
 62
    18
420
        0
370
     5
100
AcDbLine
 10
14.93560468320624
 20
-15.92588479506965
 30
0.0
 11
14.93560468320624
 21
-15.4357303984661
 31
0.0
  0
LINE
  5
8B
330
70
100
AcDbEntity
  8
Layer 1
 62
    18
420
        0
370
     5
100
AcDbLine
 10
12.88914556510265
 20
-17.02803065394762
 30
0.0
 11
10.87747022904212
 21
-17.02803065394762
 31
0.0
  0
LINE
  5
8C
330
70
100
AcDbEntity
  8
Layer 1
 62
    18
420
        0
370
     5
100
AcDbLine
 10
4.719905621709509
 20
-17.02803065394762
 30
0.0
 11
2.70823028564895
 21
-17.02803065394762
 31
0.0
  0
LINE
  5
8D
330
70
100
AcDbEntity
  8
Layer 1
 62
    18
420
        0
370
     5
100
AcDbLine
 10
2.70823028564895
 20
-16.74721303089346
 30
0.0
 11
4.719905621709509
 21
-16.74721303089346
 31
0.0
  0
LINE
  5
8E
330
70
100
AcDbEntity
  8
Layer 1
 62
    18
420
        0
370
     5
100
AcDbLine
 10
10.87747022904212
 20
-16.74721303089346
 30
0.0
 11
12.88914556510265
 21
-16.74721303089346
 31
0.0
  0
LINE
  5
8F
330
70
100
AcDbEntity
  8
Layer 1
 62
    18
420
        0
370
     5
100
AcDbLine
 10
2.764393810259788
 20
-16.69104950628267
 30
0.0
 11
4.663742097098671
 21
-16.69104950628267
 31
0.0
  0
LINE
  5
90
330
70
100
AcDbEntity
  8
Layer 1
 62
    18
420
        0
370
     5
100
AcDbLine
 10
10.93363375365293
 20
-16.69104950628267
 30
0.0
 11
12.83298204049187
 21
-16.69104950628267
 31
0.0
  0
LINE
  5
91
330
70
100
AcDbEntity
  8
Layer 1
 62
    18
420
        0
370
     5
100
AcDbLine
 10
3.371981031049648
 20
-16.38470300840544
 30
0.0
 11
4.056154876308823
 21
-16.38470300840544
 31
0.0
  0
LINE
  5
92
330
70
100
AcDbEntity
  8
Layer 1
 62
    18
420
        0
370
     5
100
AcDbLine
 10
11.54122097444281
 20
-16.38470300840544
 30
0.0
 11
12.22539481970201
 21
-16.38470300840544
 31
0.0
  0
LINE
  5
93
330
70
100
AcDbEntity
  8
Layer 1
 62
    18
420
        0
370
     5
100
AcDbLine
 10
3.254548206863369
 20
-15.92588479506965
 30
0.0
 11
0.6617711676474553
 21
-15.92588479506965
 31
0.0
  0
LINE
  5
94
330
70
100
AcDbEntity
  8
Layer 1
 62
    18
420
        0
370
     5
100
AcDbLine
 10
12.34282764388819
 20
-15.92588479506965
 30
0.0
 11
14.93560468320624
 21
-15.92588479506965
 31
0.0
  0
LINE
  5
95
330
70
100
AcDbEntity
  8
Layer 1
 62
    18
420
        0
370
     5
100
AcDbLine
 10
3.254548206863369
 20
-15.4357303984661
 30
0.0
 11
0.6617711676474553
 21
-15.4357303984661
 31
0.0
  0
LINE
  5
96
330
70
100
AcDbEntity
  8
Layer 1
 62
    18
420
        0
370
     5
100
AcDbLine
 10
12.34282764388819
 20
-15.4357303984661
 30
0.0
 11
14.93560468320624
 21
-15.4357303984661
 31
0.0
  0
LINE
  5
97
330
70
100
AcDbEntity
  8
Layer 1
 62
    18
420
        0
370
     5
100
AcDbLine
 10
0.6617711676474553
 20
-3.298008232235954
 30
0.0
 11
0.6617711676474553
 21
-3.788162628839535
 31
0.0
  0
LINE
  5
98
330
70
100
AcDbEntity
  8
Layer 1
 62
    18
420
        0
370
     5
100
AcDbLine
 10
3.714067953679229
 20
-3.788162628839535
 30
0.0
 11
0.6617711676474553
 21
-3.788162628839535
 31
0.0
  0
LINE
  5
99
330
70
100
AcDbEntity
  8
Layer 1
 62
    18
420
        0
370
     5
100
AcDbLine
 10
11.88330789707241
 20
-3.788162628839535
 30
0.0
 11
14.93560468320624
 21
-3.788162628839535
 31
0.0
  0
LINE
  5
9A
330
70
100
AcDbEntity
  8
Layer 1
 62
    18
420
        0
370
     5
100
AcDbLine
 10
3.714067953679229
 20
-3.298008232235954
 30
0.0
 11
0.6617711676474553
 21
-3.298008232235954
 31
0.0
  0
LINE
  5
9B
330
70
100
AcDbEntity
  8
Layer 1
 62
    18
420
        0
370
     5
100
AcDbLine
 10
11.88330789707241
 20
-3.298008232235954
 30
0.0
 11
14.93560468320624
 21
-3.298008232235954
 31
0.0
  0
LINE
  5
9C
330
70
100
AcDbEntity
  8
Layer 1
 62
    18
420
        0
370
     5
100
AcDbLine
 10
14.93560468320624
 20
-3.788162628839535
 30
0.0
 11
14.93560468320624
 21
-3.298008232235954
 31
0.0
  0
LINE
  5
9D
330
70
100
AcDbEntity
  8
Layer 1
 62
    18
420
        0
370
     5
100
AcDbLine
 10
16.89532420403788
 20
-16.76253035578732
 30
0.0
 11
16.89532420403788
 21
-17.01271332905381
 31
0.0
  0
LINE
  5
9E
330
70
100
AcDbEntity
  8
Layer 1
 62
    18
420
        0
370
     5
100
AcDbLine
 10
16.95148772864867
 20
-16.70636683117653
 30
0.0
 11
16.95148772864867
 21
-16.73189570599965
 31
0.0
  0
LINE
  5
9F
330
70
100
AcDbEntity
  8
Layer 1
 62
    18
420
        0
370
     5
100
AcDbLine
 10
17.55907494943858
 20
-16.40002033329928
 30
0.0
 11
17.55907494943858
 21
-16.41533765819311
 31
0.0
  0
LINE
  5
A0
330
70
100
AcDbEntity
  8
Layer 1
 62
    18
420
        0
370
     5
100
AcDbLine
 10
17.67140199866021
 20
-16.38470300840544
 30
0.0
 11
17.67140199866021
 21
-15.68080759676789
 31
0.0
  0
LINE
  5
A1
330
70
100
AcDbEntity
  8
Layer 1
 62
    18
420
        0
370
     5
100
AcDbLine
 10
18.16155639526384
 20
-16.38470300840544
 30
0.0
 11
18.16155639526384
 21
-15.68080759676789
 31
0.0
  0
LINE
  5
A2
330
70
100
AcDbEntity
  8
Layer 1
 62
    18
420
        0
370
     5
100
AcDbLine
 10
18.27388344448546
 20
-16.40002033329928
 30
0.0
 11
18.27388344448546
 21
-16.41533765819311
 31
0.0
  0
LINE
  5
A3
330
70
100
AcDbEntity
  8
Layer 1
 62
    18
420
        0
370
     5
100
AcDbLine
 10
18.88147066527537
 20
-16.70636683117653
 30
0.0
 11
18.88147066527537
 21
-16.73189570599965
 31
0.0
  0
LINE
  5
A4
330
70
100
AcDbEntity
  8
Layer 1
 62
    18
420
        0
370
     5
100
AcDbLine
 10
18.93763418988616
 20
-16.76253035578732
 30
0.0
 11
18.93763418988616
 21
-17.01271332905381
 31
0.0
  0
LINE
  5
A5
330
70
100
AcDbEntity
  8
Layer 1
 62
    18
420
        0
370
     5
100
AcDbLine
 10
18.92231686499225
 20
-17.02803065394762
 30
0.0
 11
16.91064152893169
 21
-17.02803065394762
 31
0.0
  0
LINE
  5
A6
330
70
100
AcDbEntity
  8
Layer 1
 62
    18
420
        0
370
     5
100
AcDbLine
 10
16.91064152893169
 20
-16.74721303089346
 30
0.0
 11
18.92231686499225
 21
-16.74721303089346
 31
0.0
  0
LINE
  5
A7
330
70
100
AcDbEntity
  8
Layer 1
 62
    18
420
        0
370
     5
100
AcDbLine
 10
16.96680505354248
 20
-16.69104950628267
 30
0.0
 11
18.86615334038146
 21
-16.69104950628267
 31
0.0
  0
LINE
  5
A8
330
70
100
AcDbEntity
  8
Layer 1
 62
    18
420
        0
370
     5
100
AcDbLine
 10
17.57439227433234
 20
-16.38470300840544
 30
0.0
 11
18.2585661195915
 21
-16.38470300840544
 31
0.0
  0
SPLINE
  5
A9
330
70
100
AcDbEntity
  8
Layer 1
 62
    18
420
        0
370
     5
100
AcDbSpline
210
0.0
220
0.0
230
1.0
 70
     8
 71
     3
 72
     8
 73
     4
 74
     0
 42
0.0000000001
 43
0.0000000001
 40
0.0
 40
0.0
 40
0.0
 40
0.0
 40
1.0
 40
1.0
 40
1.0
 40
1.0
 10
3.959145151981033
 20
-16.14032734358375
 30
0.0
 10
3.959145151981033
 20
-15.75118919601792
 30
0.0
 10
3.643686354429215
 20
-15.4357303984661
 30
0.0
 10
3.254548206863369
 20
-15.4357303984661
 30
0.0
  0
SPLINE
  5
AA
330
70
100
AcDbEntity
  8
Layer 1
 62
    18
420
        0
370
     5
100
AcDbSpline
210
0.0
220
0.0
230
1.0
 70
     8
 71
     3
 72
     8
 73
     4
 74
     0
 42
0.0000000001
 43
0.0000000001
 40
0.0
 40
0.0
 40
0.0
 40
0.0
 40
1.0
 40
1.0
 40
1.0
 40
1.0
 10
3.468990755377439
 20
-16.14032734358375
 30
0.0
 10
3.468990755377439
 20
-16.02189399432462
 30
0.0
 10
3.372981556122529
 20
-15.92588479506965
 30
0.0
 10
3.254548206863369
 20
-15.92588479506965
 30
0.0
  0
SPLINE
  5
AB
330
70
100
AcDbEntity
  8
Layer 1
 62
    18
420
        0
370
     5
100
AcDbSpline
210
0.0
220
0.0
230
1.0
 70
     8
 71
     3
 72
     8
 73
     4
 74
     0
 42
0.0000000001
 43
0.0000000001
 40
0.0
 40
0.0
 40
0.0
 40
0.0
 40
1.0
 40
1.0
 40
1.0
 40
1.0
 10
2.692912960755089
 20
-17.01271332905381
 30
0.0
 10
2.692912960755089
 20
-17.0211728540009
 30
0.0
 10
2.699770760701868
 20
-17.02803065394762
 30
0.0
 10
2.70823028564895
 20
-17.02803065394762
 30
0.0
  0
SPLINE
  5
AC
330
70
100
AcDbEntity
  8
Layer 1
 62
    18
420
        0
370
     5
100
AcDbSpline
210
0.0
220
0.0
230
1.0
 70
     8
 71
     3
 72
     8
 73
     4
 74
     0
 42
0.0000000001
 43
0.0000000001
 40
0.0
 40
0.0
 40
0.0
 40
0.0
 40
1.0
 40
1.0
 40
1.0
 40
1.0
 10
4.719905621709509
 20
-17.02803065394762
 30
0.0
 10
4.728365146656616
 20
-17.02803065394762
 30
0.0
 10
4.735222946603395
 20
-17.0211728540009
 30
0.0
 10
4.735222946603395
 20
-17.01271332905381
 30
0.0
  0
SPLINE
  5
AD
330
70
100
AcDbEntity
  8
Layer 1
 62
    18
420
        0
370
     5
100
AcDbSpline
210
0.0
220
0.0
230
1.0
 70
     8
 71
     3
 72
     8
 73
     4
 74
     0
 42
0.0000000001
 43
0.0000000001
 40
0.0
 40
0.0
 40
0.0
 40
0.0
 40
1.0
 40
1.0
 40
1.0
 40
1.0
 10
4.071472201202671
 20
-16.40002033329928
 30
0.0
 10
4.071472201202671
 20
-16.39156080835219
 30
0.0
 10
4.064614401255893
 20
-16.38470300840544
 30
0.0
 10
4.056154876308823
 20
-16.38470300840544
 30
0.0
  0
SPLINE
  5
AE
330
70
100
AcDbEntity
  8
Layer 1
 62
    18
420
        0
370
     5
100
AcDbSpline
210
0.0
220
0.0
230
1.0
 70
     8
 71
     3
 72
     8
 73
     4
 74
     0
 42
0.0000000001
 43
0.0000000001
 40
0.0
 40
0.0
 40
0.0
 40
0.0
 40
1.0
 40
1.0
 40
1.0
 40
1.0
 10
2.764393810259788
 20
-16.69104950628267
 30
0.0
 10
2.755934285312706
 20
-16.69104950628267
 30
0.0
 10
2.749076485365915
 20
-16.69790730622943
 30
0.0
 10
2.749076485365915
 20
-16.70636683117653
 30
0.0
  0
SPLINE
  5
AF
330
70
100
AcDbEntity
  8
Layer 1
 62
    18
420
        0
370
     5
100
AcDbSpline
210
0.0
220
0.0
230
1.0
 70
     8
 71
     3
 72
     8
 73
     4
 74
     0
 42
0.0000000001
 43
0.0000000001
 40
0.0
 40
0.0
 40
0.0
 40
0.0
 40
1.0
 40
1.0
 40
1.0
 40
1.0
 10
2.733759160472067
 20
-16.74721303089346
 30
0.0
 10
2.742218685419162
 20
-16.74721303089346
 30
0.0
 10
2.749076485365915
 20
-16.74035523094671
 30
0.0
 10
2.749076485365915
 20
-16.73189570599965
 30
0.0
  0
SPLINE
  5
B0
330
70
100
AcDbEntity
  8
Layer 1
 62
    18
420
        0
370
     5
100
AcDbSpline
210
0.0
220
0.0
230
1.0
 70
     8
 71
     3
 72
     8
 73
     4
 74
     0
 42
0.0000000001
 43
0.0000000001
 40
0.0
 40
0.0
 40
0.0
 40
0.0
 40
1.0
 40
1.0
 40
1.0
 40
1.0
 10
3.371981031049648
 20
-16.38470300840544
 30
0.0
 10
3.363521506102541
 20
-16.38470300840544
 30
0.0
 10
3.356663706155801
 20
-16.39156080835219
 30
0.0
 10
3.356663706155801
 20
-16.40002033329928
 30
0.0
  0
SPLINE
  5
B1
330
70
100
AcDbEntity
  8
Layer 1
 62
    18
420
        0
370
     5
100
AcDbSpline
210
0.0
220
0.0
230
1.0
 70
     8
 71
     3
 72
     8
 73
     4
 74
     0
 42
0.0000000001
 43
0.0000000001
 40
0.0
 40
0.0
 40
0.0
 40
0.0
 40
1.0
 40
1.0
 40
1.0
 40
1.0
 10
2.70823028564895
 20
-16.74721303089346
 30
0.0
 10
2.699770760701868
 20
-16.74721303089346
 30
0.0
 10
2.692912960755089
 20
-16.75407083084029
 30
0.0
 10
2.692912960755089
 20
-16.76253035578732
 30
0.0
  0
SPLINE
  5
B2
330
70
100
AcDbEntity
  8
Layer 1
 62
    18
420
        0
370
     5
100
AcDbSpline
210
0.0
220
0.0
230
1.0
 70
     8
 71
     3
 72
     8
 73
     4
 74
     0
 42
0.0000000001
 43
0.0000000001
 40
0.0
 40
0.0
 40
0.0
 40
0.0
 40
1.0
 40
1.0
 40
1.0
 40
1.0
 10
4.735222946603395
 20
-16.76253035578732
 30
0.0
 10
4.735222946603395
 20
-16.75407083084029
 30
0.0
 10
4.728365146656616
 20
-16.74721303089346
 30
0.0
 10
4.719905621709509
 20
-16.74721303089346
 30
0.0
  0
SPLINE
  5
B3
330
70
100
AcDbEntity
  8
Layer 1
 62
    18
420
        0
370
     5
100
AcDbSpline
210
0.0
220
0.0
230
1.0
 70
     8
 71
     3
 72
     8
 73
     4
 74
     0
 42
0.0000000001
 43
0.0000000001
 40
0.0
 40
0.0
 40
0.0
 40
0.0
 40
1.0
 40
1.0
 40
1.0
 40
1.0
 10
4.679059421992544
 20
-16.70636683117653
 30
0.0
 10
4.679059421992544
 20
-16.69790730622943
 30
0.0
 10
4.672201622045766
 20
-16.69104950628267
 30
0.0
 10
4.663742097098671
 20
-16.69104950628267
 30
0.0
  0
SPLINE
  5
B4
330
70
100
AcDbEntity
  8
Layer 1
 62
    18
420
        0
370
     5
100
AcDbSpline
210
0.0
220
0.0
230
1.0
 70
     8
 71
     3
 72
     8
 73
     4
 74
     0
 42
0.0000000001
 43
0.0000000001
 40
0.0
 40
0.0
 40
0.0
 40
0.0
 40
1.0
 40
1.0
 40
1.0
 40
1.0
 10
4.679059421992544
 20
-16.73189570599965
 30
0.0
 10
4.679059421992544
 20
-16.74035523094671
 30
0.0
 10
4.685917221939322
 20
-16.74721303089346
 30
0.0
 10
4.694376746886405
 20
-16.74721303089346
 30
0.0
  0
SPLINE
  5
B5
330
70
100
AcDbEntity
  8
Layer 1
 62
    18
420
        0
370
     5
100
AcDbSpline
210
0.0
220
0.0
230
1.0
 70
     8
 71
     3
 72
     8
 73
     4
 74
     0
 42
0.0000000001
 43
0.0000000001
 40
0.0
 40
0.0
 40
0.0
 40
0.0
 40
1.0
 40
1.0
 40
1.0
 40
1.0
 10
0.6617711676474553
 20
-15.4357303984661
 30
0.0
 10
0.6550555802583631
 20
-15.4357303984661
 30
0.0
 10
0.6491231377076221
 20
-15.44010483093949
 30
0.0
 10
0.6471382072458153
 20
-15.44652037183972
 30
0.0
  0
SPLINE
  5
B6
330
70
100
AcDbEntity
  8
Layer 1
 62
    18
420
        0
370
     5
100
AcDbSpline
210
0.0
220
0.0
230
1.0
 70
     8
 71
     3
 72
     8
 73
     4
 74
     0
 42
0.0000000001
 43
0.0000000001
 40
0.0
 40
0.0
 40
0.0
 40
0.0
 40
1.0
 40
1.0
 40
1.0
 40
1.0
 10
0.6471382072458153
 20
-15.91509482169608
 30
0.0
 10
0.6491231377076221
 20
-15.92151036259634
 30
0.0
 10
0.6550555802583631
 20
-15.92588479506965
 30
0.0
 10
0.6617711676474553
 20
-15.92588479506965
 30
0.0
  0
SPLINE
  5
B7
330
70
100
AcDbEntity
  8
Layer 1
 62
    18
420
        0
370
     5
100
AcDbSpline
210
0.0
220
0.0
230
1.0
 70
     8
 71
     3
 72
     8
 73
     4
 74
     0
 42
0.0000000001
 43
0.0000000001
 40
0.0
 40
0.0
 40
0.0
 40
0.0
 40
1.0
 40
1.0
 40
1.0
 40
1.0
 10
12.34282764388819
 20
-15.4357303984661
 30
0.0
 10
11.95368949632241
 20
-15.4357303984661
 30
0.0
 10
11.6382306987706
 20
-15.75118919601792
 30
0.0
 10
11.6382306987706
 20
-16.14032734358375
 30
0.0
  0
SPLINE
  5
B8
330
70
100
AcDbEntity
  8
Layer 1
 62
    18
420
        0
370
     5
100
AcDbSpline
210
0.0
220
0.0
230
1.0
 70
     8
 71
     3
 72
     8
 73
     4
 74
     0
 42
0.0000000001
 43
0.0000000001
 40
0.0
 40
0.0
 40
0.0
 40
0.0
 40
1.0
 40
1.0
 40
1.0
 40
1.0
 10
12.34282764388819
 20
-15.92588479506965
 30
0.0
 10
12.22439429462909
 20
-15.92588479506965
 30
0.0
 10
12.12838509537414
 20
-16.02189399432462
 30
0.0
 10
12.12838509537414
 20
-16.14032734358375
 30
0.0
  0
SPLINE
  5
B9
330
70
100
AcDbEntity
  8
Layer 1
 62
    18
420
        0
370
     5
100
AcDbSpline
210
0.0
220
0.0
230
1.0
 70
     8
 71
     3
 72
     8
 73
     4
 74
     0
 42
0.0000000001
 43
0.0000000001
 40
0.0
 40
0.0
 40
0.0
 40
0.0
 40
1.0
 40
1.0
 40
1.0
 40
1.0
 10
12.88914556510265
 20
-17.02803065394762
 30
0.0
 10
12.89760509004973
 20
-17.02803065394762
 30
0.0
 10
12.90446288999656
 20
-17.0211728540009
 30
0.0
 10
12.90446288999656
 20
-17.01271332905381
 30
0.0
  0
SPLINE
  5
BA
330
70
100
AcDbEntity
  8
Layer 1
 62
    18
420
        0
370
     5
100
AcDbSpline
210
0.0
220
0.0
230
1.0
 70
     8
 71
     3
 72
     8
 73
     4
 74
     0
 42
0.0000000001
 43
0.0000000001
 40
0.0
 40
0.0
 40
0.0
 40
0.0
 40
1.0
 40
1.0
 40
1.0
 40
1.0
 10
10.86215290414823
 20
-17.01271332905381
 30
0.0
 10
10.86215290414823
 20
-17.0211728540009
 30
0.0
 10
10.86901070409503
 20
-17.02803065394762
 30
0.0
 10
10.87747022904212
 20
-17.02803065394762
 30
0.0
  0
SPLINE
  5
BB
330
70
100
AcDbEntity
  8
Layer 1
 62
    18
420
        0
370
     5
100
AcDbSpline
210
0.0
220
0.0
230
1.0
 70
     8
 71
     3
 72
     8
 73
     4
 74
     0
 42
0.0000000001
 43
0.0000000001
 40
0.0
 40
0.0
 40
0.0
 40
0.0
 40
1.0
 40
1.0
 40
1.0
 40
1.0
 10
12.84829936538573
 20
-16.70636683117653
 30
0.0
 10
12.84829936538573
 20
-16.69790730622943
 30
0.0
 10
12.84144156543895
 20
-16.69104950628267
 30
0.0
 10
12.83298204049187
 20
-16.69104950628267
 30
0.0
  0
SPLINE
  5
BC
330
70
100
AcDbEntity
  8
Layer 1
 62
    18
420
        0
370
     5
100
AcDbSpline
210
0.0
220
0.0
230
1.0
 70
     8
 71
     3
 72
     8
 73
     4
 74
     0
 42
0.0000000001
 43
0.0000000001
 40
0.0
 40
0.0
 40
0.0
 40
0.0
 40
1.0
 40
1.0
 40
1.0
 40
1.0
 10
11.54122097444281
 20
-16.38470300840544
 30
0.0
 10
11.53276144949568
 20
-16.38470300840544
 30
0.0
 10
11.52590364954893
 20
-16.39156080835219
 30
0.0
 10
11.52590364954893
 20
-16.40002033329928
 30
0.0
  0
SPLINE
  5
BD
330
70
100
AcDbEntity
  8
Layer 1
 62
    18
420
        0
370
     5
100
AcDbSpline
210
0.0
220
0.0
230
1.0
 70
     8
 71
     3
 72
     8
 73
     4
 74
     0
 42
0.0000000001
 43
0.0000000001
 40
0.0
 40
0.0
 40
0.0
 40
0.0
 40
1.0
 40
1.0
 40
1.0
 40
1.0
 10
12.84829936538573
 20
-16.73189570599965
 30
0.0
 10
12.84829936538573
 20
-16.74035523094671
 30
0.0
 10
12.8551571653325
 20
-16.74721303089346
 30
0.0
 10
12.86361669027959
 20
-16.74721303089346
 30
0.0
  0
SPLINE
  5
BE
330
70
100
AcDbEntity
  8
Layer 1
 62
    18
420
        0
370
     5
100
AcDbSpline
210
0.0
220
0.0
230
1.0
 70
     8
 71
     3
 72
     8
 73
     4
 74
     0
 42
0.0000000001
 43
0.0000000001
 40
0.0
 40
0.0
 40
0.0
 40
0.0
 40
1.0
 40
1.0
 40
1.0
 40
1.0
 10
12.90446288999656
 20
-16.76253035578732
 30
0.0
 10
12.90446288999656
 20
-16.75407083084029
 30
0.0
 10
12.89760509004973
 20
-16.74721303089346
 30
0.0
 10
12.88914556510265
 20
-16.74721303089346
 30
0.0
  0
SPLINE
  5
BF
330
70
100
AcDbEntity
  8
Layer 1
 62
    18
420
        0
370
     5
100
AcDbSpline
210
0.0
220
0.0
230
1.0
 70
     8
 71
     3
 72
     8
 73
     4
 74
     0
 42
0.0000000001
 43
0.0000000001
 40
0.0
 40
0.0
 40
0.0
 40
0.0
 40
1.0
 40
1.0
 40
1.0
 40
1.0
 10
12.24071214459582
 20
-16.40002033329928
 30
0.0
 10
12.24071214459582
 20
-16.39156080835219
 30
0.0
 10
12.23385434464909
 20
-16.38470300840544
 30
0.0
 10
12.22539481970201
 20
-16.38470300840544
 30
0.0
  0
SPLINE
  5
C0
330
70
100
AcDbEntity
  8
Layer 1
 62
    18
420
        0
370
     5
100
AcDbSpline
210
0.0
220
0.0
230
1.0
 70
     8
 71
     3
 72
     8
 73
     4
 74
     0
 42
0.0000000001
 43
0.0000000001
 40
0.0
 40
0.0
 40
0.0
 40
0.0
 40
1.0
 40
1.0
 40
1.0
 40
1.0
 10
10.93363375365293
 20
-16.69104950628267
 30
0.0
 10
10.92517422870585
 20
-16.69104950628267
 30
0.0
 10
10.91831642875908
 20
-16.69790730622943
 30
0.0
 10
10.91831642875908
 20
-16.70636683117653
 30
0.0
  0
SPLINE
  5
C1
330
70
100
AcDbEntity
  8
Layer 1
 62
    18
420
        0
370
     5
100
AcDbSpline
210
0.0
220
0.0
230
1.0
 70
     8
 71
     3
 72
     8
 73
     4
 74
     0
 42
0.0000000001
 43
0.0000000001
 40
0.0
 40
0.0
 40
0.0
 40
0.0
 40
1.0
 40
1.0
 40
1.0
 40
1.0
 10
10.87747022904212
 20
-16.74721303089346
 30
0.0
 10
10.86901070409503
 20
-16.74721303089346
 30
0.0
 10
10.86215290414823
 20
-16.75407083084029
 30
0.0
 10
10.86215290414823
 20
-16.76253035578732
 30
0.0
  0
SPLINE
  5
C2
330
70
100
AcDbEntity
  8
Layer 1
 62
    18
420
        0
370
     5
100
AcDbSpline
210
0.0
220
0.0
230
1.0
 70
     8
 71
     3
 72
     8
 73
     4
 74
     0
 42
0.0000000001
 43
0.0000000001
 40
0.0
 40
0.0
 40
0.0
 40
0.0
 40
1.0
 40
1.0
 40
1.0
 40
1.0
 10
10.9029991038652
 20
-16.74721303089346
 30
0.0
 10
10.91145862881228
 20
-16.74721303089346
 30
0.0
 10
10.91831642875908
 20
-16.74035523094671
 30
0.0
 10
10.91831642875908
 20
-16.73189570599965
 30
0.0
  0
SPLINE
  5
C3
330
70
100
AcDbEntity
  8
Layer 1
 62
    18
420
        0
370
     5
100
AcDbSpline
210
0.0
220
0.0
230
1.0
 70
     8
 71
     3
 72
     8
 73
     4
 74
     0
 42
0.0000000001
 43
0.0000000001
 40
0.0
 40
0.0
 40
0.0
 40
0.0
 40
1.0
 40
1.0
 40
1.0
 40
1.0
 10
14.95023764360793
 20
-15.44652037183972
 30
0.0
 10
14.94825271314615
 20
-15.44010483093949
 30
0.0
 10
14.94232027059534
 20
-15.4357303984661
 30
0.0
 10
14.93560468320624
 20
-15.4357303984661
 30
0.0
  0
SPLINE
  5
C4
330
70
100
AcDbEntity
  8
Layer 1
 62
    18
420
        0
370
     5
100
AcDbSpline
210
0.0
220
0.0
230
1.0
 70
     8
 71
     3
 72
     8
 73
     4
 74
     0
 42
0.0000000001
 43
0.0000000001
 40
0.0
 40
0.0
 40
0.0
 40
0.0
 40
1.0
 40
1.0
 40
1.0
 40
1.0
 10
14.93560468320624
 20
-15.92588479506965
 30
0.0
 10
14.94232027059534
 20
-15.92588479506965
 30
0.0
 10
14.94825271314615
 20
-15.92151036259634
 30
0.0
 10
14.95023764360793
 20
-15.91509482169608
 30
0.0
  0
SPLINE
  5
C5
330
70
100
AcDbEntity
  8
Layer 1
 62
    18
420
        0
370
     5
100
AcDbSpline
210
0.0
220
0.0
230
1.0
 70
     8
 71
     3
 72
     8
 73
     4
 74
     0
 42
0.0000000001
 43
0.0000000001
 40
0.0
 40
0.0
 40
0.0
 40
0.0
 40
1.0
 40
1.0
 40
1.0
 40
1.0
 10
0.6471382072458533
 20
-3.777372655465986
 30
0.0
 10
0.6491231377077231
 20
-3.783788196366205
 30
0.0
 10
0.655055580258401
 20
-3.788162628839535
 30
0.0
 10
0.6617711676474553
 20
-3.788162628839535
 30
0.0
  0
SPLINE
  5
C6
330
70
100
AcDbEntity
  8
Layer 1
 62
    18
420
        0
370
     5
100
AcDbSpline
210
0.0
220
0.0
230
1.0
 70
     8
 71
     3
 72
    17
 73
    13
 74
     0
 42
0.0000000001
 43
0.0000000001
 40
0.0
 40
0.0
 40
0.0
 40
0.0
 40
1.0
 40
1.0
 40
1.0
 40
2.0
 40
2.0
 40
2.0
 40
3.0
 40
3.0
 40
3.0
 40
4.0
 40
4.0
 40
4.0
 40
4.0
 10
2.722878232759146
 20
-3.788646943638379
 30
0.0
 10
2.858498111590001
 20
-4.336065910691571
 30
0.0
 10
3.412210499726686
 20
-4.669895030288683
 30
0.0
 10
3.959629466779865
 20
-4.534275151457828
 30
0.0
 10
4.507048433833069
 20
-4.398655272626974
 30
0.0
 10
4.840877553430181
 20
-3.844942884490276
 30
0.0
 10
4.705257674599338
 20
-3.29752391743711
 30
0.0
 10
4.569637795768484
 20
-2.750104950383906
 30
0.0
 10
4.015925407631799
 20
-2.416275830786806
 30
0.0
 10
3.468506440578569
 20
-2.551895709617648
 30
0.0
 10
3.100936422221391
 20
-2.64295905296472
 30
0.0
 10
2.813941576106205
 20
-2.929953899079893
 30
0.0
 10
2.722878232759146
 20
-3.29752391743711
 30
0.0
  0
SPLINE
  5
C7
330
70
100
AcDbEntity
  8
Layer 1
 62
    18
420
        0
370
     5
100
AcDbSpline
210
0.0
220
0.0
230
1.0
 70
     8
 71
     3
 72
    17
 73
    13
 74
     0
 42
0.0000000001
 43
0.0000000001
 40
0.0
 40
0.0
 40
0.0
 40
0.0
 40
1.0
 40
1.0
 40
1.0
 40
2.0
 40
2.0
 40
2.0
 40
3.0
 40
3.0
 40
3.0
 40
4.0
 40
4.0
 40
4.0
 40
4.0
 10
2.796655659910243
 20
-3.7885149762754
 30
0.0
 10
2.932202655179051
 20
-4.295187795431299
 30
0.0
 10
3.452824680260997
 20
-4.596044719575552
 30
0.0
 10
3.959497499416897
 20
-4.460497724306719
 30
0.0
 10
4.466170318572772
 20
-4.324950729037924
 30
0.0
 10
4.767027242717024
 20
-3.804328703956002
 30
0.0
 10
4.631480247448229
 20
-3.297655884800089
 30
0.0
 10
4.495933252179421
 20
-2.790983065644177
 30
0.0
 10
3.975311227097487
 20
-2.490126141499937
 30
0.0
 10
3.468638407941575
 20
-2.625673136768745
 30
0.0
 10
3.140618297100218
 20
-2.713426295673873
 30
0.0
 10
2.884408818815346
 20
-2.96963577395872
 30
0.0
 10
2.796655659910243
 20
-3.297655884800089
 30
0.0
  0
SPLINE
  5
C8
330
70
100
AcDbEntity
  8
Layer 1
 62
    18
420
        0
370
     5
100
AcDbSpline
210
0.0
220
0.0
230
1.0
 70
     8
 71
     3
 72
    17
 73
    13
 74
     0
 42
0.0000000001
 43
0.0000000001
 40
0.0
 40
0.0
 40
0.0
 40
0.0
 40
1.0
 40
1.0
 40
1.0
 40
2.0
 40
2.0
 40
2.0
 40
3.0
 40
3.0
 40
3.0
 40
4.0
 40
4.0
 40
4.0
 40
4.0
 10
3.454855624227699
 20
-3.789147951877591
 30
0.0
 10
3.590752202268618
 20
-3.932306968401753
 30
0.0
 10
3.81697145849489
 20
-3.938194338030168
 30
0.0
 10
3.960130475019076
 20
-3.802297759989275
 30
0.0
 10
4.103289491543263
 20
-3.666401181948357
 30
0.0
 10
4.109176861171678
 20
-3.440181925722097
 30
0.0
 10
3.973280283130748
 20
-3.29702290919791
 30
0.0
 10
3.837383705089854
 20
-3.153863892673712
 30
0.0
 10
3.611164448863594
 20
-3.147976523045296
 30
0.0
 10
3.468005432339408
 20
-3.283873101086214
 30
0.0
 10
3.463508849381393
 20
-3.288141572969468
 30
0.0
 10
3.45912409611099
 20
-3.292526326239908
 30
0.0
 10
3.454855624227699
 20
-3.29702290919791
 30
0.0
  0
SPLINE
  5
C9
330
70
100
AcDbEntity
  8
Layer 1
 62
    18
420
        0
370
     5
100
AcDbSpline
210
0.0
220
0.0
230
1.0
 70
     8
 71
     3
 72
    14
 73
    10
 74
     0
 42
0.0000000001
 43
0.0000000001
 40
0.0
 40
0.0
 40
0.0
 40
0.0
 40
1.0
 40
1.0
 40
1.0
 40
2.0
 40
2.0
 40
2.0
 40
3.0
 40
3.0
 40
3.0
 40
3.0
 10
3.616895748295986
 20
-3.788517633321538
 30
0.0
 10
3.752444211010848
 20
-3.842184360462131
 30
0.0
 10
3.905833429322417
 20
-3.775806098635863
 30
0.0
 10
3.959500156463036
 20
-3.640257635920988
 30
0.0
 10
4.013166883603604
 20
-3.504709173206113
 30
0.0
 10
3.946788621777361
 20
-3.351319954894556
 30
0.0
 10
3.811240159062498
 20
-3.297653227753964
 30
0.0
 10
3.748815993373177
 20
-3.272938077172915
 30
0.0
 10
3.679319913462891
 20
-3.272938077240104
 30
0.0
 10
3.616895747821369
 20
-3.297653227941888
 30
0.0
  0
SPLINE
  5
CA
330
70
100
AcDbEntity
  8
Layer 1
 62
    18
420
        0
370
     5
100
AcDbSpline
210
0.0
220
0.0
230
1.0
 70
     8
 71
     3
 72
    14
 73
    10
 74
     0
 42
0.0000000001
 43
0.0000000001
 40
0.0
 40
0.0
 40
0.0
 40
0.0
 40
1.0
 40
1.0
 40
1.0
 40
2.0
 40
2.0
 40
2.0
 40
3.0
 40
3.0
 40
3.0
 40
3.0
 10
3.694001860131783
 20
-3.78836435622059
 30
0.0
 10
3.829465670241284
 20
-3.799446553675516
 30
0.0
 10
3.948264681907125
 20
-3.698615334194717
 30
0.0
 10
3.959346879362037
 20
-3.563151524085216
 30
0.0
 10
3.970429076816988
 20
-3.427687713975703
 30
0.0
 10
3.869597857336189
 20
-3.308888702309862
 30
0.0
 10
3.734134047226676
 20
-3.297806504854924
 30
0.0
 10
3.720778872368315
 20
-3.296713927548075
 30
0.0
 10
3.70735677178407
 20
-3.296713934717685
 30
0.0
 10
3.694001598092945
 20
-3.297806526292283
 30
0.0
  0
SPLINE
  5
CB
330
70
100
AcDbEntity
  8
Layer 1
 62
    18
420
        0
370
     5
100
AcDbSpline
210
0.0
220
0.0
230
1.0
 70
     8
 71
     3
 72
    11
 73
     7
 74
     0
 42
0.0000000001
 43
0.0000000001
 40
0.0
 40
0.0
 40
0.0
 40
0.0
 40
1.0
 40
1.0
 40
1.0
 40
2.0
 40
2.0
 40
2.0
 40
2.0
 10
3.714067953679229
 20
-3.788162628839535
 30
0.0
 10
3.849420352832579
 20
-3.788162628839535
 30
0.0
 10
3.959145151981033
 20
-3.678437829691081
 30
0.0
 10
3.959145151981033
 20
-3.543085430537757
 30
0.0
 10
3.959145151981033
 20
-3.407733031384395
 30
0.0
 10
3.849420352832579
 20
-3.298008232235954
 30
0.0
 10
3.714067953679229
 20
-3.298008232235954
 30
0.0
  0
SPLINE
  5
CC
330
70
100
AcDbEntity
  8
Layer 1
 62
    18
420
        0
370
     5
100
AcDbSpline
210
0.0
220
0.0
230
1.0
 70
     8
 71
     3
 72
     8
 73
     4
 74
     0
 42
0.0000000001
 43
0.0000000001
 40
0.0
 40
0.0
 40
0.0
 40
0.0
 40
1.0
 40
1.0
 40
1.0
 40
1.0
 10
0.6617711676474553
 20
-3.298008232235954
 30
0.0
 10
0.655055580258401
 20
-3.298008232235954
 30
0.0
 10
0.6491231377077231
 20
-3.302382664709309
 30
0.0
 10
0.6471382072458533
 20
-3.308798205609466
 30
0.0
  0
SPLINE
  5
CD
330
70
100
AcDbEntity
  8
Layer 1
 62
    18
420
        0
370
     5
100
AcDbSpline
210
0.0
220
0.0
230
1.0
 70
     8
 71
     3
 72
     8
 73
     4
 74
     0
 42
0.0000000001
 43
0.0000000001
 40
0.0
 40
0.0
 40
0.0
 40
0.0
 40
1.0
 40
1.0
 40
1.0
 40
1.0
 10
14.93560468320624
 20
-3.788162628839535
 30
0.0
 10
14.94232027059534
 20
-3.788162628839535
 30
0.0
 10
14.94825271314605
 20
-3.783788196366205
 30
0.0
 10
14.95023764360793
 20
-3.777372655465986
 30
0.0
  0
SPLINE
  5
CE
330
70
100
AcDbEntity
  8
Layer 1
 62
    18
420
        0
370
     5
100
AcDbSpline
210
0.0
220
0.0
230
1.0
 70
     8
 71
     3
 72
    17
 73
    13
 74
     0
 42
0.0000000001
 43
0.0000000001
 40
0.0
 40
0.0
 40
0.0
 40
0.0
 40
1.0
 40
1.0
 40
1.0
 40
2.0
 40
2.0
 40
2.0
 40
3.0
 40
3.0
 40
3.0
 40
4.0
 40
4.0
 40
4.0
 40
4.0
 10
12.8744976179925
 20
-3.29752391743711
 30
0.0
 10
12.73887773916163
 20
-2.750104950383906
 30
0.0
 10
12.18516535102496
 20
-2.416275830786806
 30
0.0
 10
11.63774638397175
 20
-2.551895709617648
 30
0.0
 10
11.09032741691856
 20
-2.687515588448503
 30
0.0
 10
10.75649829732147
 20
-3.241227976585188
 30
0.0
 10
10.89211817615233
 20
-3.788646943638379
 30
0.0
 10
11.02773805498316
 20
-4.336065910691571
 30
0.0
 10
11.58145044311982
 20
-4.669895030288683
 30
0.0
 10
12.12886941017303
 20
-4.534275151457828
 30
0.0
 10
12.49643942853016
 20
-4.443211808110756
 30
0.0
 10
12.78343427464546
 20
-4.156216961995584
 30
0.0
 10
12.8744976179925
 20
-3.788646943638379
 30
0.0
  0
SPLINE
  5
CF
330
70
100
AcDbEntity
  8
Layer 1
 62
    18
420
        0
370
     5
100
AcDbSpline
210
0.0
220
0.0
230
1.0
 70
     8
 71
     3
 72
    17
 73
    13
 74
     0
 42
0.0000000001
 43
0.0000000001
 40
0.0
 40
0.0
 40
0.0
 40
0.0
 40
1.0
 40
1.0
 40
1.0
 40
2.0
 40
2.0
 40
2.0
 40
3.0
 40
3.0
 40
3.0
 40
4.0
 40
4.0
 40
4.0
 40
4.0
 10
12.80072019084137
 20
-3.297655884800089
 30
0.0
 10
12.66517319557263
 20
-2.790983065644177
 30
0.0
 10
12.14455117049061
 20
-2.490126141499937
 30
0.0
 10
11.63787835133477
 20
-2.625673136768745
 30
0.0
 10
11.13120553217883
 20
-2.761220132037553
 30
0.0
 10
10.83034860803462
 20
-3.2818421571195
 30
0.0
 10
10.96589560330342
 20
-3.7885149762754
 30
0.0
 10
11.10144259857222
 20
-4.295187795431299
 30
0.0
 10
11.62206462365413
 20
-4.596044719575552
 30
0.0
 10
12.12873744281003
 20
-4.460497724306719
 30
0.0
 10
12.45675755365144
 20
-4.372744565401616
 30
0.0
 10
12.71296703193623
 20
-4.116535087116795
 30
0.0
 10
12.80072019084137
 20
-3.7885149762754
 30
0.0
  0
SPLINE
  5
D0
330
70
100
AcDbEntity
  8
Layer 1
 62
    18
420
        0
370
     5
100
AcDbSpline
210
0.0
220
0.0
230
1.0
 70
     8
 71
     3
 72
    17
 73
    13
 74
     0
 42
0.0000000001
 43
0.0000000001
 40
0.0
 40
0.0
 40
0.0
 40
0.0
 40
1.0
 40
1.0
 40
1.0
 40
2.0
 40
2.0
 40
2.0
 40
3.0
 40
3.0
 40
3.0
 40
4.0
 40
4.0
 40
4.0
 40
4.0
 10
12.14252022652393
 20
-3.29702290919791
 30
0.0
 10
12.00662364848303
 20
-3.153863892673712
 30
0.0
 10
11.78040439225675
 20
-3.147976523045296
 30
0.0
 10
11.63724537573254
 20
-3.283873101086214
 30
0.0
 10
11.49408635920838
 20
-3.41976967912712
 30
0.0
 10
11.48819898957998
 20
-3.64598893535338
 30
0.0
 10
11.62409556762086
 20
-3.789147951877591
 30
0.0
 10
11.75999214566175
 20
-3.932306968401753
 30
0.0
 10
11.98621140188806
 20
-3.938194338030168
 30
0.0
 10
12.12937041841223
 20
-3.802297759989275
 30
0.0
 10
12.13386700137026
 20
-3.798029288105996
 30
0.0
 10
12.13825175464068
 20
-3.793644534835594
 30
0.0
 10
12.14252022652393
 20
-3.789147951877591
 30
0.0
  0
SPLINE
  5
D1
330
70
100
AcDbEntity
  8
Layer 1
 62
    18
420
        0
370
     5
100
AcDbSpline
210
0.0
220
0.0
230
1.0
 70
     8
 71
     3
 72
    14
 73
    10
 74
     0
 42
0.0000000001
 43
0.0000000001
 40
0.0
 40
0.0
 40
0.0
 40
0.0
 40
1.0
 40
1.0
 40
1.0
 40
2.0
 40
2.0
 40
2.0
 40
3.0
 40
3.0
 40
3.0
 40
3.0
 10
11.98048010245566
 20
-3.297653227753964
 30
0.0
 10
11.84493163974079
 20
-3.24398650061337
 30
0.0
 10
11.69154242142924
 20
-3.310364762439601
 30
0.0
 10
11.63787569428858
 20
-3.445913225154501
 30
0.0
 10
11.58420896714801
 20
-3.581461687869351
 30
0.0
 10
11.65058722897428
 20
-3.734850906180933
 30
0.0
 10
11.78613569168912
 20
-3.788517633321538
 30
0.0
 10
11.84855985737846
 20
-3.813232783902599
 30
0.0
 10
11.91805593728872
 20
-3.813232783835398
 30
0.0
 10
11.9804801029303
 20
-3.788517633133626
 30
0.0
  0
SPLINE
  5
D2
330
70
100
AcDbEntity
  8
Layer 1
 62
    18
420
        0
370
     5
100
AcDbSpline
210
0.0
220
0.0
230
1.0
 70
     8
 71
     3
 72
    14
 73
    10
 74
     0
 42
0.0000000001
 43
0.0000000001
 40
0.0
 40
0.0
 40
0.0
 40
0.0
 40
1.0
 40
1.0
 40
1.0
 40
2.0
 40
2.0
 40
2.0
 40
3.0
 40
3.0
 40
3.0
 40
3.0
 10
11.90337399061986
 20
-3.297806504854924
 30
0.0
 10
11.76791018051036
 20
-3.286724307399999
 30
0.0
 10
11.64911116884452
 20
-3.387555526880785
 30
0.0
 10
11.63802897138955
 20
-3.523019336990298
 30
0.0
 10
11.62694677393464
 20
-3.658483147099774
 30
0.0
 10
11.72777799341544
 20
-3.777282158765615
 30
0.0
 10
11.86324180352491
 20
-3.78836435622059
 30
0.0
 10
11.87659697838332
 20
-3.789456933527427
 30
0.0
 10
11.89001907896757
 20
-3.789456926357805
 30
0.0
 10
11.90337425265866
 20
-3.788364334783219
 30
0.0
  0
SPLINE
  5
D3
330
70
100
AcDbEntity
  8
Layer 1
 62
    18
420
        0
370
     5
100
AcDbSpline
210
0.0
220
0.0
230
1.0
 70
     8
 71
     3
 72
    11
 73
     7
 74
     0
 42
0.0000000001
 43
0.0000000001
 40
0.0
 40
0.0
 40
0.0
 40
0.0
 40
1.0
 40
1.0
 40
1.0
 40
2.0
 40
2.0
 40
2.0
 40
2.0
 10
11.88330789707241
 20
-3.298008232235954
 30
0.0
 10
11.74795549791902
 20
-3.298008232235954
 30
0.0
 10
11.6382306987706
 20
-3.407733031384395
 30
0.0
 10
11.6382306987706
 20
-3.543085430537757
 30
0.0
 10
11.6382306987706
 20
-3.678437829691081
 30
0.0
 10
11.74795549791902
 20
-3.788162628839535
 30
0.0
 10
11.88330789707241
 20
-3.788162628839535
 30
0.0
  0
SPLINE
  5
D4
330
70
100
AcDbEntity
  8
Layer 1
 62
    18
420
        0
370
     5
100
AcDbSpline
210
0.0
220
0.0
230
1.0
 70
     8
 71
     3
 72
     8
 73
     4
 74
     0
 42
0.0000000001
 43
0.0000000001
 40
0.0
 40
0.0
 40
0.0
 40
0.0
 40
1.0
 40
1.0
 40
1.0
 40
1.0
 10
14.95023764360793
 20
-3.308798205609466
 30
0.0
 10
14.94825271314605
 20
-3.302382664709309
 30
0.0
 10
14.94232027059534
 20
-3.298008232235954
 30
0.0
 10
14.93560468320624
 20
-3.298008232235954
 30
0.0
  0
CIRCLE
  5
D5
330
70
100
AcDbEntity
  8
Layer 1
 62
    18
420
        0
370
     5
100
AcDbCircle
 10
17.91647919696202
 20
-15.68080759676789
 30
0.0
 40
0.2450771983018032
  0
CIRCLE
  5
D6
330
70
100
AcDbEntity
  8
Layer 1
 62
    18
420
        0
370
     5
100
AcDbCircle
 10
17.91647919696198
 20
-15.68080759676789
 30
0.0
 40
0.2342872249299053
  0
SPLINE
  5
D7
330
70
100
AcDbEntity
  8
Layer 1
 62
    18
420
        0
370
     5
100
AcDbSpline
210
0.0
220
0.0
230
1.0
 70
     8
 71
     3
 72
     8
 73
     4
 74
     0
 42
0.0000000001
 43
0.0000000001
 40
0.0
 40
0.0
 40
0.0
 40
0.0
 40
1.0
 40
1.0
 40
1.0
 40
1.0
 10
16.96680505354248
 20
-16.69104950628267
 30
0.0
 10
16.95834552859549
 20
-16.69104950628267
 30
0.0
 10
16.95148772864867
 20
-16.69790730622943
 30
0.0
 10
16.95148772864867
 20
-16.70636683117653
 30
0.0
  0
SPLINE
  5
D8
330
70
100
AcDbEntity
  8
Layer 1
 62
    18
420
        0
370
     5
100
AcDbSpline
210
0.0
220
0.0
230
1.0
 70
     8
 71
     3
 72
     8
 73
     4
 74
     0
 42
0.0000000001
 43
0.0000000001
 40
0.0
 40
0.0
 40
0.0
 40
0.0
 40
1.0
 40
1.0
 40
1.0
 40
1.0
 10
18.88147066527537
 20
-16.70636683117653
 30
0.0
 10
18.88147066527537
 20
-16.69790730622943
 30
0.0
 10
18.87461286532849
 20
-16.69104950628267
 30
0.0
 10
18.86615334038146
 20
-16.69104950628267
 30
0.0
  0
SPLINE
  5
D9
330
70
100
AcDbEntity
  8
Layer 1
 62
    18
420
        0
370
     5
100
AcDbSpline
210
0.0
220
0.0
230
1.0
 70
     8
 71
     3
 72
     8
 73
     4
 74
     0
 42
0.0000000001
 43
0.0000000001
 40
0.0
 40
0.0
 40
0.0
 40
0.0
 40
1.0
 40
1.0
 40
1.0
 40
1.0
 10
16.93617040375481
 20
-16.74721303089346
 30
0.0
 10
16.94462992870189
 20
-16.74721303089346
 30
0.0
 10
16.95148772864867
 20
-16.74035523094671
 30
0.0
 10
16.95148772864867
 20
-16.73189570599965
 30
0.0
  0
SPLINE
  5
DA
330
70
100
AcDbEntity
  8
Layer 1
 62
    18
420
        0
370
     5
100
AcDbSpline
210
0.0
220
0.0
230
1.0
 70
     8
 71
     3
 72
     8
 73
     4
 74
     0
 42
0.0000000001
 43
0.0000000001
 40
0.0
 40
0.0
 40
0.0
 40
0.0
 40
1.0
 40
1.0
 40
1.0
 40
1.0
 10
18.88147066527537
 20
-16.73189570599965
 30
0.0
 10
18.88147066527537
 20
-16.74035523094671
 30
0.0
 10
18.88832846522205
 20
-16.74721303089346
 30
0.0
 10
18.89678799016913
 20
-16.74721303089346
 30
0.0
  0
SPLINE
  5
DB
330
70
100
AcDbEntity
  8
Layer 1
 62
    18
420
        0
370
     5
100
AcDbSpline
210
0.0
220
0.0
230
1.0
 70
     8
 71
     3
 72
     8
 73
     4
 74
     0
 42
0.0000000001
 43
0.0000000001
 40
0.0
 40
0.0
 40
0.0
 40
0.0
 40
1.0
 40
1.0
 40
1.0
 40
1.0
 10
16.91064152893169
 20
-16.74721303089346
 30
0.0
 10
16.90218200398456
 20
-16.74721303089346
 30
0.0
 10
16.89532420403788
 20
-16.75407083084029
 30
0.0
 10
16.89532420403788
 20
-16.76253035578732
 30
0.0
  0
SPLINE
  5
DC
330
70
100
AcDbEntity
  8
Layer 1
 62
    18
420
        0
370
     5
100
AcDbSpline
210
0.0
220
0.0
230
1.0
 70
     8
 71
     3
 72
     8
 73
     4
 74
     0
 42
0.0000000001
 43
0.0000000001
 40
0.0
 40
0.0
 40
0.0
 40
0.0
 40
1.0
 40
1.0
 40
1.0
 40
1.0
 10
18.93763418988616
 20
-16.76253035578732
 30
0.0
 10
18.93763418988616
 20
-16.75407083084029
 30
0.0
 10
18.93077638993933
 20
-16.74721303089346
 30
0.0
 10
18.92231686499225
 20
-16.74721303089346
 30
0.0
  0
SPLINE
  5
DD
330
70
100
AcDbEntity
  8
Layer 1
 62
    18
420
        0
370
     5
100
AcDbSpline
210
0.0
220
0.0
230
1.0
 70
     8
 71
     3
 72
     8
 73
     4
 74
     0
 42
0.0000000001
 43
0.0000000001
 40
0.0
 40
0.0
 40
0.0
 40
0.0
 40
1.0
 40
1.0
 40
1.0
 40
1.0
 10
17.57439227433234
 20
-16.38470300840544
 30
0.0
 10
17.56593274938525
 20
-16.38470300840544
 30
0.0
 10
17.55907494943858
 20
-16.39156080835219
 30
0.0
 10
17.55907494943858
 20
-16.40002033329928
 30
0.0
  0
SPLINE
  5
DE
330
70
100
AcDbEntity
  8
Layer 1
 62
    18
420
        0
370
     5
100
AcDbSpline
210
0.0
220
0.0
230
1.0
 70
     8
 71
     3
 72
     8
 73
     4
 74
     0
 42
0.0000000001
 43
0.0000000001
 40
0.0
 40
0.0
 40
0.0
 40
0.0
 40
1.0
 40
1.0
 40
1.0
 40
1.0
 10
18.27388344448546
 20
-16.40002033329928
 30
0.0
 10
18.27388344448546
 20
-16.39156080835219
 30
0.0
 10
18.26702564453863
 20
-16.38470300840544
 30
0.0
 10
18.2585661195915
 20
-16.38470300840544
 30
0.0
  0
SPLINE
  5
DF
330
70
100
AcDbEntity
  8
Layer 1
 62
    18
420
        0
370
     5
100
AcDbSpline
210
0.0
220
0.0
230
1.0
 70
     8
 71
     3
 72
     8
 73
     4
 74
     0
 42
0.0000000001
 43
0.0000000001
 40
0.0
 40
0.0
 40
0.0
 40
0.0
 40
1.0
 40
1.0
 40
1.0
 40
1.0
 10
18.92231686499225
 20
-17.02803065394762
 30
0.0
 10
18.93077638993933
 20
-17.02803065394762
 30
0.0
 10
18.93763418988616
 20
-17.0211728540009
 30
0.0
 10
18.93763418988616
 20
-17.01271332905381
 30
0.0
  0
SPLINE
  5
E0
330
70
100
AcDbEntity
  8
Layer 1
 62
    18
420
        0
370
     5
100
AcDbSpline
210
0.0
220
0.0
230
1.0
 70
     8
 71
     3
 72
     8
 73
     4
 74
     0
 42
0.0000000001
 43
0.0000000001
 40
0.0
 40
0.0
 40
0.0
 40
0.0
 40
1.0
 40
1.0
 40
1.0
 40
1.0
 10
16.89532420403788
 20
-17.01271332905381
 30
0.0
 10
16.89532420403788
 20
-17.0211728540009
 30
0.0
 10
16.90218200398456
 20
-17.02803065394762
 30
0.0
 10
16.91064152893169
 20
-17.02803065394762
 30
0.0
  0
SPLINE
  5
E1
330
70
100
AcDbEntity
  8
Layer 1
 62
    18
420
        0
370
     5
100
AcDbSpline
210
0.0
220
0.0
230
1.0
 70
     8
 71
     3
 72
   116
 73
   112
 74
     0
 42
0.0000000001
 43
0.0000000001
 40
0.0
 40
0.0
 40
0.0
 40
0.0
 40
1.0
 40
1.0
 40
1.0
 40
2.0
 40
2.0
 40
2.0
 40
3.0
 40
3.0
 40
3.0
 40
4.0
 40
4.0
 40
4.0
 40
5.0
 40
5.0
 40
5.0
 40
6.0
 40
6.0
 40
6.0
 40
7.0
 40
7.0
 40
7.0
 40
8.0
 40
8.0
 40
8.0
 40
9.0
 40
9.0
 40
9.0
 40
10.0
 40
10.0
 40
10.0
 40
11.0
 40
11.0
 40
11.0
 40
12.0
 40
12.0
 40
12.0
 40
13.0
 40
13.0
 40
13.0
 40
14.0
 40
14.0
 40
14.0
 40
15.0
 40
15.0
 40
15.0
 40
16.0
 40
16.0
 40
16.0
 40
17.0
 40
17.0
 40
17.0
 40
18.0
 40
18.0
 40
18.0
 40
19.0
 40
19.0
 40
19.0
 40
20.0
 40
20.0
 40
20.0
 40
21.0
 40
21.0
 40
21.0
 40
22.0
 40
22.0
 40
22.0
 40
23.0
 40
23.0
 40
23.0
 40
24.0
 40
24.0
 40
24.0
 40
25.0
 40
25.0
 40
25.0
 40
26.0
 40
26.0
 40
26.0
 40
27.0
 40
27.0
 40
27.0
 40
28.0
 40
28.0
 40
28.0
 40
29.0
 40
29.0
 40
29.0
 40
30.0
 40
30.0
 40
30.0
 40
31.0
 40
31.0
 40
31.0
 40
32.0
 40
32.0
 40
32.0
 40
33.0
 40
33.0
 40
33.0
 40
34.0
 40
34.0
 40
34.0
 40
35.0
 40
35.0
 40
35.0
 40
36.0
 40
36.0
 40
36.0
 40
37.0
 40
37.0
 40
37.0
 40
37.0
 10
11.52590364954893
 20
-16.41533765819311
 30
0.0
 10
11.52590364954893
 20
-16.42205144551664
 30
0.0
 10
11.52573539829736
 20
-16.42876705390745
 30
0.0
 10
11.52536707765746
 20
-16.43547187156453
 30
0.0
 10
11.52502722459908
 20
-16.44165847242233
 30
0.0
 10
11.52451703379452
 20
-16.44783588612108
 30
0.0
 10
11.52380648966413
 20
-16.45399086449209
 30
0.0
 10
11.5231497204905
 20
-16.45968002563672
 30
0.0
 10
11.52232177646359
 20
-16.46535001882428
 30
0.0
 10
11.52129557703493
 20
-16.47098448578466
 30
0.0
 10
11.5203443795497
 20
-16.4762071458774
 30
0.0
 10
11.51922284746298
 20
-16.48139928298964
 30
0.0
 10
11.51790803141335
 20
-16.4865425842573
 30
0.0
 10
11.51668448546128
 20
-16.49132885489032
 30
0.0
 10
11.51529355841719
 20
-16.49607283439455
 30
0.0
 10
11.51371754439086
 20
-16.50075500863785
 30
0.0
 10
11.51224344015219
 20
-16.50513441946979
 30
0.0
 10
11.5106074115839
 20
-16.5094597596411
 30
0.0
 10
11.50879780741755
 20
-16.51371160776708
 30
0.0
 10
11.50709486015483
 20
-16.51771285470398
 30
0.0
 10
11.50523819518668
 20
-16.52164901744307
 30
0.0
 10
11.50322251211776
 20
-16.52550223036016
 30
0.0
 10
11.50131265063785
 20
-16.52915315298661
 30
0.0
 10
11.49926002939917
 20
-16.53272960675379
 30
0.0
 10
11.49706535002452
 20
-16.53621672524961
 30
0.0
 10
11.49497102233256
 20
-16.5395443953026
 30
0.0
 10
11.49274733070554
 20
-16.54279071301244
 30
0.0
 10
11.49040001264665
 20
-16.54594494127511
 30
0.0
 10
11.48814442850773
 20
-16.54897590131602
 30
0.0
 10
11.48577469184466
 20
-16.55192182903273
 30
0.0
 10
11.48330019164589
 20
-16.55477672702043
 30
0.0
 10
11.48090743123695
 20
-16.55753731959577
 30
0.0
 10
11.47841671425347
 20
-16.56021279705573
 30
0.0
 10
11.47583957850783
 20
-16.56280193149923
 30
0.0
 10
11.47333454004458
 20
-16.56531863298788
 30
0.0
 10
11.47074785044199
 20
-16.56775375490411
 30
0.0
 10
11.46809186481589
 20
-16.57011040336553
 30
0.0
 10
11.46550007766832
 20
-16.57241008870023
 30
0.0
 10
11.46284230395331
 20
-16.57463504833425
 30
0.0
 10
11.46013074210719
 20
-16.57679199146145
 30
0.0
 10
11.45747810599799
 20
-16.57890206143196
 30
0.0
 10
11.45477399412718
 20
-16.58094703894774
 30
0.0
 10
11.45202990189582
 20
-16.58293654457407
 30
0.0
 10
11.44934242069747
 20
-16.58488500640187
 30
0.0
 10
11.44661659172444
 20
-16.58678026151791
 30
0.0
 10
11.44386303591314
 20
-16.58863391136709
 30
0.0
 10
11.44250757828936
 20
-16.58954638381803
 30
0.0
 10
11.44114540197766
 20
-16.59044877459988
 30
0.0
 10
11.43977787172288
 20
-16.59134297771086
 30
0.0
 10
11.43842483433704
 20
-16.59222770419885
 30
0.0
 10
11.43706655588728
 20
-16.59310441563967
 30
0.0
 10
11.43570343810419
 20
-16.59397356974803
 30
0.0
 10
11.43301951014568
 20
-16.59568490169646
 30
0.0
 10
11.43031682099277
 20
-16.59736693527452
 30
0.0
 10
11.42759526523071
 20
-16.59901779063039
 30
0.0
 10
11.42492634240548
 20
-16.60063671962755
 30
0.0
 10
11.42223927564828
 20
-16.60222566467066
 30
0.0
 10
11.4195341700115
 20
-16.60378355511034
 30
0.0
 10
11.41426247194083
 20
-16.60681956520675
 30
0.0
 10
11.40892226573327
 20
-16.60973763599218
 30
0.0
 10
11.40351746858438
 20
-16.61253050039024
 30
0.0
 10
11.39826481303074
 20
-16.61524474743537
 30
0.0
 10
11.39295115174252
 20
-16.61784073784133
 30
0.0
 10
11.38758184513172
 20
-16.62031597669711
 30
0.0
 10
11.38232427268682
 20
-16.62273970634158
 30
0.0
 10
11.37701334675769
 20
-16.6250476577746
 30
0.0
 10
11.37165581119926
 20
-16.62724155503322
 30
0.0
 10
11.36636938625531
 20
-16.62940633267506
 30
0.0
 10
11.36103758077066
 20
-16.6314600637333
 30
0.0
 10
11.3556678782612
 20
-16.63340880650609
 30
0.0
 10
11.35032922811644
 20
-16.63534627992622
 30
0.0
 10
11.34495311798769
 20
-16.63717997581989
 30
0.0
 10
11.33954655782491
 20
-16.63891930205197
 30
0.0
 10
11.32867451539596
 20
-16.64241691014722
 30
0.0
 10
11.31767934180468
 20
-16.64553291452671
 30
0.0
 10
11.30661780075272
 20
-16.64837630956213
 30
0.0
 10
11.30098337738217
 20
-16.6498246512863
 30
0.0
 10
11.29533173441857
 20
-16.65120226223482
 30
0.0
 10
11.28966738697276
 20
-16.65252596356938
 30
0.0
 10
11.28388909067115
 20
-16.65387629361155
 30
0.0
 10
11.27809757359759
 20
-16.65517052323932
 30
0.0
 10
11.27229763178632
 20
-16.65642514578528
 30
0.0
 10
11.26635171459867
 20
-16.65771134519946
 30
0.0
 10
11.260396943262
 20
-16.65895591874735
 30
0.0
 10
11.25443704657004
 20
-16.66017542728895
 30
0.0
 10
11.24830448860712
 20
-16.66143026562
 30
0.0
 10
11.24216650401888
 20
-16.66265856561575
 30
0.0
 10
11.23602253988364
 20
-16.66385628751237
 30
0.0
 10
11.22969682988047
 20
-16.66508943946691
 30
0.0
 10
11.22336478133346
 20
-16.66629017749083
 30
0.0
 10
11.21702610481358
 20
-16.6674549011435
 30
0.0
 10
11.21050074923794
 20
-16.66865392683245
 30
0.0
 10
11.20396836954248
 20
-16.66981478560951
 30
0.0
 10
11.19742889633461
 20
-16.67093433868368
 30
0.0
 10
11.19069739441074
 20
-16.6720867669349
 30
0.0
 10
11.18395837626223
 20
-16.67319542801932
 30
0.0
 10
11.17721206973786
 20
-16.67425767038498
 30
0.0
 10
11.17026795059632
 20
-16.67535105941465
 30
0.0
 10
11.16331610939884
 20
-16.67639526767304
 30
0.0
 10
11.15635678005388
 20
-16.67738796672534
 30
0.0
 10
11.14182019402365
 20
-16.67946150778966
 30
0.0
 10
11.12725093684105
 20
-16.6813103116768
 30
0.0
 10
11.11265543167735
 20
-16.68292173463138
 30
0.0
 10
11.09718811206035
 20
-16.68462941063146
 30
0.0
 10
11.08169131513922
 20
-16.68607050041585
 30
0.0
 10
11.06617409227022
 20
-16.68724020524956
 30
0.0
 10
11.04972271527864
 20
-16.68848032761879
 30
0.0
 10
11.03324837898224
 20
-16.68941540613751
 30
0.0
 10
11.01676200257196
 20
-16.69004794153925
 30
0.0
 10
10.9992725034683
 20
-16.6907189639075
 30
0.0
 10
10.98176945450128
 20
-16.69104950628267
 30
0.0
 10
10.96426840344067
 20
-16.69104950628267
 30
0.0
  0
SPLINE
  5
E2
330
70
100
AcDbEntity
  8
Layer 1
 62
    18
420
        0
370
     5
100
AcDbSpline
210
0.0
220
0.0
230
1.0
 70
     8
 71
     3
 72
   116
 73
   112
 74
     0
 42
0.0000000001
 43
0.0000000001
 40
0.0
 40
0.0
 40
0.0
 40
0.0
 40
1.0
 40
1.0
 40
1.0
 40
2.0
 40
2.0
 40
2.0
 40
3.0
 40
3.0
 40
3.0
 40
4.0
 40
4.0
 40
4.0
 40
5.0
 40
5.0
 40
5.0
 40
6.0
 40
6.0
 40
6.0
 40
7.0
 40
7.0
 40
7.0
 40
8.0
 40
8.0
 40
8.0
 40
9.0
 40
9.0
 40
9.0
 40
10.0
 40
10.0
 40
10.0
 40
11.0
 40
11.0
 40
11.0
 40
12.0
 40
12.0
 40
12.0
 40
13.0
 40
13.0
 40
13.0
 40
14.0
 40
14.0
 40
14.0
 40
15.0
 40
15.0
 40
15.0
 40
16.0
 40
16.0
 40
16.0
 40
17.0
 40
17.0
 40
17.0
 40
18.0
 40
18.0
 40
18.0
 40
19.0
 40
19.0
 40
19.0
 40
20.0
 40
20.0
 40
20.0
 40
21.0
 40
21.0
 40
21.0
 40
22.0
 40
22.0
 40
22.0
 40
23.0
 40
23.0
 40
23.0
 40
24.0
 40
24.0
 40
24.0
 40
25.0
 40
25.0
 40
25.0
 40
26.0
 40
26.0
 40
26.0
 40
27.0
 40
27.0
 40
27.0
 40
28.0
 40
28.0
 40
28.0
 40
29.0
 40
29.0
 40
29.0
 40
30.0
 40
30.0
 40
30.0
 40
31.0
 40
31.0
 40
31.0
 40
32.0
 40
32.0
 40
32.0
 40
33.0
 40
33.0
 40
33.0
 40
34.0
 40
34.0
 40
34.0
 40
35.0
 40
35.0
 40
35.0
 40
36.0
 40
36.0
 40
36.0
 40
37.0
 40
37.0
 40
37.0
 40
37.0
 10
12.24071214459582
 20
-16.41533765819311
 30
0.0
 10
12.24071214459582
 20
-16.42205144551664
 30
0.0
 10
12.24088039584745
 20
-16.42876705390745
 30
0.0
 10
12.24124871650646
 20
-16.43547187156453
 30
0.0
 10
12.24158856958249
 20
-16.44165847242233
 30
0.0
 10
12.24209876042103
 20
-16.44783588612108
 30
0.0
 10
12.24280930456772
 20
-16.45399086449209
 30
0.0
 10
12.24346607375641
 20
-16.45968002563672
 30
0.0
 10
12.24429401778333
 20
-16.46535001882428
 30
0.0
 10
12.24532021719298
 20
-16.47098448578466
 30
0.0
 10
12.24627141466059
 20
-16.4762071458774
 30
0.0
 10
12.24739294671341
 20
-16.48139928298964
 30
0.0
 10
12.24870776276551
 20
-16.4865425842573
 30
0.0
 10
12.24993130871998
 20
-16.49132885489032
 30
0.0
 10
12.25132223579804
 20
-16.49607283439455
 30
0.0
 10
12.2528982498407
 20
-16.50075500863785
 30
0.0
 10
12.25437235409471
 20
-16.50513441946979
 30
0.0
 10
12.25600838266301
 20
-16.5094597596411
 30
0.0
 10
12.25781798682934
 20
-16.51371160776708
 30
0.0
 10
12.2595209340921
 20
-16.51771285470398
 30
0.0
 10
12.26137759906017
 20
-16.52164901744307
 30
0.0
 10
12.26339328212917
 20
-16.52550223036016
 30
0.0
 10
12.26530314360904
 20
-16.52915315298661
 30
0.0
 10
12.2673557648477
 20
-16.53272960675379
 30
0.0
 10
12.2695504442224
 20
-16.53621672524961
 30
0.0
 10
12.27164477191432
 20
-16.5395443953026
 30
0.0
 10
12.27386846354132
 20
-16.54279071301244
 30
0.0
 10
12.27621578158222
 20
-16.54594494127511
 30
0.0
 10
12.27847136570391
 20
-16.54897590131602
 30
0.0
 10
12.28084110233297
 20
-16.55192182903273
 30
0.0
 10
12.28331560253289
 20
-16.55477672702043
 30
0.0
 10
12.28570836294294
 20
-16.55753731959577
 30
0.0
 10
12.28819907996037
 20
-16.56021279705573
 30
0.0
 10
12.29077621570506
 20
-16.56280193149923
 30
0.0
 10
12.29328125416732
 20
-16.56531863298788
 30
0.0
 10
12.29586794373593
 20
-16.56775375490411
 30
0.0
 10
12.29852392934526
 20
-16.57011040336553
 30
0.0
 10
12.30111571647644
 20
-16.57241008870023
 30
0.0
 10
12.30377349019146
 20
-16.57463504833425
 30
0.0
 10
12.30648505203761
 20
-16.57679199146145
 30
0.0
 10
12.30913768814682
 20
-16.57890206143196
 30
0.0
 10
12.31184180001759
 20
-16.58094703894774
 30
0.0
 10
12.31458589226991
 20
-16.58293654457407
 30
0.0
 10
12.31727337348881
 20
-16.58488500640187
 30
0.0
 10
12.31999920250248
 20
-16.58678026151791
 30
0.0
 10
12.32275275829258
 20
-16.58863391136709
 30
0.0
 10
12.3241082159059
 20
-16.58954638381803
 30
0.0
 10
12.32547039219227
 20
-16.59044877459988
 30
0.0
 10
12.32683792244749
 20
-16.59134297771086
 30
0.0
 10
12.32819095983369
 20
-16.59222770419885
 30
0.0
 10
12.32954923830913
 20
-16.59310441563967
 30
0.0
 10
12.33091235610219
 20
-16.59397356974803
 30
0.0
 10
12.33359628408033
 20
-16.59568490169646
 30
0.0
 10
12.33629897319229
 20
-16.59736693527452
 30
0.0
 10
12.33902052893401
 20
-16.59901779063039
 30
0.0
 10
12.34168945173931
 20
-16.60063671962755
 30
0.0
 10
12.34437651849657
 20
-16.60222566467066
 30
0.0
 10
12.34708162414042
 20
-16.60378355511034
 30
0.0
 10
12.35235332222505
 20
-16.60681956520675
 30
0.0
 10
12.35769352847369
 20
-16.60973763599218
 30
0.0
 10
12.36309832564287
 20
-16.61253050039024
 30
0.0
 10
12.36835098121613
 20
-16.61524474743537
 30
0.0
 10
12.37366464250438
 20
-16.61784073784133
 30
0.0
 10
12.37903394911518
 20
-16.62031597669711
 30
0.0
 10
12.38429152156009
 20
-16.62273970634158
 30
0.0
 10
12.38960244748917
 20
-16.6250476577746
 30
0.0
 10
12.3949599830476
 20
-16.62724155503322
 30
0.0
 10
12.40024640799159
 20
-16.62940633267506
 30
0.0
 10
12.40557821347627
 20
-16.6314600637333
 30
0.0
 10
12.41094791597288
 20
-16.63340880650609
 30
0.0
 10
12.4162865661049
 20
-16.63534627992622
 30
0.0
 10
12.42166267620824
 20
-16.63717997581989
 30
0.0
 10
12.42706923636241
 20
-16.63891930205197
 30
0.0
 10
12.4379412787741
 20
-16.64241691014722
 30
0.0
 10
12.44893645241629
 20
-16.64553291452671
 30
0.0
 10
12.45999799348546
 20
-16.64837630956213
 30
0.0
 10
12.46563241686476
 20
-16.6498246512863
 30
0.0
 10
12.47128405982837
 20
-16.65120226223482
 30
0.0
 10
12.47694840727414
 20
-16.65252596356938
 30
0.0
 10
12.48272670357576
 20
-16.65387629361155
 30
0.0
 10
12.48851822064934
 20
-16.65517052323932
 30
0.0
 10
12.49431816246058
 20
-16.65642514578528
 30
0.0
 10
12.50026407964823
 20
-16.65771134519946
 30
0.0
 10
12.50621885098487
 20
-16.65895591874735
 30
0.0
 10
12.51217874767684
 20
-16.66017542728895
 30
0.0
 10
12.5183113056398
 20
-16.66143026562
 30
0.0
 10
12.524449290228
 20
-16.66265856561575
 30
0.0
 10
12.53059325436324
 20
-16.66385628751237
 30
0.0
 10
12.53691896436647
 20
-16.66508943946691
 30
0.0
 10
12.54325101291339
 20
-16.66629017749083
 30
0.0
 10
12.54958968941704
 20
-16.6674549011435
 30
0.0
 10
12.55611504497591
 20
-16.66865392683245
 30
0.0
 10
12.56264742463731
 20
-16.66981478560951
 30
0.0
 10
12.56918689784422
 20
-16.67093433868368
 30
0.0
 10
12.57591839976706
 20
-16.6720867669349
 30
0.0
 10
12.58265741794965
 20
-16.67319542801932
 30
0.0
 10
12.58940372449125
 20
-16.67425767038498
 30
0.0
 10
12.59634784365057
 20
-16.67535105941465
 30
0.0
 10
12.60329968484807
 20
-16.67639526767304
 30
0.0
 10
12.61025901419306
 20
-16.67738796672534
 30
0.0
 10
12.62479560022322
 20
-16.67946150778966
 30
0.0
 10
12.63936485740588
 20
-16.6813103116768
 30
0.0
 10
12.65396036256955
 20
-16.68292173463138
 30
0.0
 10
12.66942768218658
 20
-16.68462941063146
 30
0.0
 10
12.68492447910769
 20
-16.68607050041585
 30
0.0
 10
12.70044170197671
 20
-16.68724020524956
 30
0.0
 10
12.71689307896827
 20
-16.68848032761879
 30
0.0
 10
12.73336741526464
 20
-16.68941540613751
 30
0.0
 10
12.74985379167497
 20
-16.69004794153925
 30
0.0
 10
12.76734329077857
 20
-16.6907189639075
 30
0.0
 10
12.7848463397456
 20
-16.69104950628267
 30
0.0
 10
12.8023473907041
 20
-16.69104950628267
 30
0.0
  0
SPLINE
  5
E3
330
70
100
AcDbEntity
  8
Layer 1
 62
    18
420
        0
370
     5
100
AcDbSpline
210
0.0
220
0.0
230
1.0
 70
     8
 71
     3
 72
   116
 73
   112
 74
     0
 42
0.0000000001
 43
0.0000000001
 40
0.0
 40
0.0
 40
0.0
 40
0.0
 40
1.0
 40
1.0
 40
1.0
 40
2.0
 40
2.0
 40
2.0
 40
3.0
 40
3.0
 40
3.0
 40
4.0
 40
4.0
 40
4.0
 40
5.0
 40
5.0
 40
5.0
 40
6.0
 40
6.0
 40
6.0
 40
7.0
 40
7.0
 40
7.0
 40
8.0
 40
8.0
 40
8.0
 40
9.0
 40
9.0
 40
9.0
 40
10.0
 40
10.0
 40
10.0
 40
11.0
 40
11.0
 40
11.0
 40
12.0
 40
12.0
 40
12.0
 40
13.0
 40
13.0
 40
13.0
 40
14.0
 40
14.0
 40
14.0
 40
15.0
 40
15.0
 40
15.0
 40
16.0
 40
16.0
 40
16.0
 40
17.0
 40
17.0
 40
17.0
 40
18.0
 40
18.0
 40
18.0
 40
19.0
 40
19.0
 40
19.0
 40
20.0
 40
20.0
 40
20.0
 40
21.0
 40
21.0
 40
21.0
 40
22.0
 40
22.0
 40
22.0
 40
23.0
 40
23.0
 40
23.0
 40
24.0
 40
24.0
 40
24.0
 40
25.0
 40
25.0
 40
25.0
 40
26.0
 40
26.0
 40
26.0
 40
27.0
 40
27.0
 40
27.0
 40
28.0
 40
28.0
 40
28.0
 40
29.0
 40
29.0
 40
29.0
 40
30.0
 40
30.0
 40
30.0
 40
31.0
 40
31.0
 40
31.0
 40
32.0
 40
32.0
 40
32.0
 40
33.0
 40
33.0
 40
33.0
 40
34.0
 40
34.0
 40
34.0
 40
35.0
 40
35.0
 40
35.0
 40
36.0
 40
36.0
 40
36.0
 40
37.0
 40
37.0
 40
37.0
 40
37.0
 10
4.071472201202671
 20
-16.41533765819311
 30
0.0
 10
4.071472201202671
 20
-16.42205144551664
 30
0.0
 10
4.071640452454263
 20
-16.42876705390745
 30
0.0
 10
4.0720087731133
 20
-16.43547187156453
 30
0.0
 10
4.072348626189358
 20
-16.44165847242233
 30
0.0
 10
4.072858817027837
 20
-16.44783588612108
 30
0.0
 10
4.073569361174539
 20
-16.45399086449209
 30
0.0
 10
4.07422613036326
 20
-16.45968002563672
 30
0.0
 10
4.075054074390158
 20
-16.46535001882428
 30
0.0
 10
4.076080273799852
 20
-16.47098448578466
 30
0.0
 10
4.077031471267433
 20
-16.4762071458774
 30
0.0
 10
4.078153003320241
 20
-16.48139928298964
 30
0.0
 10
4.079467819372376
 20
-16.4865425842573
 30
0.0
 10
4.080691365326805
 20
-16.49132885489032
 30
0.0
 10
4.082082292404821
 20
-16.49607283439455
 30
0.0
 10
4.083658306447546
 20
-16.50075500863785
 30
0.0
 10
4.085132410701551
 20
-16.50513441946979
 30
0.0
 10
4.086768439269866
 20
-16.5094597596411
 30
0.0
 10
4.088578043436212
 20
-16.51371160776708
 30
0.0
 10
4.090280990698917
 20
-16.51771285470398
 30
0.0
 10
4.092137655667051
 20
-16.52164901744307
 30
0.0
 10
4.094153338735988
 20
-16.52550223036016
 30
0.0
 10
4.096063200215882
 20
-16.52915315298661
 30
0.0
 10
4.09811582145456
 20
-16.53272960675379
 30
0.0
 10
4.100310500829221
 20
-16.53621672524961
 30
0.0
 10
4.102404828521192
 20
-16.5395443953026
 30
0.0
 10
4.104628520148202
 20
-16.54279071301244
 30
0.0
 10
4.106975838189074
 20
-16.54594494127511
 30
0.0
 10
4.109231422310687
 20
-16.54897590131602
 30
0.0
 10
4.11160115893977
 20
-16.55192182903273
 30
0.0
 10
4.114075659139745
 20
-16.55477672702043
 30
0.0
 10
4.11646841954982
 20
-16.55753731959577
 30
0.0
 10
4.118959136567241
 20
-16.56021279705573
 30
0.0
 10
4.121536272311926
 20
-16.56280193149923
 30
0.0
 10
4.124041310774183
 20
-16.56531863298788
 30
0.0
 10
4.126628000342785
 20
-16.56775375490411
 30
0.0
 10
4.129283985952118
 20
-16.57011040336553
 30
0.0
 10
4.131875773083316
 20
-16.57241008870023
 30
0.0
 10
4.134533546798289
 20
-16.57463504833425
 30
0.0
 10
4.137245108644441
 20
-16.57679199146145
 30
0.0
 10
4.13989774475365
 20
-16.57890206143196
 30
0.0
 10
4.142601856624448
 20
-16.58094703894774
 30
0.0
 10
4.145345948876752
 20
-16.58293654457407
 30
0.0
 10
4.148033430095627
 20
-16.58488500640187
 30
0.0
 10
4.150759259109324
 20
-16.58678026151791
 30
0.0
 10
4.153512814899423
 20
-16.58863391136709
 30
0.0
 10
4.154868272512771
 20
-16.58954638381803
 30
0.0
 10
4.156230448799091
 20
-16.59044877459988
 30
0.0
 10
4.157597979054281
 20
-16.59134297771086
 30
0.0
 10
4.15895101644052
 20
-16.59222770419885
 30
0.0
 10
4.160309294915919
 20
-16.59310441563967
 30
0.0
 10
4.161672412709044
 20
-16.59397356974803
 30
0.0
 10
4.164356340687214
 20
-16.59568490169646
 30
0.0
 10
4.167059029799133
 20
-16.59736693527452
 30
0.0
 10
4.169780585540845
 20
-16.59901779063039
 30
0.0
 10
4.172449508346137
 20
-16.60063671962755
 30
0.0
 10
4.175136575103376
 20
-16.60222566467066
 30
0.0
 10
4.177841680747279
 20
-16.60378355511034
 30
0.0
 10
4.183113378831889
 20
-16.60681956520675
 30
0.0
 10
4.188453585080562
 20
-16.60973763599218
 30
0.0
 10
4.193858382249723
 20
-16.61253050039024
 30
0.0
 10
4.199111037822982
 20
-16.61524474743537
 30
0.0
 10
4.204424699111212
 20
-16.61784073784133
 30
0.0
 10
4.209794005722035
 20
-16.62031597669711
 30
0.0
 10
4.215051578166909
 20
-16.62273970634158
 30
0.0
 10
4.220362504096012
 20
-16.6250476577746
 30
0.0
 10
4.225720039654484
 20
-16.62724155503322
 30
0.0
 10
4.231006464598445
 20
-16.62940633267506
 30
0.0
 10
4.236338270083074
 20
-16.6314600637333
 30
0.0
 10
4.241707972579724
 20
-16.63340880650609
 30
0.0
 10
4.247046622711738
 20
-16.63534627992622
 30
0.0
 10
4.252422732815071
 20
-16.63717997581989
 30
0.0
 10
4.257829292969303
 20
-16.63891930205197
 30
0.0
 10
4.268701335380947
 20
-16.64241691014722
 30
0.0
 10
4.279696509023147
 20
-16.64553291452671
 30
0.0
 10
4.290758050092297
 20
-16.64837630956213
 30
0.0
 10
4.296392473471592
 20
-16.6498246512863
 30
0.0
 10
4.302044116435189
 20
-16.65120226223482
 30
0.0
 10
4.307708463880961
 20
-16.65252596356938
 30
0.0
 10
4.31348676018255
 20
-16.65387629361155
 30
0.0
 10
4.319278277256178
 20
-16.65517052323932
 30
0.0
 10
4.325078219067424
 20
-16.65642514578528
 30
0.0
 10
4.331024136255097
 20
-16.65771134519946
 30
0.0
 10
4.336978907591754
 20
-16.65895591874735
 30
0.0
 10
4.342938804283713
 20
-16.66017542728895
 30
0.0
 10
4.349071362246617
 20
-16.66143026562
 30
0.0
 10
4.355209346834865
 20
-16.66265856561575
 30
0.0
 10
4.361353310970078
 20
-16.66385628751237
 30
0.0
 10
4.367679020973266
 20
-16.66508943946691
 30
0.0
 10
4.374011069520254
 20
-16.66629017749083
 30
0.0
 10
4.38034974602389
 20
-16.6674549011435
 30
0.0
 10
4.386875101582745
 20
-16.66865392683245
 30
0.0
 10
4.393407481244176
 20
-16.66981478560951
 30
0.0
 10
4.399946954451112
 20
-16.67093433868368
 30
0.0
 10
4.406678456373937
 20
-16.6720867669349
 30
0.0
 10
4.413417474556492
 20
-16.67319542801932
 30
0.0
 10
4.420163781098128
 20
-16.67425767038498
 30
0.0
 10
4.427107900257384
 20
-16.67535105941465
 30
0.0
 10
4.43405974145489
 20
-16.67639526767304
 30
0.0
 10
4.44101907079985
 20
-16.67738796672534
 30
0.0
 10
4.455555656830079
 20
-16.67946150778966
 30
0.0
 10
4.470124914012684
 20
-16.6813103116768
 30
0.0
 10
4.484720419176381
 20
-16.68292173463138
 30
0.0
 10
4.500187738793366
 20
-16.68462941063146
 30
0.0
 10
4.515684535714525
 20
-16.68607050041585
 30
0.0
 10
4.531201758583518
 20
-16.68724020524956
 30
0.0
 10
4.547653135575122
 20
-16.68848032761879
 30
0.0
 10
4.564127471871516
 20
-16.68941540613751
 30
0.0
 10
4.580613848281763
 20
-16.69004794153925
 30
0.0
 10
4.598103347385416
 20
-16.6907189639075
 30
0.0
 10
4.615606396352442
 20
-16.69104950628267
 30
0.0
 10
4.633107447310963
 20
-16.69104950628267
 30
0.0
  0
SPLINE
  5
E4
330
70
100
AcDbEntity
  8
Layer 1
 62
    18
420
        0
370
     5
100
AcDbSpline
210
0.0
220
0.0
230
1.0
 70
     8
 71
     3
 72
   116
 73
   112
 74
     0
 42
0.0000000001
 43
0.0000000001
 40
0.0
 40
0.0
 40
0.0
 40
0.0
 40
1.0
 40
1.0
 40
1.0
 40
2.0
 40
2.0
 40
2.0
 40
3.0
 40
3.0
 40
3.0
 40
4.0
 40
4.0
 40
4.0
 40
5.0
 40
5.0
 40
5.0
 40
6.0
 40
6.0
 40
6.0
 40
7.0
 40
7.0
 40
7.0
 40
8.0
 40
8.0
 40
8.0
 40
9.0
 40
9.0
 40
9.0
 40
10.0
 40
10.0
 40
10.0
 40
11.0
 40
11.0
 40
11.0
 40
12.0
 40
12.0
 40
12.0
 40
13.0
 40
13.0
 40
13.0
 40
14.0
 40
14.0
 40
14.0
 40
15.0
 40
15.0
 40
15.0
 40
16.0
 40
16.0
 40
16.0
 40
17.0
 40
17.0
 40
17.0
 40
18.0
 40
18.0
 40
18.0
 40
19.0
 40
19.0
 40
19.0
 40
20.0
 40
20.0
 40
20.0
 40
21.0
 40
21.0
 40
21.0
 40
22.0
 40
22.0
 40
22.0
 40
23.0
 40
23.0
 40
23.0
 40
24.0
 40
24.0
 40
24.0
 40
25.0
 40
25.0
 40
25.0
 40
26.0
 40
26.0
 40
26.0
 40
27.0
 40
27.0
 40
27.0
 40
28.0
 40
28.0
 40
28.0
 40
29.0
 40
29.0
 40
29.0
 40
30.0
 40
30.0
 40
30.0
 40
31.0
 40
31.0
 40
31.0
 40
32.0
 40
32.0
 40
32.0
 40
33.0
 40
33.0
 40
33.0
 40
34.0
 40
34.0
 40
34.0
 40
35.0
 40
35.0
 40
35.0
 40
36.0
 40
36.0
 40
36.0
 40
37.0
 40
37.0
 40
37.0
 40
37.0
 10
3.356663706155801
 20
-16.41533765819311
 30
0.0
 10
3.356663706155801
 20
-16.42205144551664
 30
0.0
 10
3.356495454904221
 20
-16.42876705390745
 30
0.0
 10
3.356127134264296
 20
-16.43547187156453
 30
0.0
 10
3.355787281205897
 20
-16.44165847242233
 30
0.0
 10
3.355277090401361
 20
-16.44783588612108
 30
0.0
 10
3.354566546270966
 20
-16.45399086449209
 30
0.0
 10
3.35390977709734
 20
-16.45968002563672
 30
0.0
 10
3.353081833070429
 20
-16.46535001882428
 30
0.0
 10
3.352055633641763
 20
-16.47098448578466
 30
0.0
 10
3.351104436156535
 20
-16.4762071458774
 30
0.0
 10
3.34998290406981
 20
-16.48139928298964
 30
0.0
 10
3.348668088020202
 20
-16.4865425842573
 30
0.0
 10
3.347444542068109
 20
-16.49132885489032
 30
0.0
 10
3.346053615024023
 20
-16.49607283439455
 30
0.0
 10
3.344477600997695
 20
-16.50075500863785
 30
0.0
 10
3.343003496759024
 20
-16.50513441946979
 30
0.0
 10
3.341367468190734
 20
-16.5094597596411
 30
0.0
 10
3.339557864024375
 20
-16.51371160776708
 30
0.0
 10
3.337854916761671
 20
-16.51771285470398
 30
0.0
 10
3.33599825179355
 20
-16.52164901744307
 30
0.0
 10
3.333982568724599
 20
-16.52550223036016
 30
0.0
 10
3.332072707244694
 20
-16.52915315298661
 30
0.0
 10
3.330020086006002
 20
-16.53272960675379
 30
0.0
 10
3.327825406631366
 20
-16.53621672524961
 30
0.0
 10
3.325731078939409
 20
-16.5395443953026
 30
0.0
 10
3.323507387312385
 20
-16.54279071301244
 30
0.0
 10
3.321160069253475
 20
-16.54594494127511
 30
0.0
 10
3.318904485114558
 20
-16.54897590131602
 30
0.0
 10
3.316534748451506
 20
-16.55192182903273
 30
0.0
 10
3.314060248252733
 20
-16.55477672702043
 30
0.0
 10
3.311667487843793
 20
-16.55753731959577
 30
0.0
 10
3.309176770860327
 20
-16.56021279705573
 30
0.0
 10
3.306599635114657
 20
-16.56280193149923
 30
0.0
 10
3.304094596651427
 20
-16.56531863298788
 30
0.0
 10
3.30150790704887
 20
-16.56775375490411
 30
0.0
 10
3.298851921422725
 20
-16.57011040336553
 30
0.0
 10
3.296260134275156
 20
-16.57241008870023
 30
0.0
 10
3.29360236056017
 20
-16.57463504833425
 30
0.0
 10
3.290890798714031
 20
-16.57679199146145
 30
0.0
 10
3.288238162604822
 20
-16.57890206143196
 30
0.0
 10
3.285534050734049
 20
-16.58094703894774
 30
0.0
 10
3.282789958502676
 20
-16.58293654457407
 30
0.0
 10
3.280102477304315
 20
-16.58488500640187
 30
0.0
 10
3.27737664833128
 20
-16.58678026151791
 30
0.0
 10
3.274623092519997
 20
-16.58863391136709
 30
0.0
 10
3.273267634896215
 20
-16.58954638381803
 30
0.0
 10
3.271905458584493
 20
-16.59044877459988
 30
0.0
 10
3.270537928329695
 20
-16.59134297771086
 30
0.0
 10
3.269184890943872
 20
-16.59222770419885
 30
0.0
 10
3.267826612494154
 20
-16.59310441563967
 30
0.0
 10
3.266463494711021
 20
-16.59397356974803
 30
0.0
 10
3.263779566752519
 20
-16.59568490169646
 30
0.0
 10
3.261076877599584
 20
-16.59736693527452
 30
0.0
 10
3.25835532183756
 20
-16.59901779063039
 30
0.0
 10
3.255686399012309
 20
-16.60063671962755
 30
0.0
 10
3.252999332255095
 20
-16.60222566467066
 30
0.0
 10
3.250294226618342
 20
-16.60378355511034
 30
0.0
 10
3.245022528547666
 20
-16.60681956520675
 30
0.0
 10
3.239682322340083
 20
-16.60973763599218
 30
0.0
 10
3.234277525191196
 20
-16.61253050039024
 30
0.0
 10
3.22902486963758
 20
-16.61524474743537
 30
0.0
 10
3.223711208349375
 20
-16.61784073784133
 30
0.0
 10
3.218341901738552
 20
-16.62031597669711
 30
0.0
 10
3.213084329293653
 20
-16.62273970634158
 30
0.0
 10
3.207773403364588
 20
-16.6250476577746
 30
0.0
 10
3.202415867806077
 20
-16.62724155503322
 30
0.0
 10
3.197129442862142
 20
-16.62940633267506
 30
0.0
 10
3.191797637377514
 20
-16.6314600637333
 30
0.0
 10
3.186427934868017
 20
-16.63340880650609
 30
0.0
 10
3.18108928472327
 20
-16.63534627992622
 30
0.0
 10
3.175713174594521
 20
-16.63717997581989
 30
0.0
 10
3.170306614431738
 20
-16.63891930205197
 30
0.0
 10
3.159434572002826
 20
-16.64241691014722
 30
0.0
 10
3.14843939841152
 20
-16.64553291452671
 30
0.0
 10
3.137377857359524
 20
-16.64837630956213
 30
0.0
 10
3.131743433988983
 20
-16.6498246512863
 30
0.0
 10
3.126091791025411
 20
-16.65120226223482
 30
0.0
 10
3.120427443579615
 20
-16.65252596356938
 30
0.0
 10
3.114649147278037
 20
-16.65387629361155
 30
0.0
 10
3.108857630204409
 20
-16.65517052323932
 30
0.0
 10
3.103057688393151
 20
-16.65642514578528
 30
0.0
 10
3.097111771205479
 20
-16.65771134519946
 30
0.0
 10
3.091156999868833
 20
-16.65895591874735
 30
0.0
 10
3.085197103176887
 20
-16.66017542728895
 30
0.0
 10
3.079064545213959
 20
-16.66143026562
 30
0.0
 10
3.072926560625735
 20
-16.66265856561575
 30
0.0
 10
3.06678259649051
 20
-16.66385628751237
 30
0.0
 10
3.060456886487359
 20
-16.66508943946691
 30
0.0
 10
3.054124837940333
 20
-16.66629017749083
 30
0.0
 10
3.04778616142039
 20
-16.6674549011435
 30
0.0
 10
3.041260805844772
 20
-16.66865392683245
 30
0.0
 10
3.034728426149323
 20
-16.66981478560951
 30
0.0
 10
3.02818895294144
 20
-16.67093433868368
 30
0.0
 10
3.021457451017593
 20
-16.6720867669349
 30
0.0
 10
3.014718432869092
 20
-16.67319542801932
 30
0.0
 10
3.007972126344712
 20
-16.67425767038498
 30
0.0
 10
3.001028007203204
 20
-16.67535105941465
 30
0.0
 10
2.99407616600571
 20
-16.67639526767304
 30
0.0
 10
2.98711683666075
 20
-16.67738796672534
 30
0.0
 10
2.972580250630509
 20
-16.67946150778966
 30
0.0
 10
2.958010993447891
 20
-16.6813103116768
 30
0.0
 10
2.943415488284206
 20
-16.68292173463138
 30
0.0
 10
2.927948168667209
 20
-16.68462941063146
 30
0.0
 10
2.912451371746063
 20
-16.68607050041585
 30
0.0
 10
2.896934148877069
 20
-16.68724020524956
 30
0.0
 10
2.880482771885453
 20
-16.68848032761879
 30
0.0
 10
2.864008435589072
 20
-16.68941540613751
 30
0.0
 10
2.847522059178787
 20
-16.69004794153925
 30
0.0
 10
2.830032560075134
 20
-16.6907189639075
 30
0.0
 10
2.812529511108158
 20
-16.69104950628267
 30
0.0
 10
2.795028460047508
 20
-16.69104950628267
 30
0.0
  0
SPLINE
  5
E5
330
70
100
AcDbEntity
  8
Layer 1
 62
    18
420
        0
370
     5
100
AcDbSpline
210
0.0
220
0.0
230
1.0
 70
     8
 71
     3
 72
    29
 73
    25
 74
     0
 42
0.0000000001
 43
0.0000000001
 40
0.0
 40
0.0
 40
0.0
 40
0.0
 40
1.0
 40
1.0
 40
1.0
 40
2.0
 40
2.0
 40
2.0
 40
3.0
 40
3.0
 40
3.0
 40
4.0
 40
4.0
 40
4.0
 40
5.0
 40
5.0
 40
5.0
 40
6.0
 40
6.0
 40
6.0
 40
7.0
 40
7.0
 40
7.0
 40
8.0
 40
8.0
 40
8.0
 40
8.0
 10
0.6151242071315563
 20
-15.68080759676789
 30
0.0
 10
0.6151242071315563
 20
-15.67031361242094
 30
0.0
 10
0.6152980235319143
 20
-15.65981880849469
 30
0.0
 10
0.6156452748348329
 20
-15.64932995620539
 30
0.0
 10
0.6159905583168413
 20
-15.63890054266474
 30
0.0
 10
0.6165073166119505
 20
-15.62847701349799
 30
0.0
 10
0.6171990786342955
 20
-15.61806499321644
 30
0.0
 10
0.6178829906234189
 20
-15.60777112730438
 30
0.0
 10
0.6187379570327494
 20
-15.59748851055661
 30
0.0
 10
0.6197715198324861
 20
-15.58722376927721
 30
0.0
 10
0.6207873543055359
 20
-15.57713509537065
 30
0.0
 10
0.6219757109164953
 20
-15.56706368896885
 30
0.0
 10
0.6233484996042762
 20
-15.55701734574563
 30
0.0
 10
0.6246896628313909
 20
-15.54720244399267
 30
0.0
 10
0.6262068583519573
 20
-15.53741146393963
 30
0.0
 10
0.6279115187967111
 20
-15.5276530260451
 30
0.0
 10
0.6295671120960453
 20
-15.51817547616694
 30
0.0
 10
0.6313995336144242
 20
-15.50872862201461
 30
0.0
 10
0.6334244770572468
 20
-15.49932308158827
 30
0.0
 10
0.6353789873768898
 20
-15.49024469182364
 30
0.0
 10
0.6375128596537504
 20
-15.48120479175703
 30
0.0
 10
0.6398468734288624
 20
-15.47221602578558
 30
0.0
 10
0.6420847554987733
 20
-15.46359748273633
 30
0.0
 10
0.6445066320132279
 20
-15.45502594837603
 30
0.0
 10
0.6471382072485186
 20
-15.44652037183798
 30
0.0
  0
SPLINE
  5
E6
330
70
100
AcDbEntity
  8
Layer 1
 62
    18
420
        0
370
     5
100
AcDbSpline
210
0.0
220
0.0
230
1.0
 70
     8
 71
     3
 72
    29
 73
    25
 74
     0
 42
0.0000000001
 43
0.0000000001
 40
0.0
 40
0.0
 40
0.0
 40
0.0
 40
1.0
 40
1.0
 40
1.0
 40
2.0
 40
2.0
 40
2.0
 40
3.0
 40
3.0
 40
3.0
 40
4.0
 40
4.0
 40
4.0
 40
5.0
 40
5.0
 40
5.0
 40
6.0
 40
6.0
 40
6.0
 40
7.0
 40
7.0
 40
7.0
 40
8.0
 40
8.0
 40
8.0
 40
8.0
 10
0.6151242071315563
 20
-15.68080759676789
 30
0.0
 10
0.6151242071315563
 20
-15.69130158111488
 30
0.0
 10
0.6152980235319143
 20
-15.70179638509229
 30
0.0
 10
0.6156452748348329
 20
-15.71228523738995
 30
0.0
 10
0.6159905583168413
 20
-15.72271465093887
 30
0.0
 10
0.6165073166119505
 20
-15.73313818007154
 30
0.0
 10
0.6171990786342955
 20
-15.74355020035343
 30
0.0
 10
0.6178829906234189
 20
-15.7538440662659
 30
0.0
 10
0.6187379570327494
 20
-15.76412668304778
 30
0.0
 10
0.6197715198324861
 20
-15.7743914243441
 30
0.0
 10
0.6207873543055359
 20
-15.78448009826724
 30
0.0
 10
0.6219757109164953
 20
-15.79455150466906
 30
0.0
 10
0.6233484996042762
 20
-15.8045978478746
 30
0.0
 10
0.6246896628313909
 20
-15.81441274961035
 30
0.0
 10
0.6262068583519573
 20
-15.82420372962929
 30
0.0
 10
0.6279115187967111
 20
-15.83396216750707
 30
0.0
 10
0.6295671120960453
 20
-15.84343971736888
 30
0.0
 10
0.6313995336144242
 20
-15.85288657152114
 30
0.0
 10
0.6334244770572468
 20
-15.86229211196546
 30
0.0
 10
0.6353789873768898
 20
-15.8713705017475
 30
0.0
 10
0.6375128596537504
 20
-15.88041040184821
 30
0.0
 10
0.6398468734288624
 20
-15.88939916780974
 30
0.0
 10
0.6420847554987733
 20
-15.89801771084944
 30
0.0
 10
0.6445066320132279
 20
-15.90658924515982
 30
0.0
 10
0.6471382072485186
 20
-15.91509482169782
 30
0.0
  0
SPLINE
  5
E7
330
70
100
AcDbEntity
  8
Layer 1
 62
    18
420
        0
370
     5
100
AcDbSpline
210
0.0
220
0.0
230
1.0
 70
     8
 71
     3
 72
    29
 73
    25
 74
     0
 42
0.0000000001
 43
0.0000000001
 40
0.0
 40
0.0
 40
0.0
 40
0.0
 40
1.0
 40
1.0
 40
1.0
 40
2.0
 40
2.0
 40
2.0
 40
3.0
 40
3.0
 40
3.0
 40
4.0
 40
4.0
 40
4.0
 40
5.0
 40
5.0
 40
5.0
 40
6.0
 40
6.0
 40
6.0
 40
7.0
 40
7.0
 40
7.0
 40
8.0
 40
8.0
 40
8.0
 40
8.0
 10
14.98225164372216
 20
-15.68080759676789
 30
0.0
 10
14.98225164372216
 20
-15.67031361242094
 30
0.0
 10
14.98207782732177
 20
-15.65981880849469
 30
0.0
 10
14.98173057601884
 20
-15.64932995620539
 30
0.0
 10
14.98138529253689
 20
-15.63890054266474
 30
0.0
 10
14.98086853424173
 20
-15.62847701349799
 30
0.0
 10
14.98017677221949
 20
-15.61806499321644
 30
0.0
 10
14.97949286023039
 20
-15.60777112730438
 30
0.0
 10
14.97863789382103
 20
-15.59748851055661
 30
0.0
 10
14.97760433102131
 20
-15.58722376927721
 30
0.0
 10
14.97658849654817
 20
-15.57713509537065
 30
0.0
 10
14.97540013993724
 20
-15.56706368896885
 30
0.0
 10
14.9740273512318
 20
-15.55701734574563
 30
0.0
 10
14.97268618798742
 20
-15.54720244399267
 30
0.0
 10
14.97116899243282
 20
-15.53741146393963
 30
0.0
 10
14.96946433198905
 20
-15.5276530260451
 30
0.0
 10
14.96780873869061
 20
-15.51817547616694
 30
0.0
 10
14.96597631720639
 20
-15.50872862201461
 30
0.0
 10
14.96395137378032
 20
-15.49932308158827
 30
0.0
 10
14.96199686347679
 20
-15.49024469182364
 30
0.0
 10
14.95986299120002
 20
-15.48120479175703
 30
0.0
 10
14.95752897739829
 20
-15.47221602578558
 30
0.0
 10
14.95529109530283
 20
-15.46359748273633
 30
0.0
 10
14.95286921873836
 20
-15.45502594837603
 30
0.0
 10
14.95023764360515
 20
-15.44652037183798
 30
0.0
  0
SPLINE
  5
E8
330
70
100
AcDbEntity
  8
Layer 1
 62
    18
420
        0
370
     5
100
AcDbSpline
210
0.0
220
0.0
230
1.0
 70
     8
 71
     3
 72
    29
 73
    25
 74
     0
 42
0.0000000001
 43
0.0000000001
 40
0.0
 40
0.0
 40
0.0
 40
0.0
 40
1.0
 40
1.0
 40
1.0
 40
2.0
 40
2.0
 40
2.0
 40
3.0
 40
3.0
 40
3.0
 40
4.0
 40
4.0
 40
4.0
 40
5.0
 40
5.0
 40
5.0
 40
6.0
 40
6.0
 40
6.0
 40
7.0
 40
7.0
 40
7.0
 40
8.0
 40
8.0
 40
8.0
 40
8.0
 10
14.98225164372216
 20
-15.68080759676789
 30
0.0
 10
14.98225164372216
 20
-15.69130158111488
 30
0.0
 10
14.98207782732177
 20
-15.70179638509229
 30
0.0
 10
14.98173057601884
 20
-15.71228523738995
 30
0.0
 10
14.98138529253689
 20
-15.72271465093887
 30
0.0
 10
14.98086853424173
 20
-15.73313818007154
 30
0.0
 10
14.98017677221949
 20
-15.74355020035343
 30
0.0
 10
14.97949286023039
 20
-15.7538440662659
 30
0.0
 10
14.97863789382103
 20
-15.76412668304778
 30
0.0
 10
14.97760433102131
 20
-15.7743914243441
 30
0.0
 10
14.97658849654817
 20
-15.78448009826724
 30
0.0
 10
14.97540013993724
 20
-15.79455150466906
 30
0.0
 10
14.9740273512318
 20
-15.8045978478746
 30
0.0
 10
14.97268618798742
 20
-15.81441274961035
 30
0.0
 10
14.97116899243282
 20
-15.82420372962929
 30
0.0
 10
14.96946433198905
 20
-15.83396216750707
 30
0.0
 10
14.96780873869061
 20
-15.84343971736888
 30
0.0
 10
14.96597631720639
 20
-15.85288657152114
 30
0.0
 10
14.96395137378032
 20
-15.86229211196546
 30
0.0
 10
14.96199686347679
 20
-15.8713705017475
 30
0.0
 10
14.95986299120002
 20
-15.88041040184821
 30
0.0
 10
14.95752897739829
 20
-15.88939916780974
 30
0.0
 10
14.95529109530283
 20
-15.89801771084944
 30
0.0
 10
14.95286921873836
 20
-15.90658924515982
 30
0.0
 10
14.95023764360515
 20
-15.91509482169782
 30
0.0
  0
SPLINE
  5
E9
330
70
100
AcDbEntity
  8
Layer 1
 62
    18
420
        0
370
     5
100
AcDbSpline
210
0.0
220
0.0
230
1.0
 70
     8
 71
     3
 72
   116
 73
   112
 74
     0
 42
0.0000000001
 43
0.0000000001
 40
0.0
 40
0.0
 40
0.0
 40
0.0
 40
1.0
 40
1.0
 40
1.0
 40
2.0
 40
2.0
 40
2.0
 40
3.0
 40
3.0
 40
3.0
 40
4.0
 40
4.0
 40
4.0
 40
5.0
 40
5.0
 40
5.0
 40
6.0
 40
6.0
 40
6.0
 40
7.0
 40
7.0
 40
7.0
 40
8.0
 40
8.0
 40
8.0
 40
9.0
 40
9.0
 40
9.0
 40
10.0
 40
10.0
 40
10.0
 40
11.0
 40
11.0
 40
11.0
 40
12.0
 40
12.0
 40
12.0
 40
13.0
 40
13.0
 40
13.0
 40
14.0
 40
14.0
 40
14.0
 40
15.0
 40
15.0
 40
15.0
 40
16.0
 40
16.0
 40
16.0
 40
17.0
 40
17.0
 40
17.0
 40
18.0
 40
18.0
 40
18.0
 40
19.0
 40
19.0
 40
19.0
 40
20.0
 40
20.0
 40
20.0
 40
21.0
 40
21.0
 40
21.0
 40
22.0
 40
22.0
 40
22.0
 40
23.0
 40
23.0
 40
23.0
 40
24.0
 40
24.0
 40
24.0
 40
25.0
 40
25.0
 40
25.0
 40
26.0
 40
26.0
 40
26.0
 40
27.0
 40
27.0
 40
27.0
 40
28.0
 40
28.0
 40
28.0
 40
29.0
 40
29.0
 40
29.0
 40
30.0
 40
30.0
 40
30.0
 40
31.0
 40
31.0
 40
31.0
 40
32.0
 40
32.0
 40
32.0
 40
33.0
 40
33.0
 40
33.0
 40
34.0
 40
34.0
 40
34.0
 40
35.0
 40
35.0
 40
35.0
 40
36.0
 40
36.0
 40
36.0
 40
37.0
 40
37.0
 40
37.0
 40
37.0
 10
17.55907494943858
 20
-16.41533765819311
 30
0.0
 10
17.55907494943858
 20
-16.42205144551664
 30
0.0
 10
17.558906698187
 20
-16.42876705390745
 30
0.0
 10
17.55853837752794
 20
-16.43547187156453
 30
0.0
 10
17.5581985244519
 20
-16.44165847242233
 30
0.0
 10
17.55768833361339
 20
-16.44783588612108
 30
0.0
 10
17.55697778946665
 20
-16.45399086449209
 30
0.0
 10
17.55632102027801
 20
-16.45968002563672
 30
0.0
 10
17.55549307625112
 20
-16.46535001882428
 30
0.0
 10
17.55446687684136
 20
-16.47098448578466
 30
0.0
 10
17.5535156793738
 20
-16.4762071458774
 30
0.0
 10
17.55239414732098
 20
-16.48139928298964
 30
0.0
 10
17.55107933126889
 20
-16.4865425842573
 30
0.0
 10
17.54985578531437
 20
-16.49132885489032
 30
0.0
 10
17.54846485823646
 20
-16.49607283439455
 30
0.0
 10
17.54688884419369
 20
-16.50075500863785
 30
0.0
 10
17.54541473993969
 20
-16.50513441946979
 30
0.0
 10
17.54377871137138
 20
-16.5094597596411
 30
0.0
 10
17.54196910720505
 20
-16.51371160776708
 30
0.0
 10
17.5402661599423
 20
-16.51771285470398
 30
0.0
 10
17.53840949497422
 20
-16.52164901744307
 30
0.0
 10
17.53639381190522
 20
-16.52550223036016
 30
0.0
 10
17.53448395042526
 20
-16.52915315298661
 30
0.0
 10
17.53243132918664
 20
-16.53272960675379
 30
0.0
 10
17.53023664981204
 20
-16.53621672524961
 30
0.0
 10
17.52814232212005
 20
-16.5395443953026
 30
0.0
 10
17.52591863049312
 20
-16.54279071301244
 30
0.0
 10
17.52357131245218
 20
-16.54594494127511
 30
0.0
 10
17.52131572833049
 20
-16.54897590131602
 30
0.0
 10
17.51894599170141
 20
-16.55192182903273
 30
0.0
 10
17.51647149150145
 20
-16.55477672702043
 30
0.0
 10
17.5140787310914
 20
-16.55753731959577
 30
0.0
 10
17.51158801407392
 20
-16.56021279705573
 30
0.0
 10
17.50901087832926
 20
-16.56280193149923
 30
0.0
 10
17.50650583986701
 20
-16.56531863298788
 30
0.0
 10
17.50391915029841
 20
-16.56775375490411
 30
0.0
 10
17.50126316468908
 20
-16.57011040336553
 30
0.0
 10
17.49867137755791
 20
-16.57241008870023
 30
0.0
 10
17.49601360384299
 20
-16.57463504833425
 30
0.0
 10
17.49330204199683
 20
-16.57679199146145
 30
0.0
 10
17.49064940588763
 20
-16.57890206143196
 30
0.0
 10
17.48794529401675
 20
-16.58094703894774
 30
0.0
 10
17.48520120176443
 20
-16.58293654457407
 30
0.0
 10
17.48251372054558
 20
-16.58488500640187
 30
0.0
 10
17.47978789153194
 20
-16.58678026151791
 30
0.0
 10
17.47703433574179
 20
-16.58863391136709
 30
0.0
 10
17.47567887812844
 20
-16.58954638381803
 30
0.0
 10
17.47431670184207
 20
-16.59044877459988
 30
0.0
 10
17.47294917158691
 20
-16.59134297771086
 30
0.0
 10
17.47159613420076
 20
-16.59222770419885
 30
0.0
 10
17.47023785572527
 20
-16.59310441563967
 30
0.0
 10
17.46887473793211
 20
-16.59397356974803
 30
0.0
 10
17.46619080995393
 20
-16.59568490169646
 30
0.0
 10
17.46348812084205
 20
-16.59736693527452
 30
0.0
 10
17.46076656510043
 20
-16.59901779063039
 30
0.0
 10
17.45809764229504
 20
-16.60063671962755
 30
0.0
 10
17.45541057553787
 20
-16.60222566467066
 30
0.0
 10
17.45270546989397
 20
-16.60378355511034
 30
0.0
 10
17.44743377180935
 20
-16.60681956520675
 30
0.0
 10
17.4420935655607
 20
-16.60973763599218
 30
0.0
 10
17.43668876839147
 20
-16.61253050039024
 30
0.0
 10
17.43143611281832
 20
-16.61524474743537
 30
0.0
 10
17.42612245153001
 20
-16.61784073784133
 30
0.0
 10
17.42075314491926
 20
-16.62031597669711
 30
0.0
 10
17.4154955724743
 20
-16.62273970634158
 30
0.0
 10
17.41018464654528
 20
-16.6250476577746
 30
0.0
 10
17.40482711098679
 20
-16.62724155503322
 30
0.0
 10
17.39954068604275
 20
-16.62940633267506
 30
0.0
 10
17.39420888055818
 20
-16.6314600637333
 30
0.0
 10
17.38883917806147
 20
-16.63340880650609
 30
0.0
 10
17.38350052792945
 20
-16.63534627992622
 30
0.0
 10
17.37812441782615
 20
-16.63717997581989
 30
0.0
 10
17.37271785767198
 20
-16.63891930205197
 30
0.0
 10
17.36184581526019
 20
-16.64241691014722
 30
0.0
 10
17.3508506416181
 20
-16.64553291452671
 30
0.0
 10
17.33978910054899
 20
-16.64837630956213
 30
0.0
 10
17.33415467716966
 20
-16.6498246512863
 30
0.0
 10
17.32850303420602
 20
-16.65120226223482
 30
0.0
 10
17.3228386867602
 20
-16.65252596356938
 30
0.0
 10
17.31706039045861
 20
-16.65387629361155
 30
0.0
 10
17.31126887338506
 20
-16.65517052323932
 30
0.0
 10
17.30546893157376
 20
-16.65642514578528
 30
0.0
 10
17.29952301438607
 20
-16.65771134519946
 30
0.0
 10
17.29356824304947
 20
-16.65895591874735
 30
0.0
 10
17.2876083463575
 20
-16.66017542728895
 30
0.0
 10
17.28147578839459
 20
-16.66143026562
 30
0.0
 10
17.2753378038064
 20
-16.66265856561575
 30
0.0
 10
17.26919383967116
 20
-16.66385628751237
 30
0.0
 10
17.26286812966802
 20
-16.66508943946691
 30
0.0
 10
17.25653608112093
 20
-16.66629017749083
 30
0.0
 10
17.25019740461731
 20
-16.6674549011435
 30
0.0
 10
17.2436720490584
 20
-16.66865392683245
 30
0.0
 10
17.23713966939699
 20
-16.66981478560951
 30
0.0
 10
17.23060019619015
 20
-16.67093433868368
 30
0.0
 10
17.22386869426731
 20
-16.6720867669349
 30
0.0
 10
17.21712967608477
 20
-16.67319542801932
 30
0.0
 10
17.2103833695431
 20
-16.67425767038498
 30
0.0
 10
17.20343925038383
 20
-16.67535105941465
 30
0.0
 10
17.19648740918627
 20
-16.67639526767304
 30
0.0
 10
17.18952807984134
 20
-16.67738796672534
 30
0.0
 10
17.17499149381117
 20
-16.67946150778966
 30
0.0
 10
17.16042223662851
 20
-16.6813103116768
 30
0.0
 10
17.14582673146479
 20
-16.68292173463138
 30
0.0
 10
17.13035941184792
 20
-16.68462941063146
 30
0.0
 10
17.1148626149267
 20
-16.68607050041585
 30
0.0
 10
17.09934539205763
 20
-16.68724020524956
 30
0.0
 10
17.08289401506605
 20
-16.68848032761879
 30
0.0
 10
17.06641967876976
 20
-16.68941540613751
 30
0.0
 10
17.04993330235948
 20
-16.69004794153925
 30
0.0
 10
17.03244380325582
 20
-16.6907189639075
 30
0.0
 10
17.0149407542888
 20
-16.69104950628267
 30
0.0
 10
16.9974397033303
 20
-16.69104950628267
 30
0.0
  0
SPLINE
  5
EA
330
70
100
AcDbEntity
  8
Layer 1
 62
    18
420
        0
370
     5
100
AcDbSpline
210
0.0
220
0.0
230
1.0
 70
     8
 71
     3
 72
   116
 73
   112
 74
     0
 42
0.0000000001
 43
0.0000000001
 40
0.0
 40
0.0
 40
0.0
 40
0.0
 40
1.0
 40
1.0
 40
1.0
 40
2.0
 40
2.0
 40
2.0
 40
3.0
 40
3.0
 40
3.0
 40
4.0
 40
4.0
 40
4.0
 40
5.0
 40
5.0
 40
5.0
 40
6.0
 40
6.0
 40
6.0
 40
7.0
 40
7.0
 40
7.0
 40
8.0
 40
8.0
 40
8.0
 40
9.0
 40
9.0
 40
9.0
 40
10.0
 40
10.0
 40
10.0
 40
11.0
 40
11.0
 40
11.0
 40
12.0
 40
12.0
 40
12.0
 40
13.0
 40
13.0
 40
13.0
 40
14.0
 40
14.0
 40
14.0
 40
15.0
 40
15.0
 40
15.0
 40
16.0
 40
16.0
 40
16.0
 40
17.0
 40
17.0
 40
17.0
 40
18.0
 40
18.0
 40
18.0
 40
19.0
 40
19.0
 40
19.0
 40
20.0
 40
20.0
 40
20.0
 40
21.0
 40
21.0
 40
21.0
 40
22.0
 40
22.0
 40
22.0
 40
23.0
 40
23.0
 40
23.0
 40
24.0
 40
24.0
 40
24.0
 40
25.0
 40
25.0
 40
25.0
 40
26.0
 40
26.0
 40
26.0
 40
27.0
 40
27.0
 40
27.0
 40
28.0
 40
28.0
 40
28.0
 40
29.0
 40
29.0
 40
29.0
 40
30.0
 40
30.0
 40
30.0
 40
31.0
 40
31.0
 40
31.0
 40
32.0
 40
32.0
 40
32.0
 40
33.0
 40
33.0
 40
33.0
 40
34.0
 40
34.0
 40
34.0
 40
35.0
 40
35.0
 40
35.0
 40
36.0
 40
36.0
 40
36.0
 40
37.0
 40
37.0
 40
37.0
 40
37.0
 10
18.27388344448546
 20
-16.41533765819311
 30
0.0
 10
18.27388344448546
 20
-16.42205144551664
 30
0.0
 10
18.27405169573704
 20
-16.42876705390745
 30
0.0
 10
18.27442001637701
 20
-16.43547187156453
 30
0.0
 10
18.2747598694353
 20
-16.44165847242233
 30
0.0
 10
18.27527006023991
 20
-16.44783588612108
 30
0.0
 10
18.27598060437028
 20
-16.45399086449209
 30
0.0
 10
18.27663737354391
 20
-16.45968002563672
 30
0.0
 10
18.27746531757081
 20
-16.46535001882428
 30
0.0
 10
18.27849151699941
 20
-16.47098448578466
 30
0.0
 10
18.2794427144846
 20
-16.4762071458774
 30
0.0
 10
18.28056424657138
 20
-16.48139928298964
 30
0.0
 10
18.28187906262105
 20
-16.4865425842573
 30
0.0
 10
18.28310260857309
 20
-16.49132885489032
 30
0.0
 10
18.2844935356172
 20
-16.49607283439455
 30
0.0
 10
18.28606954964349
 20
-16.50075500863785
 30
0.0
 10
18.28754365388219
 20
-16.50513441946979
 30
0.0
 10
18.28917968245044
 20
-16.5094597596411
 30
0.0
 10
18.29098928661693
 20
-16.51371160776708
 30
0.0
 10
18.29269223387958
 20
-16.51771285470398
 30
0.0
 10
18.2945488988476
 20
-16.52164901744307
 30
0.0
 10
18.2965645819166
 20
-16.52550223036016
 30
0.0
 10
18.29847444339657
 20
-16.52915315298661
 30
0.0
 10
18.30052706463519
 20
-16.53272960675379
 30
0.0
 10
18.30272174400983
 20
-16.53621672524961
 30
0.0
 10
18.30481607170178
 20
-16.5395443953026
 30
0.0
 10
18.3070397633289
 20
-16.54279071301244
 30
0.0
 10
18.30938708136975
 20
-16.54594494127511
 30
0.0
 10
18.31164266549134
 20
-16.54897590131602
 30
0.0
 10
18.31401240212042
 20
-16.55192182903273
 30
0.0
 10
18.31648690232037
 20
-16.55477672702043
 30
0.0
 10
18.31887966273042
 20
-16.55753731959577
 30
0.0
 10
18.3213703797479
 20
-16.56021279705573
 30
0.0
 10
18.32394751551025
 20
-16.56280193149923
 30
0.0
 10
18.32645255398984
 20
-16.56531863298788
 30
0.0
 10
18.32903924359238
 20
-16.56775375490411
 30
0.0
 10
18.33169522921849
 20
-16.57011040336553
 30
0.0
 10
18.33428701636613
 20
-16.57241008870023
 30
0.0
 10
18.33694479008105
 20
-16.57463504833425
 30
0.0
 10
18.33965635192726
 20
-16.57679199146145
 30
0.0
 10
18.34230898803647
 20
-16.57890206143196
 30
0.0
 10
18.34501309990724
 20
-16.58094703894774
 30
0.0
 10
18.34775719213858
 20
-16.58293654457407
 30
0.0
 10
18.35044467333697
 20
-16.58488500640187
 30
0.0
 10
18.35317050230999
 20
-16.58678026151791
 30
0.0
 10
18.35592405812116
 20
-16.58863391136709
 30
0.0
 10
18.35727951574502
 20
-16.58954638381803
 30
0.0
 10
18.3586416920567
 20
-16.59044877459988
 30
0.0
 10
18.36000922231157
 20
-16.59134297771086
 30
0.0
 10
18.36136225969736
 20
-16.59222770419885
 30
0.0
 10
18.36272053814708
 20
-16.59310441563967
 30
0.0
 10
18.36408365593024
 20
-16.59397356974803
 30
0.0
 10
18.3667675838887
 20
-16.59568490169646
 30
0.0
 10
18.36947027304162
 20
-16.59736693527452
 30
0.0
 10
18.37219182879042
 20
-16.59901779063039
 30
0.0
 10
18.37486075160273
 20
-16.60063671962755
 30
0.0
 10
18.37754781833417
 20
-16.60222566467066
 30
0.0
 10
18.380252923961
 20
-16.60378355511034
 30
0.0
 10
18.38552462201247
 20
-16.60681956520675
 30
0.0
 10
18.39086482826112
 20
-16.60973763599218
 30
0.0
 10
18.39626962543035
 20
-16.61253050039024
 30
0.0
 10
18.40152228100366
 20
-16.61524474743537
 30
0.0
 10
18.40683594229186
 20
-16.61784073784133
 30
0.0
 10
18.41220524890271
 20
-16.62031597669711
 30
0.0
 10
18.41746282134752
 20
-16.62273970634158
 30
0.0
 10
18.4227737472766
 20
-16.6250476577746
 30
0.0
 10
18.42813128283518
 20
-16.62724155503322
 30
0.0
 10
18.43341770777912
 20
-16.62940633267506
 30
0.0
 10
18.43874951326375
 20
-16.6314600637333
 30
0.0
 10
18.44411921577324
 20
-16.63340880650609
 30
0.0
 10
18.44945786591794
 20
-16.63534627992622
 30
0.0
 10
18.45483397604665
 20
-16.63717997581989
 30
0.0
 10
18.46024053620951
 20
-16.63891930205197
 30
0.0
 10
18.47111257863834
 20
-16.64241691014722
 30
0.0
 10
18.48210775222974
 20
-16.64553291452671
 30
0.0
 10
18.49316929328173
 20
-16.64837630956213
 30
0.0
 10
18.49880371665227
 20
-16.6498246512863
 30
0.0
 10
18.5044553596158
 20
-16.65120226223482
 30
0.0
 10
18.51011970706162
 20
-16.65252596356938
 30
0.0
 10
18.51589800336321
 20
-16.65387629361155
 30
0.0
 10
18.52168952043681
 20
-16.65517052323932
 30
0.0
 10
18.52748946224801
 20
-16.65642514578528
 30
0.0
 10
18.53343537943576
 20
-16.65771134519946
 30
0.0
 10
18.53939015077235
 20
-16.65895591874735
 30
0.0
 10
18.54535004746438
 20
-16.66017542728895
 30
0.0
 10
18.55148260542728
 20
-16.66143026562
 30
0.0
 10
18.55762059001548
 20
-16.66265856561575
 30
0.0
 10
18.56376455415071
 20
-16.66385628751237
 30
0.0
 10
18.57009026415385
 20
-16.66508943946691
 30
0.0
 10
18.57642231270089
 20
-16.66629017749083
 30
0.0
 10
18.58276098922084
 20
-16.6674549011435
 30
0.0
 10
18.58928634479647
 20
-16.66865392683245
 30
0.0
 10
18.59581872449194
 20
-16.66981478560951
 30
0.0
 10
18.60235819769983
 20
-16.67093433868368
 30
0.0
 10
18.60908969962358
 20
-16.6720867669349
 30
0.0
 10
18.61582871777217
 20
-16.67319542801932
 30
0.0
 10
18.62257502429651
 20
-16.67425767038498
 30
0.0
 10
18.62951914343799
 20
-16.67535105941465
 30
0.0
 10
18.6364709846355
 20
-16.67639526767304
 30
0.0
 10
18.64343031398049
 20
-16.67738796672534
 30
0.0
 10
18.65796690001065
 20
-16.67946150778966
 30
0.0
 10
18.67253615719331
 20
-16.6813103116768
 30
0.0
 10
18.68713166235703
 20
-16.68292173463138
 30
0.0
 10
18.70259898197405
 20
-16.68462941063146
 30
0.0
 10
18.71809577889517
 20
-16.68607050041585
 30
0.0
 10
18.73361300176414
 20
-16.68724020524956
 30
0.0
 10
18.75006437875577
 20
-16.68848032761879
 30
0.0
 10
18.76653871505212
 20
-16.68941540613751
 30
0.0
 10
18.78302509146245
 20
-16.69004794153925
 30
0.0
 10
18.80051459056605
 20
-16.6907189639075
 30
0.0
 10
18.81801763953303
 20
-16.69104950628267
 30
0.0
 10
18.83551869059374
 20
-16.69104950628267
 30
0.0
  0
LINE
  5
EB
330
70
100
AcDbEntity
  8
Layer 1
 62
    18
420
        0
370
     5
100
AcDbLine
 10
6.698903997996504
 20
-17.00760755408911
 30
0.0
 11
6.698903997996504
 21
-16.74465847698835
 31
0.0
  0
LINE
  5
EC
330
70
100
AcDbEntity
  8
Layer 1
 62
    18
420
        0
370
     5
100
AcDbLine
 10
7.357038390936129
 20
-10.13596836489134
 30
0.0
 11
7.357038390936129
 21
-12.48705885905552
 31
0.0
  0
LINE
  5
ED
330
70
100
AcDbEntity
  8
Layer 1
 62
    18
420
        0
370
     5
100
AcDbLine
 10
8.240337459815513
 20
-10.13596836489134
 30
0.0
 11
8.240337459815513
 21
-12.48705885905552
 31
0.0
  0
LINE
  5
EE
330
70
100
AcDbEntity
  8
Layer 1
 62
    18
420
        0
370
     5
100
AcDbLine
 10
8.898471852755113
 20
-17.00760755408911
 30
0.0
 11
8.898471852755113
 21
-16.74465847698835
 31
0.0
  0
LINE
  5
EF
330
70
100
AcDbEntity
  8
Layer 1
 62
    18
420
        0
370
     5
100
AcDbLine
 10
7.357038390936129
 20
-3.543085430537757
 30
0.0
 11
7.357038390936129
 21
-8.191351389423971
 31
0.0
  0
LINE
  5
F0
330
70
100
AcDbEntity
  8
Layer 1
 62
    18
420
        0
370
     5
100
AcDbLine
 10
8.240337459815513
 20
-3.543085430537757
 30
0.0
 11
8.240337459815513
 21
-8.191351389423971
 31
0.0
  0
SPLINE
  5
F1
330
70
100
AcDbEntity
  8
Layer 1
 62
    18
420
        0
370
     5
100
AcDbSpline
210
0.0
220
0.0
230
1.0
 70
     8
 71
     3
 72
    11
 73
     7
 74
     0
 42
0.0000000001
 43
0.0000000001
 40
0.0
 40
0.0
 40
0.0
 40
0.0
 40
1.0
 40
1.0
 40
1.0
 40
2.0
 40
2.0
 40
2.0
 40
2.0
 10
8.240337459815513
 20
-10.13523445170969
 30
0.0
 10
8.240337459815513
 20
-9.891318149068739
 30
0.0
 10
8.042604228016733
 20
-9.693584917269971
 30
0.0
 10
7.798687925375828
 20
-9.693584917269971
 30
0.0
 10
7.554771622734922
 20
-9.693584917269971
 30
0.0
 10
7.357038390936129
 20
-9.891318149068739
 30
0.0
 10
7.357038390936129
 20
-10.13523445170969
 30
0.0
  0
SPLINE
  5
F2
330
70
100
AcDbEntity
  8
Layer 1
 62
    18
420
        0
370
     5
100
AcDbSpline
210
0.0
220
0.0
230
1.0
 70
     8
 71
     3
 72
    11
 73
     7
 74
     0
 42
0.0000000001
 43
0.0000000001
 40
0.0
 40
0.0
 40
0.0
 40
0.0
 40
1.0
 40
1.0
 40
1.0
 40
2.0
 40
2.0
 40
2.0
 40
2.0
 10
8.240337459815513
 20
-3.543085430537757
 30
0.0
 10
8.240337459815513
 20
-3.299169127896826
 30
0.0
 10
8.042604228016733
 20
-3.101435896098059
 30
0.0
 10
7.798687925375828
 20
-3.101435896098059
 30
0.0
 10
7.554771622734922
 20
-3.101435896098059
 30
0.0
 10
7.357038390936129
 20
-3.299169127896826
 30
0.0
 10
7.357038390936129
 20
-3.543085430537757
 30
0.0
  0
LINE
  5
F3
330
70
100
AcDbEntity
  8
Layer 1
 62
    18
420
        0
370
     5
100
AcDbLine
 10
6.755067522607342
 20
-16.71402382720066
 30
0.0
 11
6.755067522607342
 21
-16.68463203894033
 31
0.0
  0
LINE
  5
F4
330
70
100
AcDbEntity
  8
Layer 1
 62
    18
420
        0
370
     5
100
AcDbLine
 10
7.357038390936129
 20
-15.66478873839393
 30
0.0
 11
7.357038390936129
 21
-12.48705885905552
 31
0.0
  0
LINE
  5
F5
330
70
100
AcDbEntity
  8
Layer 1
 62
    18
420
        0
370
     5
100
AcDbLine
 10
8.240337459815513
 20
-15.66478873839393
 30
0.0
 11
8.240337459815513
 21
-12.48705885905552
 31
0.0
  0
LINE
  5
F6
330
70
100
AcDbEntity
  8
Layer 1
 62
    18
420
        0
370
     5
100
AcDbLine
 10
8.842308328144287
 20
-16.71402382720066
 30
0.0
 11
8.842308328144287
 21
-16.68463203894033
 31
0.0
  0
LINE
  5
F7
330
70
100
AcDbEntity
  8
Layer 1
 62
    18
420
        0
370
     5
100
AcDbLine
 10
8.878048752896624
 20
-17.02803065394762
 30
0.0
 11
6.71932709785498
 21
-17.02803065394762
 31
0.0
  0
LINE
  5
F8
330
70
100
AcDbEntity
  8
Layer 1
 62
    18
420
        0
370
     5
100
AcDbLine
 10
8.88315452786124
 20
-16.72934115209452
 30
0.0
 11
6.714221322890377
 21
-16.72934115209452
 31
0.0
  0
LINE
  5
F9
330
70
100
AcDbEntity
  8
Layer 1
 62
    18
420
        0
370
     5
100
AcDbLine
 10
6.755067522607342
 20
-16.68463203894033
 30
0.0
 11
8.842308328144287
 21
-16.68463203894033
 31
0.0
  0
LINE
  5
FA
330
70
100
AcDbEntity
  8
Layer 1
 62
    18
420
        0
370
     5
100
AcDbLine
 10
16.8166952695827
 20
-17.00760755408911
 30
0.0
 11
16.8166952695827
 21
-16.74465847698835
 31
0.0
  0
LINE
  5
FB
330
70
100
AcDbEntity
  8
Layer 1
 62
    18
420
        0
370
     5
100
AcDbLine
 10
16.87285879419349
 20
-16.71402382720066
 30
0.0
 11
16.87285879419349
 21
-16.68463203894033
 31
0.0
  0
LINE
  5
FC
330
70
100
AcDbEntity
  8
Layer 1
 62
    18
420
        0
370
     5
100
AcDbLine
 10
17.4748296625223
 20
-15.66478873839393
 30
0.0
 11
17.4748296625223
 21
-12.432833185789
 31
0.0
  0
LINE
  5
FD
330
70
100
AcDbEntity
  8
Layer 1
 62
    18
420
        0
370
     5
100
AcDbLine
 10
18.35812873140164
 20
-15.66478873839393
 30
0.0
 11
18.35812873140164
 21
-12.432833185789
 31
0.0
  0
LINE
  5
FE
330
70
100
AcDbEntity
  8
Layer 1
 62
    18
420
        0
370
     5
100
AcDbLine
 10
18.96009959973046
 20
-16.71402382720066
 30
0.0
 11
18.96009959973046
 21
-16.68463203894033
 31
0.0
  0
LINE
  5
FF
330
70
100
AcDbEntity
  8
Layer 1
 62
    18
420
        0
370
     5
100
AcDbLine
 10
19.01626312434124
 20
-17.00760755408911
 30
0.0
 11
19.01626312434124
 21
-16.74465847698835
 31
0.0
  0
LINE
  5
100
330
70
100
AcDbEntity
  8
Layer 1
 62
    18
420
        0
370
     5
100
AcDbLine
 10
18.99584002448278
 20
-17.02803065394762
 30
0.0
 11
18.92231686499225
 21
-17.02803065394762
 31
0.0
  0
LINE
  5
101
330
70
100
AcDbEntity
  8
Layer 1
 62
    18
420
        0
370
     5
100
AcDbLine
 10
16.91064152893169
 20
-17.02803065394762
 30
0.0
 11
16.83711836944111
 21
-17.02803065394762
 31
0.0
  0
LINE
  5
102
330
70
100
AcDbEntity
  8
Layer 1
 62
    18
420
        0
370
     5
100
AcDbLine
 10
19.00094579944743
 20
-16.72934115209452
 30
0.0
 11
18.88147066527537
 21
-16.72934115209452
 31
0.0
  0
LINE
  5
103
330
70
100
AcDbEntity
  8
Layer 1
 62
    18
420
        0
370
     5
100
AcDbLine
 10
16.95148772864867
 20
-16.72934115209452
 30
0.0
 11
16.83201259447656
 21
-16.72934115209452
 31
0.0
  0
LINE
  5
104
330
70
100
AcDbEntity
  8
Layer 1
 62
    18
420
        0
370
     5
100
AcDbLine
 10
16.87285879419349
 20
-16.68463203894033
 30
0.0
 11
17.12270991536949
 21
-16.68463203894033
 31
0.0
  0
LINE
  5
105
330
70
100
AcDbEntity
  8
Layer 1
 62
    18
420
        0
370
     5
100
AcDbLine
 10
18.7102484785544
 20
-16.68463203894033
 30
0.0
 11
18.96009959973046
 21
-16.68463203894033
 31
0.0
  0
LINE
  5
106
330
70
100
AcDbEntity
  8
Layer 1
 62
    18
420
        0
370
     5
100
AcDbLine
 10
22.03625737086319
 20
-12.08039947473058
 30
0.0
 11
22.13113161645323
 21
-12.57092547800961
 31
0.0
  0
LINE
  5
107
330
70
100
AcDbEntity
  8
Layer 1
 62
    18
420
        0
370
     5
100
AcDbLine
 10
22.90348444944892
 20
-11.91266623672034
 30
0.0
 11
22.99835869514113
 21
-12.40319223999934
 31
0.0
  0
LINE
  5
108
330
70
100
AcDbEntity
  8
Layer 1
 62
    18
420
        0
370
     5
100
AcDbLine
 10
22.98218542710361
 20
-12.42712195832812
 30
0.0
 11
22.15506133478195
 21
-12.58709874604697
 31
0.0
  0
SPLINE
  5
109
330
70
100
AcDbEntity
  8
Layer 1
 62
    18
420
        0
370
     5
100
AcDbSpline
210
0.0
220
0.0
230
1.0
 70
     8
 71
     3
 72
     8
 73
     4
 74
     0
 42
0.0000000001
 43
0.0000000001
 40
0.0
 40
0.0
 40
0.0
 40
0.0
 40
1.0
 40
1.0
 40
1.0
 40
1.0
 10
6.698903997996504
 20
-17.00760755408911
 30
0.0
 10
6.698903997996504
 20
-17.01888692068529
 30
0.0
 10
6.708047731258893
 20
-17.02803065394762
 30
0.0
 10
6.71932709785498
 20
-17.02803065394762
 30
0.0
  0
SPLINE
  5
10A
330
70
100
AcDbEntity
  8
Layer 1
 62
    18
420
        0
370
     5
100
AcDbSpline
210
0.0
220
0.0
230
1.0
 70
     8
 71
     3
 72
     8
 73
     4
 74
     0
 42
0.0000000001
 43
0.0000000001
 40
0.0
 40
0.0
 40
0.0
 40
0.0
 40
1.0
 40
1.0
 40
1.0
 40
1.0
 10
6.739750197713482
 20
-16.72934115209452
 30
0.0
 10
6.748209722660564
 20
-16.72934115209452
 30
0.0
 10
6.755067522607342
 20
-16.72248335214772
 30
0.0
 10
6.755067522607342
 20
-16.71402382720066
 30
0.0
  0
SPLINE
  5
10B
330
70
100
AcDbEntity
  8
Layer 1
 62
    18
420
        0
370
     5
100
AcDbSpline
210
0.0
220
0.0
230
1.0
 70
     8
 71
     3
 72
     8
 73
     4
 74
     0
 42
0.0000000001
 43
0.0000000001
 40
0.0
 40
0.0
 40
0.0
 40
0.0
 40
1.0
 40
1.0
 40
1.0
 40
1.0
 10
6.714221322890377
 20
-16.72934115209452
 30
0.0
 10
6.705761797943321
 20
-16.72934115209452
 30
0.0
 10
6.698903997996504
 20
-16.73619895204127
 30
0.0
 10
6.698903997996504
 20
-16.74465847698835
 30
0.0
  0
SPLINE
  5
10C
330
70
100
AcDbEntity
  8
Layer 1
 62
    18
420
        0
370
     5
100
AcDbSpline
210
0.0
220
0.0
230
1.0
 70
     8
 71
     3
 72
     8
 73
     4
 74
     0
 42
0.0000000001
 43
0.0000000001
 40
0.0
 40
0.0
 40
0.0
 40
0.0
 40
1.0
 40
1.0
 40
1.0
 40
1.0
 10
6.765916294453504
 20
-16.6699810159193
 30
0.0
 10
6.759471095114475
 20
-16.67194679777003
 30
0.0
 10
6.755067522607342
 20
-16.67789372366097
 30
0.0
 10
6.755067522607342
 20
-16.68463203894033
 30
0.0
  0
SPLINE
  5
10D
330
70
100
AcDbEntity
  8
Layer 1
 62
    18
420
        0
370
     5
100
AcDbSpline
210
0.0
220
0.0
230
1.0
 70
     8
 71
     3
 72
     8
 73
     4
 74
     0
 42
0.0000000001
 43
0.0000000001
 40
0.0
 40
0.0
 40
0.0
 40
0.0
 40
1.0
 40
1.0
 40
1.0
 40
1.0
 10
7.798687925416086
 20
-12.44066940611982
 30
0.0
 10
7.807562406398434
 20
-12.44066929513832
 30
0.0
 10
7.816436759867251
 20
-12.44060212723568
 30
0.0
 10
7.82531022581688
 20
-12.44046790816421
 30
0.0
  0
SPLINE
  5
10E
330
70
100
AcDbEntity
  8
Layer 1
 62
    18
420
        0
370
     5
100
AcDbSpline
210
0.0
220
0.0
230
1.0
 70
     8
 71
     3
 72
     8
 73
     4
 74
     0
 42
0.0000000001
 43
0.0000000001
 40
0.0
 40
0.0
 40
0.0
 40
0.0
 40
1.0
 40
1.0
 40
1.0
 40
1.0
 10
7.469642509438067
 20
-12.48102344346049
 30
0.0
 10
7.468178831067625
 20
-12.48168735609617
 30
0.0
 10
7.466727906570895
 20
-12.48237903466123
 30
0.0
 10
7.46529052238769
 20
-12.48309810424752
 30
0.0
  0
SPLINE
  5
10F
330
70
100
AcDbEntity
  8
Layer 1
 62
    18
420
        0
370
     5
100
AcDbSpline
210
0.0
220
0.0
230
1.0
 70
     8
 71
     3
 72
     8
 73
     4
 74
     0
 42
0.0000000001
 43
0.0000000001
 40
0.0
 40
0.0
 40
0.0
 40
0.0
 40
1.0
 40
1.0
 40
1.0
 40
1.0
 10
8.878048752896624
 20
-17.02803065394762
 30
0.0
 10
8.889328119492738
 20
-17.02803065394762
 30
0.0
 10
8.898471852755113
 20
-17.01888692068529
 30
0.0
 10
8.898471852755113
 20
-17.00760755408911
 30
0.0
  0
SPLINE
  5
110
330
70
100
AcDbEntity
  8
Layer 1
 62
    18
420
        0
370
     5
100
AcDbSpline
210
0.0
220
0.0
230
1.0
 70
     8
 71
     3
 72
     8
 73
     4
 74
     0
 42
0.0000000001
 43
0.0000000001
 40
0.0
 40
0.0
 40
0.0
 40
0.0
 40
1.0
 40
1.0
 40
1.0
 40
1.0
 10
8.842308328144287
 20
-16.71402382720066
 30
0.0
 10
8.842308328144287
 20
-16.72248335214772
 30
0.0
 10
8.849166128091079
 20
-16.72934115209452
 30
0.0
 10
8.85762565303816
 20
-16.72934115209452
 30
0.0
  0
SPLINE
  5
111
330
70
100
AcDbEntity
  8
Layer 1
 62
    18
420
        0
370
     5
100
AcDbSpline
210
0.0
220
0.0
230
1.0
 70
     8
 71
     3
 72
     8
 73
     4
 74
     0
 42
0.0000000001
 43
0.0000000001
 40
0.0
 40
0.0
 40
0.0
 40
0.0
 40
1.0
 40
1.0
 40
1.0
 40
1.0
 10
8.898471852755113
 20
-16.74465847698835
 30
0.0
 10
8.898471852755113
 20
-16.73619895204127
 30
0.0
 10
8.89161405280836
 20
-16.72934115209452
 30
0.0
 10
8.88315452786124
 20
-16.72934115209452
 30
0.0
  0
SPLINE
  5
112
330
70
100
AcDbEntity
  8
Layer 1
 62
    18
420
        0
370
     5
100
AcDbSpline
210
0.0
220
0.0
230
1.0
 70
     8
 71
     3
 72
     8
 73
     4
 74
     0
 42
0.0000000001
 43
0.0000000001
 40
0.0
 40
0.0
 40
0.0
 40
0.0
 40
1.0
 40
1.0
 40
1.0
 40
1.0
 10
8.842308328144287
 20
-16.68463203894033
 30
0.0
 10
8.842308328144287
 20
-16.67789372366097
 30
0.0
 10
8.837904755637156
 20
-16.67194679777003
 30
0.0
 10
8.831459556298138
 20
-16.6699810159193
 30
0.0
  0
SPLINE
  5
113
330
70
100
AcDbEntity
  8
Layer 1
 62
    18
420
        0
370
     5
100
AcDbSpline
210
0.0
220
0.0
230
1.0
 70
     8
 71
     3
 72
     8
 73
     4
 74
     0
 42
0.0000000001
 43
0.0000000001
 40
0.0
 40
0.0
 40
0.0
 40
0.0
 40
1.0
 40
1.0
 40
1.0
 40
1.0
 10
7.772065835461603
 20
-12.44046791144908
 30
0.0
 10
7.780939231289797
 20
-12.44060212839976
 30
0.0
 10
7.789813514616184
 20
-12.44066929524143
 30
0.0
 10
7.798687925453034
 20
-12.44066940622196
 30
0.0
  0
SPLINE
  5
114
330
70
100
AcDbEntity
  8
Layer 1
 62
    18
420
        0
370
     5
100
AcDbSpline
210
0.0
220
0.0
230
1.0
 70
     8
 71
     3
 72
     8
 73
     4
 74
     0
 42
0.0000000001
 43
0.0000000001
 40
0.0
 40
0.0
 40
0.0
 40
0.0
 40
1.0
 40
1.0
 40
1.0
 40
1.0
 10
8.132084715988121
 20
-12.48309779757728
 30
0.0
 10
8.130647069378861
 20
-12.48237972240079
 30
0.0
 10
8.129196340709842
 20
-12.48168814261051
 30
0.0
 10
8.12773326559175
 20
-12.4810234088811
 30
0.0
  0
SPLINE
  5
115
330
70
100
AcDbEntity
  8
Layer 1
 62
    18
420
        0
370
     5
100
AcDbSpline
210
0.0
220
0.0
230
1.0
 70
     8
 71
     3
 72
    17
 73
    13
 74
     0
 42
0.0000000001
 43
0.0000000001
 40
0.0
 40
0.0
 40
0.0
 40
0.0
 40
1.0
 40
1.0
 40
1.0
 40
2.0
 40
2.0
 40
2.0
 40
3.0
 40
3.0
 40
3.0
 40
4.0
 40
4.0
 40
4.0
 40
4.0
 10
8.241973517545046
 20
-4.549575654383475
 30
0.0
 10
8.79784271902881
 20
-4.304755782008681
 30
0.0
 10
9.049998021596339
 20
-3.655669039852277
 30
0.0
 10
8.805178149221534
 20
-3.099799838368501
 30
0.0
 10
8.56035827684674
 20
-2.543930636884712
 30
0.0
 10
7.911271534690349
 20
-2.291775334317233
 30
0.0
 10
7.355402333206572
 20
-2.536595206692027
 30
0.0
 10
6.799533131722783
 20
-2.781415079066808
 30
0.0
 10
6.547377829155315
 20
-3.430501821223199
 30
0.0
 10
6.792197701530072
 20
-3.986371022706975
 30
0.0
 10
6.902969420643747
 20
-4.237880781508061
 30
0.0
 10
7.103892574410186
 20
-4.438803935273477
 30
0.0
 10
7.35540233321184
 20
-4.549575654385774
 30
0.0
  0
SPLINE
  5
116
330
70
100
AcDbEntity
  8
Layer 1
 62
    18
420
        0
370
     5
100
AcDbSpline
210
0.0
220
0.0
230
1.0
 70
     8
 71
     3
 72
    17
 73
    13
 74
     0
 42
0.0000000001
 43
0.0000000001
 40
0.0
 40
0.0
 40
0.0
 40
0.0
 40
1.0
 40
1.0
 40
1.0
 40
2.0
 40
2.0
 40
2.0
 40
3.0
 40
3.0
 40
3.0
 40
4.0
 40
4.0
 40
4.0
 40
4.0
 10
8.242168985274398
 20
-4.487790725635528
 30
0.0
 10
8.763915312841339
 20
-4.242862899414754
 30
0.0
 10
8.988321046694434
 20
-3.621350698206053
 30
0.0
 10
8.743393220473624
 20
-3.099604370639149
 30
0.0
 10
8.498465394252864
 20
-2.577858043072233
 30
0.0
 10
7.876953193044148
 20
-2.353452309219151
 30
0.0
 10
7.355206865477194
 20
-2.598380135439924
 30
0.0
 10
6.833460537910278
 20
-2.843307961660734
 30
0.0
 10
6.609054804057209
 20
-3.464820162869411
 30
0.0
 10
6.853982630277982
 20
-3.986566490436366
 30
0.0
 10
6.95746335123657
 20
-4.20700157520063
 30
0.0
 10
7.134771782577533
 20
-4.384310006148577
 30
0.0
 10
7.35520686757123
 20
-4.487790726618552
 30
0.0
  0
SPLINE
  5
117
330
70
100
AcDbEntity
  8
Layer 1
 62
    18
420
        0
370
     5
100
AcDbSpline
210
0.0
220
0.0
230
1.0
 70
     8
 71
     3
 72
    11
 73
     7
 74
     0
 42
0.0000000001
 43
0.0000000001
 40
0.0
 40
0.0
 40
0.0
 40
0.0
 40
1.0
 40
1.0
 40
1.0
 40
2.0
 40
2.0
 40
2.0
 40
2.0
 10
8.240337459815513
 20
-3.543085430537757
 30
0.0
 10
8.240337459815513
 20
-3.299169127896826
 30
0.0
 10
8.042604228016733
 20
-3.101435896098059
 30
0.0
 10
7.798687925375828
 20
-3.101435896098059
 30
0.0
 10
7.554771622734922
 20
-3.101435896098059
 30
0.0
 10
7.357038390936129
 20
-3.299169127896826
 30
0.0
 10
7.357038390936129
 20
-3.543085430537757
 30
0.0
  0
SPLINE
  5
118
330
70
100
AcDbEntity
  8
Layer 1
 62
    18
420
        0
370
     5
100
AcDbSpline
210
0.0
220
0.0
230
1.0
 70
     8
 71
     3
 72
    11
 73
     7
 74
     0
 42
0.0000000001
 43
0.0000000001
 40
0.0
 40
0.0
 40
0.0
 40
0.0
 40
1.0
 40
1.0
 40
1.0
 40
2.0
 40
2.0
 40
2.0
 40
2.0
 10
22.9034844495192
 20
-11.91266623667244
 30
0.0
 10
22.61620417615612
 20
-10.4273480304216
 30
0.0
 10
21.17922918817567
 20
-9.456146393948047
 30
0.0
 10
19.69391098192475
 20
-9.743426667311116
 30
0.0
 10
18.40550689866813
 20
-9.992621133306606
 30
0.0
 10
17.4748296625223
 20
-11.12055159876771
 30
0.0
 10
17.4748296625223
 20
-12.432833185789
 30
0.0
  0
SPLINE
  5
119
330
70
100
AcDbEntity
  8
Layer 1
 62
    18
420
        0
370
     5
100
AcDbSpline
210
0.0
220
0.0
230
1.0
 70
     8
 71
     3
 72
    11
 73
     7
 74
     0
 42
0.0000000001
 43
0.0000000001
 40
0.0
 40
0.0
 40
0.0
 40
0.0
 40
1.0
 40
1.0
 40
1.0
 40
2.0
 40
2.0
 40
2.0
 40
2.0
 10
22.03625737086749
 20
-12.08039947469137
 30
0.0
 10
21.84161360690203
 20
-11.07403755862025
 30
0.0
 10
20.86800613601493
 20
-10.41600998199742
 30
0.0
 10
19.86164421994368
 20
-10.61065374596289
 30
0.0
 10
18.98869942168873
 20
-10.77949286691233
 30
0.0
 10
18.35812873140164
 20
-11.54371043297962
 30
0.0
 10
18.35812873140164
 20
-12.432833185789
 30
0.0
  0
SPLINE
  5
11A
330
70
100
AcDbEntity
  8
Layer 1
 62
    18
420
        0
370
     5
100
AcDbSpline
210
0.0
220
0.0
230
1.0
 70
     8
 71
     3
 72
     8
 73
     4
 74
     0
 42
0.0000000001
 43
0.0000000001
 40
0.0
 40
0.0
 40
0.0
 40
0.0
 40
1.0
 40
1.0
 40
1.0
 40
1.0
 10
16.8166952695827
 20
-17.00760755408911
 30
0.0
 10
16.8166952695827
 20
-17.01888692068529
 30
0.0
 10
16.82583900284513
 20
-17.02803065394762
 30
0.0
 10
16.83711836944111
 20
-17.02803065394762
 30
0.0
  0
SPLINE
  5
11B
330
70
100
AcDbEntity
  8
Layer 1
 62
    18
420
        0
370
     5
100
AcDbSpline
210
0.0
220
0.0
230
1.0
 70
     8
 71
     3
 72
     8
 73
     4
 74
     0
 42
0.0000000001
 43
0.0000000001
 40
0.0
 40
0.0
 40
0.0
 40
0.0
 40
1.0
 40
1.0
 40
1.0
 40
1.0
 10
18.99584002448278
 20
-17.02803065394762
 30
0.0
 10
19.00711939107896
 20
-17.02803065394762
 30
0.0
 10
19.01626312434124
 20
-17.01888692068529
 30
0.0
 10
19.01626312434124
 20
-17.00760755408911
 30
0.0
  0
SPLINE
  5
11C
330
70
100
AcDbEntity
  8
Layer 1
 62
    18
420
        0
370
     5
100
AcDbSpline
210
0.0
220
0.0
230
1.0
 70
     8
 71
     3
 72
     8
 73
     4
 74
     0
 42
0.0000000001
 43
0.0000000001
 40
0.0
 40
0.0
 40
0.0
 40
0.0
 40
1.0
 40
1.0
 40
1.0
 40
1.0
 10
22.98218542711447
 20
-12.42712195829297
 30
0.0
 10
22.99325956099139
 20
-12.42498007368266
 30
0.0
 10
23.00050057971632
 20
-12.4142663738655
 30
0.0
 10
22.99835869510601
 20
-12.40319223998851
 30
0.0
  0
SPLINE
  5
11D
330
70
100
AcDbEntity
  8
Layer 1
 62
    18
420
        0
370
     5
100
AcDbSpline
210
0.0
220
0.0
230
1.0
 70
     8
 71
     3
 72
     8
 73
     4
 74
     0
 42
0.0000000001
 43
0.0000000001
 40
0.0
 40
0.0
 40
0.0
 40
0.0
 40
1.0
 40
1.0
 40
1.0
 40
1.0
 10
22.13113161648829
 20
-12.57092547802037
 30
0.0
 10
22.13327350109866
 20
-12.58199961189739
 30
0.0
 10
22.14398720091584
 20
-12.58924063062224
 30
0.0
 10
22.15506133479287
 20
-12.58709874601188
 30
0.0
  0
SPLINE
  5
11E
330
70
100
AcDbEntity
  8
Layer 1
 62
    18
420
        0
370
     5
100
AcDbSpline
210
0.0
220
0.0
230
1.0
 70
     8
 71
     3
 72
     8
 73
     4
 74
     0
 42
0.0000000001
 43
0.0000000001
 40
0.0
 40
0.0
 40
0.0
 40
0.0
 40
1.0
 40
1.0
 40
1.0
 40
1.0
 10
16.85754146929967
 20
-16.72934115209452
 30
0.0
 10
16.86600099424635
 20
-16.72934115209452
 30
0.0
 10
16.87285879419293
 20
-16.72248335214832
 30
0.0
 10
16.87285879419349
 20
-16.71402382720167
 30
0.0
  0
SPLINE
  5
11F
330
70
100
AcDbEntity
  8
Layer 1
 62
    18
420
        0
370
     5
100
AcDbSpline
210
0.0
220
0.0
230
1.0
 70
     8
 71
     3
 72
     8
 73
     4
 74
     0
 42
0.0000000001
 43
0.0000000001
 40
0.0
 40
0.0
 40
0.0
 40
0.0
 40
1.0
 40
1.0
 40
1.0
 40
1.0
 10
18.96009959973046
 20
-16.71402382720066
 30
0.0
 10
18.96009959973046
 20
-16.72248335214726
 30
0.0
 10
18.96695739967658
 20
-16.72934115209394
 30
0.0
 10
18.97541692462326
 20
-16.72934115209452
 30
0.0
  0
SPLINE
  5
120
330
70
100
AcDbEntity
  8
Layer 1
 62
    18
420
        0
370
     5
100
AcDbSpline
210
0.0
220
0.0
230
1.0
 70
     8
 71
     3
 72
     8
 73
     4
 74
     0
 42
0.0000000001
 43
0.0000000001
 40
0.0
 40
0.0
 40
0.0
 40
0.0
 40
1.0
 40
1.0
 40
1.0
 40
1.0
 10
16.83201259447656
 20
-16.72934115209452
 30
0.0
 10
16.82355306952947
 20
-16.72934115209452
 30
0.0
 10
16.8166952695827
 20
-16.73619895204127
 30
0.0
 10
16.8166952695827
 20
-16.74465847698835
 30
0.0
  0
SPLINE
  5
121
330
70
100
AcDbEntity
  8
Layer 1
 62
    18
420
        0
370
     5
100
AcDbSpline
210
0.0
220
0.0
230
1.0
 70
     8
 71
     3
 72
     8
 73
     4
 74
     0
 42
0.0000000001
 43
0.0000000001
 40
0.0
 40
0.0
 40
0.0
 40
0.0
 40
1.0
 40
1.0
 40
1.0
 40
1.0
 10
19.01626312434124
 20
-16.74465847698835
 30
0.0
 10
19.01626312434124
 20
-16.73619895204127
 30
0.0
 10
19.00940532439457
 20
-16.72934115209452
 30
0.0
 10
19.00094579944743
 20
-16.72934115209452
 30
0.0
  0
SPLINE
  5
122
330
70
100
AcDbEntity
  8
Layer 1
 62
    18
420
        0
370
     5
100
AcDbSpline
210
0.0
220
0.0
230
1.0
 70
     8
 71
     3
 72
     8
 73
     4
 74
     0
 42
0.0000000001
 43
0.0000000001
 40
0.0
 40
0.0
 40
0.0
 40
0.0
 40
1.0
 40
1.0
 40
1.0
 40
1.0
 10
18.96009959973046
 20
-16.68463203894033
 30
0.0
 10
18.96009959973046
 20
-16.67789372366097
 30
0.0
 10
18.95569602722328
 20
-16.67194679777003
 30
0.0
 10
18.94925082788434
 20
-16.6699810159193
 30
0.0
  0
SPLINE
  5
123
330
70
100
AcDbEntity
  8
Layer 1
 62
    18
420
        0
370
     5
100
AcDbSpline
210
0.0
220
0.0
230
1.0
 70
     8
 71
     3
 72
     8
 73
     4
 74
     0
 42
0.0000000001
 43
0.0000000001
 40
0.0
 40
0.0
 40
0.0
 40
0.0
 40
1.0
 40
1.0
 40
1.0
 40
1.0
 10
16.88370756603975
 20
-16.6699810159193
 30
0.0
 10
16.8772623667006
 20
-16.67194679777003
 30
0.0
 10
16.87285879419349
 20
-16.67789372366097
 30
0.0
 10
16.87285879419349
 20
-16.68463203894033
 30
0.0
  0
SPLINE
  5
124
330
70
100
AcDbEntity
  8
Layer 1
 62
    18
420
        0
370
     5
100
AcDbSpline
210
0.0
220
0.0
230
1.0
 70
     8
 71
     3
 72
    38
 73
    34
 74
     0
 42
0.0000000001
 43
0.0000000001
 40
0.0
 40
0.0
 40
0.0
 40
0.0
 40
1.0
 40
1.0
 40
1.0
 40
2.0
 40
2.0
 40
2.0
 40
3.0
 40
3.0
 40
3.0
 40
4.0
 40
4.0
 40
4.0
 40
5.0
 40
5.0
 40
5.0
 40
6.0
 40
6.0
 40
6.0
 40
7.0
 40
7.0
 40
7.0
 40
8.0
 40
8.0
 40
8.0
 40
9.0
 40
9.0
 40
9.0
 40
10.0
 40
10.0
 40
10.0
 40
11.0
 40
11.0
 40
11.0
 40
11.0
 10
7.798687925375828
 20
-12.43939944194911
 30
0.0
 10
7.816079168678735
 20
-12.43939944164281
 30
0.0
 10
7.833471402018517
 20
-12.43964109403514
 30
0.0
 10
7.850856548822977
 20
-12.44012938376007
 30
0.0
 10
7.867901584038299
 20
-12.44060812090563
 30
0.0
 10
7.884939807278732
 20
-12.44132393967634
 30
0.0
 10
7.901963445961692
 20
-12.44230154660765
 30
0.0
 10
7.918261546721484
 20
-12.44323748848028
 30
0.0
 10
7.934546279603497
 20
-12.4444133795009
 30
0.0
 10
7.950806171065614
 20
-12.4458702220367
 30
0.0
 10
7.966020598721203
 20
-12.4472333938277
 30
0.0
 10
7.981213276721935
 20
-12.44884254988705
 30
0.0
 10
7.996368792157542
 20
-12.45075860820856
 30
0.0
 10
8.010181287487107
 20
-12.45250487323864
 30
0.0
 10
8.023962914812562
 20
-12.45450605770856
 30
0.0
 10
8.037684013427298
 20
-12.45686031324276
 30
0.0
 10
8.043956576369598
 20
-12.45793655476202
 30
0.0
 10
8.05021648980173
 20
-12.4590865823568
 30
0.0
 10
8.056458671513899
 20
-12.46032685953966
 30
0.0
 10
8.062271536041899
 20
-12.46148183444638
 30
0.0
 10
8.068069024035859
 20
-12.46271507169119
 30
0.0
 10
8.073844358291783
 20
-12.46404544733018
 30
0.0
 10
8.079167402078812
 20
-12.46527163571452
 30
0.0
 10
8.08447162615942
 20
-12.4665803436292
 30
0.0
 10
8.08974761489498
 20
-12.46799594048282
 30
0.0
 10
8.094552127159431
 20
-12.46928503581368
 30
0.0
 10
8.099333224972156
 20
-12.47066276990196
 30
0.0
 10
8.10407770806095
 20
-12.47215783756042
 30
0.0
 10
8.108341132254635
 20
-12.47350131534436
 30
0.0
 10
8.11257499027978
 20
-12.47493953927798
 30
0.0
 10
8.116761589082646
 20
-12.47650826639382
 30
0.0
 10
8.120465871303798
 20
-12.47789626850213
 30
0.0
 10
8.124133156055979
 20
-12.47938643664714
 30
0.0
 10
8.12773326555474
 20
-12.48102340885953
 30
0.0
  0
SPLINE
  5
125
330
70
100
AcDbEntity
  8
Layer 1
 62
    18
420
        0
370
     5
100
AcDbSpline
210
0.0
220
0.0
230
1.0
 70
     8
 71
     3
 72
    11
 73
     7
 74
     0
 42
0.0000000001
 43
0.0000000001
 40
0.0
 40
0.0
 40
0.0
 40
0.0
 40
1.0
 40
1.0
 40
1.0
 40
2.0
 40
2.0
 40
2.0
 40
2.0
 10
8.132084715981097
 20
-12.48309779761257
 30
0.0
 10
8.13532147177908
 20
-12.48471830707048
 30
0.0
 10
8.138488630580265
 20
-12.48648485033274
 30
0.0
 10
8.14151034488432
 20
-12.48849050315334
 30
0.0
 10
8.143994724888203
 20
-12.49013950211916
 30
0.0
 10
8.1463807883617
 20
-12.49195013265307
 30
0.0
 10
8.148524721854389
 20
-12.49401424930167
 30
0.0
  0
SPLINE
  5
126
330
70
100
AcDbEntity
  8
Layer 1
 62
    18
420
        0
370
     5
100
AcDbSpline
210
0.0
220
0.0
230
1.0
 70
     8
 71
     3
 72
    11
 73
     7
 74
     0
 42
0.0000000001
 43
0.0000000001
 40
0.0
 40
0.0
 40
0.0
 40
0.0
 40
1.0
 40
1.0
 40
1.0
 40
2.0
 40
2.0
 40
2.0
 40
2.0
 10
7.448851129203577
 20
-12.49401424930167
 30
0.0
 10
7.450994994380986
 20
-12.49195019831328
 30
0.0
 10
7.453380974862953
 20
-12.49013961768663
 30
0.0
 10
7.455865268480642
 20
-12.48849066079618
 30
0.0
 10
7.458886862746743
 20
-12.48648506908608
 30
0.0
 10
7.462053895047195
 20
-12.48471857297929
 30
0.0
 10
7.465290522383888
 20
-12.48309810426541
 30
0.0
  0
SPLINE
  5
127
330
70
100
AcDbEntity
  8
Layer 1
 62
    18
420
        0
370
     5
100
AcDbSpline
210
0.0
220
0.0
230
1.0
 70
     8
 71
     3
 72
    38
 73
    34
 74
     0
 42
0.0000000001
 43
0.0000000001
 40
0.0
 40
0.0
 40
0.0
 40
0.0
 40
1.0
 40
1.0
 40
1.0
 40
2.0
 40
2.0
 40
2.0
 40
3.0
 40
3.0
 40
3.0
 40
4.0
 40
4.0
 40
4.0
 40
5.0
 40
5.0
 40
5.0
 40
6.0
 40
6.0
 40
6.0
 40
7.0
 40
7.0
 40
7.0
 40
8.0
 40
8.0
 40
8.0
 40
9.0
 40
9.0
 40
9.0
 40
10.0
 40
10.0
 40
10.0
 40
11.0
 40
11.0
 40
11.0
 40
11.0
 10
7.469642509427203
 20
-12.48102344347666
 30
0.0
 10
7.473242616066701
 20
-12.47938646993682
 30
0.0
 10
7.476909898213521
 20
-12.47789630081292
 30
0.0
 10
7.480614177901227
 20
-12.4765082978398
 30
0.0
 10
7.484800774495864
 20
-12.47493956950102
 30
0.0
 10
7.489034630419445
 20
-12.47350134453091
 30
0.0
 10
7.49329805260883
 20
-12.47215786588834
 30
0.0
 10
7.498042534231292
 20
-12.47066279703376
 30
0.0
 10
7.502823630709889
 20
-12.46928506200722
 30
0.0
 10
7.507628141676187
 20
-12.46799596579348
 30
0.0
 10
7.512904129491958
 20
-12.46658036783467
 30
0.0
 10
7.518208352701535
 20
-12.46527165890196
 30
0.0
 10
7.523531395648369
 20
-12.46404546960348
 30
0.0
 10
7.529306729513828
 20
-12.4627150928526
 30
0.0
 10
7.535104217157607
 20
-12.46148185463572
 30
0.0
 10
7.54091708137341
 20
-12.46032687887699
 30
0.0
 10
7.547159263466432
 20
-12.45908660063691
 30
0.0
 10
7.553419177327352
 20
-12.45793657214431
 30
0.0
 10
7.559691740721076
 20
-12.45686032979233
 30
0.0
 10
7.573412841986573
 20
-12.45450607215134
 30
0.0
 10
7.587194472085949
 20
-12.4525048859724
 30
0.0
 10
7.601006970238699
 20
-12.45075861946023
 30
0.0
 10
7.616162490418824
 20
-12.44884255930416
 30
0.0
 10
7.63135517323149
 20
-12.4472334017501
 30
0.0
 10
7.646569605737479
 20
-12.44587022867396
 30
0.0
 10
7.66282950425505
 20
-12.44441338459715
 30
0.0
 10
7.679114244242176
 20
-12.44323749233965
 30
0.0
 10
7.695412352100738
 20
-12.44230154958329
 30
0.0
 10
7.712435999814955
 20
-12.44132394163623
 30
0.0
 10
7.729474232082452
 20
-12.44060812228468
 30
0.0
 10
7.746519276361823
 20
-12.44012938469824
 30
0.0
 10
7.763904431692985
 20
-12.4396410945438
 30
0.0
 10
7.781296673597327
 20
-12.43939944184697
 30
0.0
 10
7.798687925375828
 20
-12.43939944194911
 30
0.0
  0
SPLINE
  5
128
330
70
100
AcDbEntity
  8
Layer 1
 62
    18
420
        0
370
     5
100
AcDbSpline
210
0.0
220
0.0
230
1.0
 70
     8
 71
     3
 72
    59
 73
    55
 74
     0
 42
0.0000000001
 43
0.0000000001
 40
0.0
 40
0.0
 40
0.0
 40
0.0
 40
1.0
 40
1.0
 40
1.0
 40
2.0
 40
2.0
 40
2.0
 40
3.0
 40
3.0
 40
3.0
 40
4.0
 40
4.0
 40
4.0
 40
5.0
 40
5.0
 40
5.0
 40
6.0
 40
6.0
 40
6.0
 40
7.0
 40
7.0
 40
7.0
 40
8.0
 40
8.0
 40
8.0
 40
9.0
 40
9.0
 40
9.0
 40
10.0
 40
10.0
 40
10.0
 40
11.0
 40
11.0
 40
11.0
 40
12.0
 40
12.0
 40
12.0
 40
13.0
 40
13.0
 40
13.0
 40
14.0
 40
14.0
 40
14.0
 40
15.0
 40
15.0
 40
15.0
 40
16.0
 40
16.0
 40
16.0
 40
17.0
 40
17.0
 40
17.0
 40
18.0
 40
18.0
 40
18.0
 40
18.0
 10
7.798687925171596
 20
-12.58747035272237
 30
0.0
 10
7.826660529378083
 20
-12.58747035272237
 30
0.0
 10
7.854635724807533
 20
-12.58694984500263
 30
0.0
 10
7.882590707328593
 20
-12.58588214695868
 30
0.0
 10
7.909514542084252
 20
-12.58485383203553
 30
0.0
 10
7.936419627577315
 20
-12.58331794962886
 30
0.0
 10
7.963276058436222
 20
-12.58117708942897
 30
0.0
 10
7.976002978535612
 20
-12.58016256308133
 30
0.0
 10
7.988718972306438
 20
-12.579012177401
 30
0.0
 10
8.001419117758372
 20
-12.5777055329526
 30
0.0
 10
8.01350413938476
 20
-12.57646217503384
 30
0.0
 10
8.025574810721284
 20
-12.575077328378
 30
0.0
 10
8.037624394124009
 20
-12.57352668330582
 30
0.0
 10
8.048956250695317
 20
-12.57206840155752
 30
0.0
 10
8.060269456696952
 20
-12.57046348453632
 30
0.0
 10
8.0715544800462
 20
-12.56867801065537
 30
0.0
 10
8.08203058591083
 20
-12.56702052065154
 30
0.0
 10
8.092482404617511
 20
-12.5652074309223
 30
0.0
 10
8.102896692877935
 20
-12.56319649613096
 30
0.0
 10
8.112437215621461
 20
-12.5613542800685
 30
0.0
 10
8.121946241387377
 20
-12.55934602490667
 30
0.0
 10
8.131403960574099
 20
-12.55711664600906
 30
0.0
 10
8.139938483900133
 20
-12.55510488335999
 30
0.0
 10
8.148431228156129
 20
-12.55291305912447
 30
0.0
 10
8.156853086565357
 20
-12.55046857732193
 30
0.0
 10
8.164342527859338
 20
-12.54829473372772
 30
0.0
 10
8.171775910520421
 20
-12.54592108102588
 30
0.0
 10
8.179104452055526
 20
-12.54325635974679
 30
0.0
 10
8.182427809848199
 20
-12.54204795802234
 30
0.0
 10
8.185729607540944
 20
-12.54077969937111
 30
0.0
 10
8.188999575974902
 20
-12.53943494147486
 30
0.0
 10
8.192059258217074
 20
-12.53817666270596
 30
0.0
 10
8.195091073341233
 20
-12.53685140740145
 30
0.0
 10
8.198085218910932
 20
-12.53543974387177
 30
0.0
 10
8.20355081062928
 20
-12.53286285630325
 30
0.0
 10
8.208890880583542
 20
-12.52999804091031
 30
0.0
 10
8.213969845105465
 20
-12.52672576192195
 30
0.0
 10
8.216321819772575
 20
-12.5252104299579
 30
0.0
 10
8.218617801814641
 20
-12.52360771966507
 30
0.0
 10
8.220821790254426
 20
-12.52188393459533
 30
0.0
 10
8.222947038939144
 20
-12.52022173352111
 30
0.0
 10
8.224986749737821
 20
-12.51844695417829
 30
0.0
 10
8.22689436840311
 20
-12.51653824484833
 30
0.0
 10
8.228773876766808
 20
-12.51465766189186
 30
0.0
 10
8.230525157282626
 20
-12.51264706699913
 30
0.0
 10
8.232110549853144
 20
-12.51051086782546
 30
0.0
 10
8.233717754004361
 20
-12.50834527916079
 30
0.0
 10
8.235154474290981
 20
-12.5060506063532
 30
0.0
 10
8.236357089771445
 20
-12.50363591072429
 30
0.0
 10
8.237596193905485
 20
-12.50114795061995
 30
0.0
 10
8.238586771735121
 20
-12.49853257395923
 30
0.0
 10
8.239261323734972
 20
-12.49583295575414
 30
0.0
 10
8.239977514352947
 20
-12.49296669602758
 30
0.0
 10
8.240337459815513
 20
-12.49000547367692
 30
0.0
 10
8.240337459815513
 20
-12.48705885905552
 30
0.0
  0
SPLINE
  5
129
330
70
100
AcDbEntity
  8
Layer 1
 62
    18
420
        0
370
     5
100
AcDbSpline
210
0.0
220
0.0
230
1.0
 70
     8
 71
     3
 72
    59
 73
    55
 74
     0
 42
0.0000000001
 43
0.0000000001
 40
0.0
 40
0.0
 40
0.0
 40
0.0
 40
1.0
 40
1.0
 40
1.0
 40
2.0
 40
2.0
 40
2.0
 40
3.0
 40
3.0
 40
3.0
 40
4.0
 40
4.0
 40
4.0
 40
5.0
 40
5.0
 40
5.0
 40
6.0
 40
6.0
 40
6.0
 40
7.0
 40
7.0
 40
7.0
 40
8.0
 40
8.0
 40
8.0
 40
9.0
 40
9.0
 40
9.0
 40
10.0
 40
10.0
 40
10.0
 40
11.0
 40
11.0
 40
11.0
 40
12.0
 40
12.0
 40
12.0
 40
13.0
 40
13.0
 40
13.0
 40
14.0
 40
14.0
 40
14.0
 40
15.0
 40
15.0
 40
15.0
 40
16.0
 40
16.0
 40
16.0
 40
17.0
 40
17.0
 40
17.0
 40
18.0
 40
18.0
 40
18.0
 40
18.0
 10
7.357038390936129
 20
-12.48705885905552
 30
0.0
 10
7.357038390936129
 20
-12.49000554229853
 30
0.0
 10
7.35739830319153
 20
-12.49296683525641
 30
0.0
 10
7.358114497796172
 20
-12.49583316674425
 30
0.0
 10
7.35878904328466
 20
-12.49853281145129
 30
0.0
 10
7.359779637977377
 20
-12.5011482182017
 30
0.0
 10
7.361018820169053
 20
-12.50363616043703
 30
0.0
 10
7.362221563208095
 20
-12.50605094272264
 30
0.0
 10
7.363658488867927
 20
-12.5083456466683
 30
0.0
 10
7.365265794650414
 20
-12.5105113348379
 30
0.0
 10
7.366851218040538
 20
-12.51264753861283
 30
0.0
 10
7.368602413910606
 20
-12.51465821562556
 30
0.0
 10
7.370481843428958
 20
-12.51653890421484
 30
0.0
 10
7.372389257045837
 20
-12.5184475956498
 30
0.0
 10
7.374428751455903
 20
-12.52022239887125
 30
0.0
 10
7.376553879941702
 20
-12.52188449666167
 30
0.0
 10
7.378757790294507
 20
-12.52360821104033
 30
0.0
 10
7.381053801590812
 20
-12.52521070876021
 30
0.0
 10
7.38340577354116
 20
-12.52672585801289
 30
0.0
 10
7.388485158743504
 20
-12.52999801722899
 30
0.0
 10
7.39382554412436
 20
-12.53286278368076
 30
0.0
 10
7.399291360078247
 20
-12.53543985643758
 30
0.0
 10
7.402285577195634
 20
-12.53685159723277
 30
0.0
 10
7.405317435211056
 20
-12.53817700302392
 30
0.0
 10
7.4083771900422
 20
-12.53943536297927
 30
0.0
 10
7.411647081256482
 20
-12.54078014397952
 30
0.0
 10
7.414948832633083
 20
-12.5420483538315
 30
0.0
 10
7.418272141229382
 20
-12.54325671146289
 30
0.0
 10
7.425600716828171
 20
-12.54592138734074
 30
0.0
 10
7.433034123625272
 20
-12.54829500620306
 30
0.0
 10
7.440523586247498
 20
-12.55046882715004
 30
0.0
 10
7.44894549742465
 20
-12.55291329184052
 30
0.0
 10
7.4574382913828
 20
-12.55510511138962
 30
0.0
 10
7.465972864746226
 20
-12.55711686461364
 30
0.0
 10
7.475430662764046
 20
-12.5593462385781
 30
0.0
 10
7.484939768026454
 20
-12.56135448189414
 30
0.0
 10
7.494480367333671
 20
-12.56319670050197
 30
0.0
 10
7.504894704329608
 20
-12.56520763134444
 30
0.0
 10
7.515346568026061
 20
-12.56702073559616
 30
0.0
 10
7.525822720365832
 20
-12.56867823234807
 30
0.0
 10
7.5371076904566
 20
-12.57046369715085
 30
0.0
 10
7.548420844407321
 20
-12.57206859937878
 30
0.0
 10
7.559752649487613
 20
-12.57352685886616
 30
0.0
 10
7.571802216217279
 20
-12.57507748516776
 30
0.0
 10
7.583872871647068
 20
-12.57646230356158
 30
0.0
 10
7.595957875980716
 20
-12.5777056447658
 30
0.0
 10
7.608657976705696
 20
-12.57901226891696
 30
0.0
 10
7.621373924152521
 20
-12.5801626477064
 30
0.0
 10
7.634100797948853
 20
-12.58117716745068
 30
0.0
 10
7.660957012118096
 20
-12.58331800423186
 30
0.0
 10
7.687861880583668
 20
-12.58485386986126
 30
0.0
 10
7.714785498016832
 20
-12.58588217036117
 30
0.0
 10
7.742740362600139
 20
-12.5869498575432
 30
0.0
 10
7.770715439929656
 20
-12.58747035272237
 30
0.0
 10
7.798687925784279
 20
-12.58747035272237
 30
0.0
  0
SPLINE
  5
12A
330
70
100
AcDbEntity
  8
Layer 1
 62
    18
420
        0
370
     5
100
AcDbSpline
210
0.0
220
0.0
230
1.0
 70
     8
 71
     3
 72
    59
 73
    55
 74
     0
 42
0.0000000001
 43
0.0000000001
 40
0.0
 40
0.0
 40
0.0
 40
0.0
 40
1.0
 40
1.0
 40
1.0
 40
2.0
 40
2.0
 40
2.0
 40
3.0
 40
3.0
 40
3.0
 40
4.0
 40
4.0
 40
4.0
 40
5.0
 40
5.0
 40
5.0
 40
6.0
 40
6.0
 40
6.0
 40
7.0
 40
7.0
 40
7.0
 40
8.0
 40
8.0
 40
8.0
 40
9.0
 40
9.0
 40
9.0
 40
10.0
 40
10.0
 40
10.0
 40
11.0
 40
11.0
 40
11.0
 40
12.0
 40
12.0
 40
12.0
 40
13.0
 40
13.0
 40
13.0
 40
14.0
 40
14.0
 40
14.0
 40
15.0
 40
15.0
 40
15.0
 40
16.0
 40
16.0
 40
16.0
 40
17.0
 40
17.0
 40
17.0
 40
18.0
 40
18.0
 40
18.0
 40
18.0
 10
7.357038390936129
 20
-15.66478873839393
 30
0.0
 10
7.357038390936129
 20
-15.691942020832
 30
0.0
 10
7.35672740188905
 20
-15.71909711743104
 30
0.0
 10
7.356003161818559
 20
-15.74624200736806
 30
0.0
 10
7.355274578019248
 20
-15.77354970249363
 30
0.0
 10
7.354127771272159
 20
-15.80084706815826
 30
0.0
 10
7.352447722650215
 20
-15.82811325629291
 30
0.0
 10
7.350772193359311
 20
-15.85530609837805
 30
0.0
 10
7.348566287176392
 20
-15.88246793044267
 30
0.0
 10
7.345697445761073
 20
-15.90956198422501
 30
0.0
 10
7.342858163577968
 20
-15.93637687324639
 30
0.0
 10
7.339369536947211
 20
-15.96312537350278
 30
0.0
 10
7.335077703585018
 20
-15.98974769038715
 30
0.0
 10
7.330857230762123
 20
-16.01592735660673
 30
0.0
 10
7.325860039075412
 20
-16.04198500068476
 30
0.0
 10
7.319913868497413
 20
-16.0678298738351
 30
0.0
 10
7.314093836484048
 20
-16.09312648905029
 30
0.0
 10
7.307364660690445
 20
-16.11821926478354
 30
0.0
 10
7.299531312807592
 20
-16.14296803364211
 30
0.0
 10
7.291869889071019
 20
-16.16717362338729
 30
0.0
 10
7.283152229488172
 20
-16.19105014088361
 30
0.0
 10
7.273299545986534
 20
-16.21445192721421
 30
0.0
 10
7.263575953596197
 20
-16.23754710036645
 30
0.0
 10
7.252746884897633
 20
-16.26017990083387
 30
0.0
 10
7.240804580101275
 20
-16.28221025888357
 30
0.0
 10
7.228864088825136
 20
-16.30423727147343
 30
0.0
 10
7.215810699530455
 20
-16.32566202460152
 30
0.0
 10
7.201698703804241
 20
-16.34636732999552
 30
0.0
 10
7.187389828605861
 20
-16.36736149953574
 30
0.0
 10
7.171992603242856
 20
-16.38761600697264
 30
0.0
 10
7.155634222729783
 20
-16.40704749202041
 30
0.0
 10
7.147294715737555
 20
-16.41695366856985
 30
0.0
 10
7.138705408051994
 20
-16.42664594462315
 30
0.0
 10
7.129883850895364
 20
-16.43612259196101
 30
0.0
 10
7.120914597753299
 20
-16.44575790321065
 30
0.0
 10
7.111705253107465
 20
-16.45517030492119
 30
0.0
 10
7.102281847238044
 20
-16.46436273895238
 30
0.0
 10
7.092720396196606
 20
-16.47368983460749
 30
0.0
 10
7.082938566351458
 20
-16.48279047068616
 30
0.0
 10
7.072958216541715
 20
-16.49166700612063
 30
0.0
 10
7.062876439659286
 20
-16.50063375091864
 30
0.0
 10
7.052592087320476
 20
-16.5093718170023
 30
0.0
 10
7.042120681151017
 20
-16.51788228464955
 30
0.0
 10
7.02105153304199
 20
-16.53500589731776
 30
0.0
 10
6.999225115289403
 20
-16.55120809936203
 30
0.0
 10
6.976737111609799
 20
-16.5664318792284
 30
0.0
 10
6.954394964149034
 20
-16.58155691831737
 30
0.0
 10
6.931399784965214
 20
-16.59571618607624
 30
0.0
 10
6.907797569977851
 20
-16.60878352855232
 30
0.0
 10
6.884760525588577
 20
-16.62153796489782
 30
0.0
 10
6.861145169069711
 20
-16.63325214359795
 30
0.0
 10
6.836968487182224
 20
-16.64370923877924
 30
0.0
 10
6.813777045613378
 20
-16.65374018980083
 30
0.0
 10
6.790069096383009
 20
-16.66261442618777
 30
0.0
 10
6.765916294492184
 20
-16.66998101594342
 30
0.0
  0
SPLINE
  5
12B
330
70
100
AcDbEntity
  8
Layer 1
 62
    18
420
        0
370
     5
100
AcDbSpline
210
0.0
220
0.0
230
1.0
 70
     8
 71
     3
 72
    59
 73
    55
 74
     0
 42
0.0000000001
 43
0.0000000001
 40
0.0
 40
0.0
 40
0.0
 40
0.0
 40
1.0
 40
1.0
 40
1.0
 40
2.0
 40
2.0
 40
2.0
 40
3.0
 40
3.0
 40
3.0
 40
4.0
 40
4.0
 40
4.0
 40
5.0
 40
5.0
 40
5.0
 40
6.0
 40
6.0
 40
6.0
 40
7.0
 40
7.0
 40
7.0
 40
8.0
 40
8.0
 40
8.0
 40
9.0
 40
9.0
 40
9.0
 40
10.0
 40
10.0
 40
10.0
 40
11.0
 40
11.0
 40
11.0
 40
12.0
 40
12.0
 40
12.0
 40
13.0
 40
13.0
 40
13.0
 40
14.0
 40
14.0
 40
14.0
 40
15.0
 40
15.0
 40
15.0
 40
16.0
 40
16.0
 40
16.0
 40
17.0
 40
17.0
 40
17.0
 40
18.0
 40
18.0
 40
18.0
 40
18.0
 10
8.240337459815513
 20
-15.66478873839393
 30
0.0
 10
8.240337459815513
 20
-15.691942020832
 30
0.0
 10
8.240648448913475
 20
-15.71909711743104
 30
0.0
 10
8.241372689009494
 20
-15.74624200736806
 30
0.0
 10
8.242101272834524
 20
-15.77354970249363
 30
0.0
 10
8.243248079581613
 20
-15.80084706815826
 30
0.0
 10
8.244928128203506
 20
-15.82811325629291
 30
0.0
 10
8.246603657494461
 20
-15.85530609837805
 30
0.0
 10
8.248809563677315
 20
-15.88246793044267
 30
0.0
 10
8.251678405092674
 20
-15.90956198422501
 30
0.0
 10
8.254517687275754
 20
-15.93637687324639
 30
0.0
 10
8.258006313906497
 20
-15.96312537350278
 30
0.0
 10
8.26229814726869
 20
-15.98974769038715
 30
0.0
 10
8.266518620091586
 20
-16.01592735660673
 30
0.0
 10
8.271515811778321
 20
-16.04198500068476
 30
0.0
 10
8.277461982356346
 20
-16.0678298738351
 30
0.0
 10
8.283282014369698
 20
-16.09312648905029
 30
0.0
 10
8.290011190163301
 20
-16.11821926478354
 30
0.0
 10
8.297844538046154
 20
-16.14296803364211
 30
0.0
 10
8.305505961782703
 20
-16.16717362338729
 30
0.0
 10
8.314223621365561
 20
-16.19105014088361
 30
0.0
 10
8.324076304849919
 20
-16.21445192721421
 30
0.0
 10
8.333799897223165
 20
-16.23754710036645
 30
0.0
 10
8.344628965887864
 20
-16.26017990083387
 30
0.0
 10
8.356571270684247
 20
-16.28221025888357
 30
0.0
 10
8.368511761960361
 20
-16.30423727147343
 30
0.0
 10
8.381565151288921
 20
-16.32566202460152
 30
0.0
 10
8.395677147032213
 20
-16.34636732999552
 30
0.0
 10
8.40998602224791
 20
-16.36736149953574
 30
0.0
 10
8.425383247610865
 20
-16.38761600697264
 30
0.0
 10
8.441741628123924
 20
-16.40704749202041
 30
0.0
 10
8.450081135116153
 20
-16.41695366856985
 30
0.0
 10
8.458670442801752
 20
-16.42664594462315
 30
0.0
 10
8.467491999958371
 20
-16.43612259196101
 30
0.0
 10
8.47646125310041
 20
-16.44575790321065
 30
0.0
 10
8.485670597746269
 20
-16.45517030492119
 30
0.0
 10
8.49509400361569
 20
-16.46436273895238
 30
0.0
 10
8.504655454657154
 20
-16.47368983460749
 30
0.0
 10
8.514437284502301
 20
-16.48279047068616
 30
0.0
 10
8.524417634299462
 20
-16.49166700612063
 30
0.0
 10
8.53449941116921
 20
-16.50063375091864
 30
0.0
 10
8.54478376348249
 20
-16.5093718170023
 30
0.0
 10
8.555255169641668
 20
-16.51788228464955
 30
0.0
 10
8.576324317730041
 20
-16.53500589731776
 30
0.0
 10
8.598150735523592
 20
-16.55120809936203
 30
0.0
 10
8.620638739223648
 20
-16.5664318792284
 30
0.0
 10
8.642980886704712
 20
-16.58155691831737
 30
0.0
 10
8.66597606588852
 20
-16.59571618607624
 30
0.0
 10
8.689578280858174
 20
-16.60878352855232
 30
0.0
 10
8.712615325230091
 20
-16.62153796489782
 30
0.0
 10
8.736230681714749
 20
-16.63325214359795
 30
0.0
 10
8.76040736361209
 20
-16.64370923877924
 30
0.0
 10
8.783598805190383
 20
-16.65374018980083
 30
0.0
 10
8.807306754470724
 20
-16.66261442618777
 30
0.0
 10
8.831459556361576
 20
-16.66998101594342
 30
0.0
  0
SPLINE
  5
12C
330
70
100
AcDbEntity
  8
Layer 1
 62
    18
420
        0
370
     5
100
AcDbSpline
210
0.0
220
0.0
230
1.0
 70
     8
 71
     3
 72
    62
 73
    58
 74
     0
 42
0.0000000001
 43
0.0000000001
 40
0.0
 40
0.0
 40
0.0
 40
0.0
 40
1.0
 40
1.0
 40
1.0
 40
2.0
 40
2.0
 40
2.0
 40
3.0
 40
3.0
 40
3.0
 40
4.0
 40
4.0
 40
4.0
 40
5.0
 40
5.0
 40
5.0
 40
6.0
 40
6.0
 40
6.0
 40
7.0
 40
7.0
 40
7.0
 40
8.0
 40
8.0
 40
8.0
 40
9.0
 40
9.0
 40
9.0
 40
10.0
 40
10.0
 40
10.0
 40
11.0
 40
11.0
 40
11.0
 40
12.0
 40
12.0
 40
12.0
 40
13.0
 40
13.0
 40
13.0
 40
14.0
 40
14.0
 40
14.0
 40
15.0
 40
15.0
 40
15.0
 40
16.0
 40
16.0
 40
16.0
 40
17.0
 40
17.0
 40
17.0
 40
18.0
 40
18.0
 40
18.0
 40
19.0
 40
19.0
 40
19.0
 40
19.0
 10
7.798687925375828
 20
-12.40319223999934
 30
0.0
 10
7.769965076247368
 20
-12.40319223999934
 30
0.0
 10
7.741239623415228
 20
-12.40372050417699
 30
0.0
 10
7.712534449680762
 20
-12.40480382433864
 30
0.0
 10
7.684884791573166
 20
-12.40584730982209
 30
0.0
 10
7.6572539486205
 20
-12.40740578194353
 30
0.0
 10
7.629671732521956
 20
-12.40957651250533
 30
0.0
 10
7.616601411687711
 20
-12.41060515156702
 30
0.0
 10
7.603542010041829
 20
-12.4117712736172
 30
0.0
 10
7.590498410114782
 20
-12.41309527041017
 30
0.0
 10
7.578090350642051
 20
-12.41435475636813
 30
0.0
 10
7.565696590546558
 20
-12.41575710719586
 30
0.0
 10
7.553323798611497
 20
-12.41732673847509
 30
0.0
 10
7.541696978986818
 20
-12.41880173456785
 30
0.0
 10
7.530088675345482
 20
-12.42042444805641
 30
0.0
 10
7.518508372059689
 20
-12.4222290995364
 30
0.0
 10
7.507775955211892
 20
-12.42390161807674
 30
0.0
 10
7.497067588566904
 20
-12.42573040768982
 30
0.0
 10
7.486396003114716
 20
-12.42775660068565
 30
0.0
 10
7.476656153583424
 20
-12.42960588680984
 30
0.0
 10
7.466946942898718
 20
-12.43161961055817
 30
0.0
 10
7.45728821647156
 20
-12.43385447116199
 30
0.0
 10
7.448633248870716
 20
-12.43585707950423
 30
0.0
 10
7.44001881785276
 20
-12.43803725077209
 30
0.0
 10
7.431472174085873
 20
-12.44046531367841
 30
0.0
 10
7.423975598485652
 20
-12.44259505695951
 30
0.0
 10
7.416531176290391
 20
-12.44491552036579
 30
0.0
 10
7.409188748534056
 20
-12.44752453927011
 30
0.0
 10
7.405916404485461
 20
-12.44868731645609
 30
0.0
 10
7.402664319298827
 20
-12.44990740859043
 30
0.0
 10
7.399441523945697
 20
-12.45120125504576
 30
0.0
 10
7.396485495915397
 20
-12.45238800318513
 30
0.0
 10
7.39355410946454
 20
-12.45363680094177
 30
0.0
 10
7.390658528472991
 20
-12.45496457792817
 30
0.0
 10
7.388023760272517
 20
-12.45617275845961
 30
0.0
 10
7.385418637835641
 20
-12.45744633124188
 30
0.0
 10
7.382858153140836
 20
-12.45880522668047
 30
0.0
 10
7.380548257183299
 20
-12.46003113015359
 30
0.0
 10
7.378274689326063
 20
-12.46132647284728
 30
0.0
 10
7.376057673855054
 20
-12.46271381861232
 30
0.0
 10
7.374075398895292
 20
-12.46395427038492
 30
0.0
 10
7.372138334640314
 20
-12.46526827384959
 30
0.0
 10
7.370274366669112
 20
-12.46668097102464
 30
0.0
 10
7.368621269950229
 20
-12.46793384934714
 30
0.0
 10
7.367025666226582
 20
-12.46926435401014
 30
0.0
 10
7.365525152666274
 20
-12.47069728576793
 30
0.0
 10
7.364200032881158
 20
-12.47196272333094
 30
0.0
 10
7.362949072464238
 20
-12.47330804222297
 30
0.0
 10
7.361820992691642
 20
-12.47475310603103
 30
0.0
 10
7.360820541312881
 20
-12.47603467858837
 30
0.0
 10
7.35991673859256
 20
-12.47739470298297
 30
0.0
 10
7.359167902129089
 20
-12.47883856030229
 30
0.0
 10
7.358490813101575
 20
-12.48014407892472
 30
0.0
 10
7.357940417688963
 20
-12.4815181356695
 30
0.0
 10
7.357571746343725
 20
-12.48294377071688
 30
0.0
 10
7.357224426210159
 20
-12.48428684161591
 30
0.0
 10
7.357038390936129
 20
-12.48567568960657
 30
0.0
 10
7.357038390936129
 20
-12.48705885905552
 30
0.0
  0
SPLINE
  5
12D
330
70
100
AcDbEntity
  8
Layer 1
 62
    18
420
        0
370
     5
100
AcDbSpline
210
0.0
220
0.0
230
1.0
 70
     8
 71
     3
 72
    74
 73
    70
 74
     0
 42
0.0000000001
 43
0.0000000001
 40
0.0
 40
0.0
 40
0.0
 40
0.0
 40
1.0
 40
1.0
 40
1.0
 40
2.0
 40
2.0
 40
2.0
 40
3.0
 40
3.0
 40
3.0
 40
4.0
 40
4.0
 40
4.0
 40
5.0
 40
5.0
 40
5.0
 40
6.0
 40
6.0
 40
6.0
 40
7.0
 40
7.0
 40
7.0
 40
8.0
 40
8.0
 40
8.0
 40
9.0
 40
9.0
 40
9.0
 40
10.0
 40
10.0
 40
10.0
 40
11.0
 40
11.0
 40
11.0
 40
12.0
 40
12.0
 40
12.0
 40
13.0
 40
13.0
 40
13.0
 40
14.0
 40
14.0
 40
14.0
 40
15.0
 40
15.0
 40
15.0
 40
16.0
 40
16.0
 40
16.0
 40
17.0
 40
17.0
 40
17.0
 40
18.0
 40
18.0
 40
18.0
 40
19.0
 40
19.0
 40
19.0
 40
20.0
 40
20.0
 40
20.0
 40
21.0
 40
21.0
 40
21.0
 40
22.0
 40
22.0
 40
22.0
 40
23.0
 40
23.0
 40
23.0
 40
23.0
 10
8.148524721854389
 20
-12.49401424930167
 30
0.0
 10
8.149707826310695
 20
-12.49515330787128
 30
0.0
 10
8.150818981246931
 20
-12.49637416436124
 30
0.0
 10
8.151797328708045
 20
-12.49769728602299
 30
0.0
 10
8.152653655212297
 20
-12.49885538597454
 30
0.0
 10
8.153408236254612
 20
-12.50009183254873
 30
0.0
 10
8.153992841301349
 20
-12.5014090088333
 30
0.0
 10
8.154520406572929
 20
-12.50259766854151
 30
0.0
 10
8.154909546736361
 20
-12.50385207293819
 30
0.0
 10
8.155105811004153
 20
-12.50513814560989
 30
0.0
 10
8.155294187723484
 20
-12.50637253306847
 30
0.0
 10
8.155304879782116
 20
-12.5076360945545
 30
0.0
 10
8.155136145577115
 20
-12.5088733007033
 30
0.0
 10
8.154961082584993
 20
-12.51015691128097
 30
0.0
 10
8.154592881273288
 20
-12.51141215240229
 30
0.0
 10
8.154083844808168
 20
-12.51260307621431
 30
0.0
 10
8.153521266755609
 20
-12.51391926404153
 30
0.0
 10
8.152786668738814
 20
-12.5151568929224
 30
0.0
 10
8.151948961992198
 20
-12.51631607559382
 30
0.0
 10
8.150992784922625
 20
-12.51763919241762
 30
0.0
 10
8.149902273199534
 20
-12.51886010601978
 30
0.0
 10
8.148736372615303
 20
-12.52000101346281
 30
0.0
 10
8.147396096553734
 20
-12.5213125583363
 30
0.0
 10
8.145956194498909
 20
-12.52251837548091
 30
0.0
 10
8.144459541693297
 20
-12.52364680282817
 30
0.0
 10
8.142748029191276
 20
-12.52493722737103
 30
0.0
 10
8.140962302040797
 20
-12.52612644696882
 30
0.0
 10
8.139132820493841
 20
-12.5272423772167
 30
0.0
 10
8.137060985585902
 20
-12.52850613592815
 30
0.0
 10
8.134933036071263
 20
-12.52967590172951
 30
0.0
 10
8.132770560561223
 20
-12.53077666998853
 30
0.0
 10
8.130348011109706
 20
-12.53200982408889
 30
0.0
 10
8.127882131615681
 20
-12.53315638643701
 30
0.0
 10
8.125388771514597
 20
-12.53423873339675
 30
0.0
 10
8.122626573441367
 20
-12.53543778069264
 30
0.0
 10
8.119830649281828
 20
-12.53655801845833
 30
0.0
 10
8.117012402617421
 20
-12.53761826031084
 30
0.0
 10
8.113922116429623
 20
-12.53878084511717
 30
0.0
 10
8.110804990253363
 20
-12.53987129242697
 30
0.0
 10
8.107669402541924
 20
-12.54090515861867
 30
0.0
 10
8.104261819920326
 20
-12.54202870699047
 30
0.0
 10
8.100832433975458
 20
-12.54308543229485
 30
0.0
 10
8.097387722131845
 20
-12.54408933628969
 30
0.0
 10
8.089698066039936
 20
-12.54633035870913
 30
0.0
 10
8.081932037978491
 20
-12.54830816214884
 30
0.0
 10
8.074126945978377
 20
-12.55011007603257
 30
0.0
 10
8.065300603952701
 20
-12.55214775966758
 30
0.0
 10
8.056424306637318
 20
-12.55396051427546
 30
0.0
 10
8.047517893894045
 20
-12.55560835149198
 30
0.0
 10
8.037670520732072
 20
-12.55743028232415
 30
0.0
 10
8.02778633262177
 20
-12.55905060801056
 30
0.0
 10
8.017879726136659
 20
-12.56051639341204
 30
0.0
 10
8.007135047792631
 20
-12.56210618025617
 30
0.0
 10
7.996363997565619
 20
-12.56351417344485
 30
0.0
 10
7.98557597249434
 20
-12.56477504259073
 30
0.0
 10
7.974070104170209
 20
-12.56611981091209
 30
0.0
 10
7.962544926805106
 20
-12.56729722428602
 30
0.0
 10
7.951007164296229
 20
-12.56833246550475
 30
0.0
 10
7.938878587655532
 20
-12.5694207183141
 30
0.0
 10
7.926736103976041
 20
-12.57035186575333
 30
0.0
 10
7.91458469968231
 20
-12.57114485663803
 30
0.0
 10
7.901975939510659
 20
-12.57196769420006
 30
0.0
 10
7.889357574577438
 20
-12.57264177958836
 30
0.0
 10
7.876733488518399
 20
-12.57317913909297
 30
0.0
 10
7.863799785666249
 20
-12.57372967781126
 30
0.0
 10
7.850860077615607
 20
-12.57413670175803
 30
0.0
 10
7.837917453060362
 20
-12.57440890070357
 30
0.0
 10
7.824842793218244
 20
-12.57468387650985
 30
0.0
 10
7.81176515706209
 20
-12.57482126242593
 30
0.0
 10
7.798687925375828
 20
-12.57482126232384
 30
0.0
  0
SPLINE
  5
12E
330
70
100
AcDbEntity
  8
Layer 1
 62
    18
420
        0
370
     5
100
AcDbSpline
210
0.0
220
0.0
230
1.0
 70
     8
 71
     3
 72
   119
 73
   115
 74
     0
 42
0.0000000001
 43
0.0000000001
 40
0.0
 40
0.0
 40
0.0
 40
0.0
 40
1.0
 40
1.0
 40
1.0
 40
2.0
 40
2.0
 40
2.0
 40
3.0
 40
3.0
 40
3.0
 40
4.0
 40
4.0
 40
4.0
 40
5.0
 40
5.0
 40
5.0
 40
6.0
 40
6.0
 40
6.0
 40
7.0
 40
7.0
 40
7.0
 40
8.0
 40
8.0
 40
8.0
 40
9.0
 40
9.0
 40
9.0
 40
10.0
 40
10.0
 40
10.0
 40
11.0
 40
11.0
 40
11.0
 40
12.0
 40
12.0
 40
12.0
 40
13.0
 40
13.0
 40
13.0
 40
14.0
 40
14.0
 40
14.0
 40
15.0
 40
15.0
 40
15.0
 40
16.0
 40
16.0
 40
16.0
 40
17.0
 40
17.0
 40
17.0
 40
18.0
 40
18.0
 40
18.0
 40
19.0
 40
19.0
 40
19.0
 40
20.0
 40
20.0
 40
20.0
 40
21.0
 40
21.0
 40
21.0
 40
22.0
 40
22.0
 40
22.0
 40
23.0
 40
23.0
 40
23.0
 40
24.0
 40
24.0
 40
24.0
 40
25.0
 40
25.0
 40
25.0
 40
26.0
 40
26.0
 40
26.0
 40
27.0
 40
27.0
 40
27.0
 40
28.0
 40
28.0
 40
28.0
 40
29.0
 40
29.0
 40
29.0
 40
30.0
 40
30.0
 40
30.0
 40
31.0
 40
31.0
 40
31.0
 40
32.0
 40
32.0
 40
32.0
 40
33.0
 40
33.0
 40
33.0
 40
34.0
 40
34.0
 40
34.0
 40
35.0
 40
35.0
 40
35.0
 40
36.0
 40
36.0
 40
36.0
 40
37.0
 40
37.0
 40
37.0
 40
38.0
 40
38.0
 40
38.0
 40
38.0
 10
7.798687925375828
 20
-12.58709874604697
 30
0.0
 10
7.826081760070236
 20
-12.58709874604697
 30
0.0
 10
7.85347807948728
 20
-12.58659499348144
 30
0.0
 10
7.880855056842657
 20
-12.58556182452124
 30
0.0
 10
7.9072259780715
 20
-12.58456662271677
 30
0.0
 10
7.933578952692477
 20
-12.58308019983224
 30
0.0
 10
7.959885553814286
 20
-12.58100989665104
 30
0.0
 10
7.972351706522949
 20
-12.58002882290869
 30
0.0
 10
7.984807445526534
 20
-12.57891663209938
 30
0.0
 10
7.99724811414809
 20
-12.57765386692795
 30
0.0
 10
8.009082497855059
 20
-12.57645264149336
 30
0.0
 10
8.020903244270938
 20
-12.57511516029568
 30
0.0
 10
8.032703989701165
 20
-12.57361811348056
 30
0.0
 10
8.043793173753391
 20
-12.57221133559811
 30
0.0
 10
8.054864696138427
 20
-12.57066365491778
 30
0.0
 10
8.06590951424889
 20
-12.56894245904555
 30
0.0
 10
8.076145725987316
 20
-12.56734727429782
 30
0.0
 10
8.086359000432391
 20
-12.5656030509062
 30
0.0
 10
8.096537196929538
 20
-12.5636705608584
 30
0.0
 10
8.105826772820199
 20
-12.56190678935303
 30
0.0
 10
8.115087128436394
 20
-12.55998618987756
 30
0.0
 10
8.124299330662982
 20
-12.55785466336442
 30
0.0
 10
8.132554153775634
 20
-12.55594465597495
 30
0.0
 10
8.140770312113961
 20
-12.55386528467587
 30
0.0
 10
8.148921822557616
 20
-12.551549498579
 30
0.0
 10
8.156071820392639
 20
-12.54951823508572
 30
0.0
 10
8.163172080031788
 20
-12.54730508097428
 30
0.0
 10
8.170175054913631
 20
-12.54481669277756
 30
0.0
 10
8.173296098970315
 20
-12.54370768277494
 30
0.0
 10
8.176397819808634
 20
-12.54254400430757
 30
0.0
 10
8.179471605238024
 20
-12.54130998245101
 30
0.0
 10
8.182290960417503
 20
-12.5401781058146
 30
0.0
 10
8.185086813450942
 20
-12.53898704906697
 30
0.0
 10
8.187848518399201
 20
-12.53772066797412
 30
0.0
 10
8.190361477441481
 20
-12.53656834943263
 30
0.0
 10
8.192846162785421
 20
-12.53535366435431
 30
0.0
 10
8.195288275144964
 20
-12.53405760416073
 30
0.0
 10
8.197491385871582
 20
-12.53288838518385
 30
0.0
 10
8.199659848814309
 20
-12.53165293952704
 30
0.0
 10
8.201774374421777
 20
-12.53032973872657
 30
0.0
 10
8.203665007955338
 20
-12.52914664224552
 30
0.0
 10
8.205512521533654
 20
-12.52789339031733
 30
0.0
 10
8.207290315113381
 20
-12.52654601935627
 30
0.0
 10
8.20886698081569
 20
-12.52535108108734
 30
0.0
 10
8.210388809485644
 20
-12.52408211515712
 30
0.0
 10
8.211819946253879
 20
-12.52271540897969
 30
0.0
 10
8.213083799633055
 20
-12.52150845499816
 30
0.0
 10
8.21427692367029
 20
-12.52022527476889
 30
0.0
 10
8.215352849992882
 20
-12.51884711957397
 30
0.0
 10
8.216307048802224
 20
-12.51762488528301
 30
0.0
 10
8.217169068648482
 20
-12.51632795078249
 30
0.0
 10
8.21788328786345
 20
-12.51495056646687
 30
0.0
 10
8.218529075839278
 20
-12.51370515299941
 30
0.0
 10
8.21905402870613
 20
-12.51239396740298
 30
0.0
 10
8.219405658387294
 20
-12.51103517084023
 30
0.0
 10
8.219736923395872
 20
-12.50975506913316
 30
0.0
 10
8.219914359928615
 20
-12.50843271155387
 30
0.0
 10
8.219914359976048
 20
-12.50711035398869
 30
0.0
 10
8.219914360023507
 20
-12.50578799642348
 30
0.0
 10
8.219736923585729
 20
-12.50446563887243
 30
0.0
 10
8.219405658800205
 20
-12.503185537121
 30
0.0
 10
8.219054029385372
 20
-12.50182674062529
 30
0.0
 10
8.218529076958297
 20
-12.50051555500613
 30
0.0
 10
8.217883289370938
 20
-12.49927014146545
 30
0.0
 10
8.217169070620531
 20
-12.49789275713634
 30
0.0
 10
8.216307051190419
 20
-12.49659582255279
 30
0.0
 10
8.215352852755952
 20
-12.49537358821819
 30
0.0
 10
8.214276926857968
 20
-12.49399543297666
 30
0.0
 10
8.213083803193208
 20
-12.4927122527504
 30
0.0
 10
8.211819950104427
 20
-12.49150529882576
 30
0.0
 10
8.21038881355744
 20
-12.49013859261019
 30
0.0
 10
8.208866984989766
 20
-12.48886962672564
 30
0.0
 10
8.207290319450368
 20
-12.48767468843824
 30
0.0
 10
8.205512526159496
 20
-12.4863273175361
 30
0.0
 10
8.20366501295536
 20
-12.48507406557418
 30
0.0
 10
8.201774379776969
 20
-12.48389096905501
 30
0.0
 10
8.199659854664723
 20
-12.48256776827313
 30
0.0
 10
8.197491392198482
 20
-12.48133232262138
 30
0.0
 10
8.195288281934999
 20
-12.48016310364859
 30
0.0
 10
8.192846169971529
 20
-12.47886704339743
 30
0.0
 10
8.190361485003171
 20
-12.47765235826826
 30
0.0
 10
8.187848526312512
 20
-12.47650003973798
 30
0.0
 10
8.185086821534657
 20
-12.47523365855851
 30
0.0
 10
8.182290968637339
 20
-12.47404260181085
 30
0.0
 10
8.17947161356988
 20
-12.47291072520501
 30
0.0
 10
8.176397828061908
 20
-12.47167670330112
 30
0.0
 10
8.173296107112694
 20
-12.47051302483207
 30
0.0
 10
8.170175062977579
 20
-12.46940401476591
 30
0.0
 10
8.163172088299941
 20
-12.46691562656181
 30
0.0
 10
8.156071829038991
 20
-12.46470247210209
 30
0.0
 10
8.148921831491191
 20
-12.46267120841081
 30
0.0
 10
8.140770321488577
 20
-12.46035542212043
 30
0.0
 10
8.132554163474789
 20
-12.45827605081675
 30
0.0
 10
8.124299340726249
 20
-12.45636604335828
 30
0.0
 10
8.115087139467352
 20
-12.45423451689791
 30
0.0
 10
8.105826784874048
 20
-12.45231391736936
 30
0.0
 10
8.096537209980787
 20
-12.45055014585298
 30
0.0
 10
8.086359014369804
 20
-12.44861765575393
 30
0.0
 10
8.076145740778896
 20
-12.44687343236915
 30
0.0
 10
8.065909529895154
 20
-12.44527824768268
 30
0.0
 10
8.054864711798472
 20
-12.44355705173497
 30
0.0
 10
8.04379318942353
 20
-12.44200937107105
 30
0.0
 10
8.032704005379287
 20
-12.44060259302943
 30
0.0
 10
8.02090325949123
 20
-12.43910554598566
 30
0.0
 10
8.009082512613581
 20
-12.437768064373
 30
0.0
 10
7.997248128444438
 20
-12.43656683873377
 30
0.0
 10
7.984807458133218
 20
-12.43530407322504
 30
0.0
 10
7.972351717436557
 20
-12.43419188233995
 30
0.0
 10
7.959885563037182
 20
-12.43321080847606
 30
0.0
 10
7.933578958359046
 20
-12.43114050503916
 30
0.0
 10
7.907225980192315
 20
-12.42965408169425
 30
0.0
 10
7.880855055402396
 20
-12.42865887972438
 30
0.0
 10
7.853478078568198
 20
-12.42762571075152
 30
0.0
 10
7.826081759661733
 20
-12.42712195832812
 30
0.0
 10
7.798687925375828
 20
-12.42712195832812
 30
0.0
  0
SPLINE
  5
12F
330
70
100
AcDbEntity
  8
Layer 1
 62
    18
420
        0
370
     5
100
AcDbSpline
210
0.0
220
0.0
230
1.0
 70
     8
 71
     3
 72
   119
 73
   115
 74
     0
 42
0.0000000001
 43
0.0000000001
 40
0.0
 40
0.0
 40
0.0
 40
0.0
 40
1.0
 40
1.0
 40
1.0
 40
2.0
 40
2.0
 40
2.0
 40
3.0
 40
3.0
 40
3.0
 40
4.0
 40
4.0
 40
4.0
 40
5.0
 40
5.0
 40
5.0
 40
6.0
 40
6.0
 40
6.0
 40
7.0
 40
7.0
 40
7.0
 40
8.0
 40
8.0
 40
8.0
 40
9.0
 40
9.0
 40
9.0
 40
10.0
 40
10.0
 40
10.0
 40
11.0
 40
11.0
 40
11.0
 40
12.0
 40
12.0
 40
12.0
 40
13.0
 40
13.0
 40
13.0
 40
14.0
 40
14.0
 40
14.0
 40
15.0
 40
15.0
 40
15.0
 40
16.0
 40
16.0
 40
16.0
 40
17.0
 40
17.0
 40
17.0
 40
18.0
 40
18.0
 40
18.0
 40
19.0
 40
19.0
 40
19.0
 40
20.0
 40
20.0
 40
20.0
 40
21.0
 40
21.0
 40
21.0
 40
22.0
 40
22.0
 40
22.0
 40
23.0
 40
23.0
 40
23.0
 40
24.0
 40
24.0
 40
24.0
 40
25.0
 40
25.0
 40
25.0
 40
26.0
 40
26.0
 40
26.0
 40
27.0
 40
27.0
 40
27.0
 40
28.0
 40
28.0
 40
28.0
 40
29.0
 40
29.0
 40
29.0
 40
30.0
 40
30.0
 40
30.0
 40
31.0
 40
31.0
 40
31.0
 40
32.0
 40
32.0
 40
32.0
 40
33.0
 40
33.0
 40
33.0
 40
34.0
 40
34.0
 40
34.0
 40
35.0
 40
35.0
 40
35.0
 40
36.0
 40
36.0
 40
36.0
 40
37.0
 40
37.0
 40
37.0
 40
38.0
 40
38.0
 40
38.0
 40
38.0
 10
7.798687925375828
 20
-12.42712195832812
 30
0.0
 10
7.77129409068142
 20
-12.42712195832812
 30
0.0
 10
7.743897771264363
 20
-12.42762571084161
 30
0.0
 10
7.716520793930448
 20
-12.42865887979779
 30
0.0
 10
7.690149872722346
 20
-12.42965408159845
 30
0.0
 10
7.663796898142019
 20
-12.43114050452358
 30
0.0
 10
7.637490297033245
 20
-12.43321080768186
 30
0.0
 10
7.625024144330811
 20
-12.43419188141332
 30
0.0
 10
7.612568405327212
 20
-12.43530407219749
 30
0.0
 10
7.600127736705657
 20
-12.43656683737511
 30
0.0
 10
7.5882933529987
 20
-12.43776806281544
 30
0.0
 10
7.576472606582809
 20
-12.4391055440473
 30
0.0
 10
7.564671861133888
 20
-12.44060259086025
 30
0.0
 10
7.553582677064
 20
-12.4420093687406
 30
0.0
 10
7.542511154644834
 20
-12.4435570493868
 30
0.0
 10
7.531466336517937
 20
-12.44527824526173
 30
0.0
 10
7.521230124764264
 20
-12.44687343001199
 30
0.0
 10
7.511016850319227
 20
-12.4486176534377
 30
0.0
 10
7.500838653841646
 20
-12.45055014350181
 30
0.0
 10
7.491549077968834
 20
-12.45231391502201
 30
0.0
 10
7.48228872238677
 20
-12.45423451449748
 30
0.0
 10
7.47307652015623
 20
-12.45636604099056
 30
0.0
 10
7.464821697040052
 20
-12.45827604836212
 30
0.0
 10
7.456605538667594
 20
-12.46035541962692
 30
0.0
 10
7.448454028231973
 20
-12.46267120573189
 30
0.0
 10
7.441304030404012
 20
-12.46470246923225
 30
0.0
 10
7.434203770804337
 20
-12.46691562338315
 30
0.0
 10
7.427200795934658
 20
-12.46940401159206
 30
0.0
 10
7.424079751883444
 20
-12.4705130216001
 30
0.0
 10
7.420978031045112
 20
-12.47167670006744
 30
0.0
 10
7.417904245615722
 20
-12.47291072192405
 30
0.0
 10
7.415084890436205
 20
-12.47404259856044
 30
0.0
 10
7.412289037402804
 20
-12.47523365530815
 30
0.0
 10
7.409527332434953
 20
-12.47650003640089
 30
0.0
 10
7.407014373374837
 20
-12.47765235494242
 30
0.0
 10
7.404529687996891
 20
-12.47886704002078
 30
0.0
 10
7.402087575621193
 20
-12.48016310021431
 30
0.0
 10
7.39988446488006
 20
-12.48133231919127
 30
0.0
 10
7.397716001937332
 20
-12.482567764848
 30
0.0
 10
7.395601476349888
 20
-12.48389096564854
 30
0.0
 10
7.393710842834277
 20
-12.48507406212954
 30
0.0
 10
7.39186332928994
 20
-12.48632731405776
 30
0.0
 10
7.390085535726193
 20
-12.48767468501882
 30
0.0
 10
7.388508870038068
 20
-12.48886962328768
 30
0.0
 10
7.386987041368128
 20
-12.49013858921795
 30
0.0
 10
7.38555590459983
 20
-12.49150529539535
 30
0.0
 10
7.384292051220667
 20
-12.49271224937696
 30
0.0
 10
7.383098927183444
 20
-12.4939954296062
 30
0.0
 10
7.382023000840742
 20
-12.49537358478096
 30
0.0
 10
7.381068802013575
 20
-12.49659581905406
 30
0.0
 10
7.380206782133604
 20
-12.4978927535209
 30
0.0
 10
7.379492562902643
 20
-12.49927013782045
 30
0.0
 10
7.378846774912365
 20
-12.50051555127354
 30
0.0
 10
7.378321822045462
 20
-12.50182673686989
 30
0.0
 10
7.377970192364361
 20
-12.50318553343272
 30
0.0
 10
7.377638927355721
 20
-12.50446563513977
 30
0.0
 10
7.377461490823027
 20
-12.5057879927191
 30
0.0
 10
7.377461490792269
 20
-12.50711035030096
 30
0.0
 10
7.377461490761472
 20
-12.5084327078828
 30
0.0
 10
7.377638927232636
 20
-12.50975506546724
 30
0.0
 10
7.377970192035351
 20
-12.51103516723585
 30
0.0
 10
7.378321821468388
 20
-12.51239396374977
 30
0.0
 10
7.378846773895449
 20
-12.51370514936896
 30
0.0
 10
7.379492561482783
 20
-12.51495056289513
 30
0.0
 10
7.380206780233227
 20
-12.51632794720828
 30
0.0
 10
7.381068799663315
 20
-12.51762488175811
 30
0.0
 10
7.382022998097782
 20
-12.51884711608891
 30
0.0
 10
7.383098923995766
 20
-12.52022527132633
 30
0.0
 10
7.384292047660538
 20
-12.52150845158634
 30
0.0
 10
7.385555900749332
 20
-12.52271540551485
 30
0.0
 10
7.386987037296332
 20
-12.52408211173494
 30
0.0
 10
7.388508865863993
 20
-12.52535107758556
 30
0.0
 10
7.390085531403378
 20
-12.52654601586911
 30
0.0
 10
7.391863324694213
 20
-12.52789338676694
 30
0.0
 10
7.393710837898374
 20
-12.52914663876287
 30
0.0
 10
7.395601471062427
 20
-12.53032973529992
 30
0.0
 10
7.397715996158644
 20
-12.53165293610191
 30
0.0
 10
7.399884458590854
 20
-12.53288838175374
 30
0.0
 10
7.402087568851015
 20
-12.53405760072645
 30
0.0
 10
7.40452968081081
 20
-12.53535366097766
 30
0.0
 10
7.407014365813197
 20
-12.53656834610676
 30
0.0
 10
7.409527324521667
 20
-12.53772066463706
 30
0.0
 10
7.412289029319063
 20
-12.53898704581661
 30
0.0
 10
7.415084882216369
 20
-12.54017810256414
 30
0.0
 10
7.417904237273066
 20
-12.54130997917008
 30
0.0
 10
7.420978022769304
 20
-12.54254400107392
 30
0.0
 10
7.424079743694
 20
-12.54370767954303
 30
0.0
 10
7.427200787817556
 20
-12.54481668960918
 30
0.0
 10
7.434203762469273
 20
-12.54730507781331
 30
0.0
 10
7.441304021769724
 20
-12.54951823227298
 30
0.0
 10
7.448454019324584
 20
-12.55154949596428
 30
0.0
 10
7.456605529335231
 20
-12.55386528225462
 30
0.0
 10
7.464821687314914
 20
-12.55594465355832
 30
0.0
 10
7.473076510045491
 20
-12.55785466101681
 30
0.0
 10
7.482288711284278
 20
-12.55998618747718
 30
0.0
 10
7.491549065877556
 20
-12.56190678700563
 30
0.0
 10
7.500838640770817
 20
-12.56367055852201
 30
0.0
 10
7.511016836381801
 20
-12.56560304862117
 30
0.0
 10
7.52123010997276
 20
-12.56734727200594
 30
0.0
 10
7.531466320871673
 20
-12.56894245669241
 30
0.0
 10
7.542511138984789
 20
-12.5706636526401
 30
0.0
 10
7.553582661393861
 20
-12.57221133330399
 30
0.0
 10
7.56467184545574
 20
-12.57361811133016
 30
0.0
 10
7.576472591362529
 20
-12.57511515835729
 30
0.0
 10
7.58829333824014
 20
-12.57645263993585
 30
0.0
 10
7.600127722409271
 20
-12.57765386556917
 30
0.0
 10
7.612568392720529
 20
-12.57891663107183
 30
0.0
 10
7.625024133417177
 20
-12.58002882198204
 30
0.0
 10
7.637490287816553
 20
-12.58100989586301
 30
0.0
 10
7.663796892494675
 20
-12.58308019933585
 30
0.0
 10
7.690149870661457
 20
-12.58456662268077
 30
0.0
 10
7.716520795451351
 20
-12.58556182465071
 30
0.0
 10
7.743897772285587
 20
-12.58659499362352
 30
0.0
 10
7.771294091192
 20
-12.58709874604697
 30
0.0
 10
7.798687925375828
 20
-12.58709874604697
 30
0.0
  0
SPLINE
  5
130
330
70
100
AcDbEntity
  8
Layer 1
 62
    18
420
        0
370
     5
100
AcDbSpline
210
0.0
220
0.0
230
1.0
 70
     8
 71
     3
 72
    62
 73
    58
 74
     0
 42
0.0000000001
 43
0.0000000001
 40
0.0
 40
0.0
 40
0.0
 40
0.0
 40
1.0
 40
1.0
 40
1.0
 40
2.0
 40
2.0
 40
2.0
 40
3.0
 40
3.0
 40
3.0
 40
4.0
 40
4.0
 40
4.0
 40
5.0
 40
5.0
 40
5.0
 40
6.0
 40
6.0
 40
6.0
 40
7.0
 40
7.0
 40
7.0
 40
8.0
 40
8.0
 40
8.0
 40
9.0
 40
9.0
 40
9.0
 40
10.0
 40
10.0
 40
10.0
 40
11.0
 40
11.0
 40
11.0
 40
12.0
 40
12.0
 40
12.0
 40
13.0
 40
13.0
 40
13.0
 40
14.0
 40
14.0
 40
14.0
 40
15.0
 40
15.0
 40
15.0
 40
16.0
 40
16.0
 40
16.0
 40
17.0
 40
17.0
 40
17.0
 40
18.0
 40
18.0
 40
18.0
 40
19.0
 40
19.0
 40
19.0
 40
19.0
 10
8.240337459815513
 20
-12.48705885905552
 30
0.0
 10
8.240337459815513
 20
-12.4856756895045
 30
0.0
 10
8.240151424590976
 20
-12.48428684151385
 30
0.0
 10
8.239804104483811
 20
-12.48294377063222
 30
0.0
 10
8.239435433166578
 20
-12.48151813560341
 30
0.0
 10
8.23888503775586
 20
-12.48014407889683
 30
0.0
 10
8.238207948716723
 20
-12.478838560296
 30
0.0
 10
8.23745911223332
 20
-12.47739470298686
 30
0.0
 10
8.236555309473525
 20
-12.47603467858357
 30
0.0
 10
8.235554858082549
 20
-12.4747531060026
 30
0.0
 10
8.234426778306845
 20
-12.47330804218164
 30
0.0
 10
8.23317581792374
 20
-12.47196272325583
 30
0.0
 10
8.231850698156311
 20
-12.47069728567511
 30
0.0
 10
8.230350184627189
 20
-12.46926435390807
 30
0.0
 10
8.22875458091538
 20
-12.4679338492549
 30
0.0
 10
8.227101484195044
 20
-12.46668097095532
 30
0.0
 10
8.225237516196077
 20
-12.46526827378622
 30
0.0
 10
8.223300451894322
 20
-12.46395427034685
 30
0.0
 10
8.221318176907175
 20
-12.46271381858648
 30
0.0
 10
8.219101161420111
 20
-12.46132647284414
 30
0.0
 10
8.216827593571817
 20
-12.46003113015561
 30
0.0
 10
8.214517697623048
 20
-12.45880522668691
 30
0.0
 10
8.211957212924327
 20
-12.45744633124592
 30
0.0
 10
8.209352090482841
 20
-12.45617275846138
 30
0.0
 10
8.206717322277224
 20
-12.45496457791288
 30
0.0
 10
8.203821741281494
 20
-12.45363680090842
 30
0.0
 10
8.200890354825913
 20
-12.45238800311575
 30
0.0
 10
8.19793432678
 20
-12.45120125495691
 30
0.0
 10
8.194711531425417
 20
-12.4499074084865
 30
0.0
 10
8.191459446224623
 20
-12.44868731635605
 30
0.0
 10
8.188187102163194
 20
-12.44752453917876
 30
0.0
 10
8.180844674349133
 20
-12.44491552028365
 30
0.0
 10
8.173400252102016
 20
-12.44259505691298
 30
0.0
 10
8.165903676466262
 20
-12.44046531364905
 30
0.0
 10
8.157357032677863
 20
-12.43803725076784
 30
0.0
 10
8.148742601659982
 20
-12.43585707949998
 30
0.0
 10
8.140087634060503
 20
-12.43385447114378
 30
0.0
 10
8.130428907651662
 20
-12.43161961052818
 30
0.0
 10
8.120719696987103
 20
-12.42960588674994
 30
0.0
 10
8.110979847456608
 20
-12.42775660061311
 30
0.0
 10
8.100308261959879
 20
-12.42573040759485
 30
0.0
 10
8.089599895246754
 20
-12.42390161798178
 30
0.0
 10
8.078867478349845
 20
-12.42222909944346
 30
0.0
 10
8.067287174968997
 20
-12.42042444795915
 30
0.0
 10
8.055678871254547
 20
-12.4188017344699
 30
0.0
 10
8.044052051538363
 20
-12.4173267383758
 30
0.0
 10
8.031679259481215
 20
-12.415757107092
 30
0.0
 10
8.019285499242768
 20
-12.41435475625973
 30
0.0
 10
8.006877439634472
 20
-12.41309527029337
 30
0.0
 10
7.993833839663213
 20
-12.41177127350147
 30
0.0
 10
7.980774437981544
 20
-12.41060515144591
 30
0.0
 10
7.967704117116378
 20
-12.40957651237987
 30
0.0
 10
7.940121901293764
 20
-12.40740578183593
 30
0.0
 10
7.912491058639753
 20
-12.40584730972215
 30
0.0
 10
7.884841400825987
 20
-12.40480382426636
 30
0.0
 10
7.856136227216691
 20
-12.40372050412659
 30
0.0
 10
7.827410774504262
 20
-12.40319223999934
 30
0.0
 10
7.798687925375828
 20
-12.40319223999934
 30
0.0
  0
SPLINE
  5
131
330
70
100
AcDbEntity
  8
Layer 1
 62
    18
420
        0
370
     5
100
AcDbSpline
210
0.0
220
0.0
230
1.0
 70
     8
 71
     3
 72
    74
 73
    70
 74
     0
 42
0.0000000001
 43
0.0000000001
 40
0.0
 40
0.0
 40
0.0
 40
0.0
 40
1.0
 40
1.0
 40
1.0
 40
2.0
 40
2.0
 40
2.0
 40
3.0
 40
3.0
 40
3.0
 40
4.0
 40
4.0
 40
4.0
 40
5.0
 40
5.0
 40
5.0
 40
6.0
 40
6.0
 40
6.0
 40
7.0
 40
7.0
 40
7.0
 40
8.0
 40
8.0
 40
8.0
 40
9.0
 40
9.0
 40
9.0
 40
10.0
 40
10.0
 40
10.0
 40
11.0
 40
11.0
 40
11.0
 40
12.0
 40
12.0
 40
12.0
 40
13.0
 40
13.0
 40
13.0
 40
14.0
 40
14.0
 40
14.0
 40
15.0
 40
15.0
 40
15.0
 40
16.0
 40
16.0
 40
16.0
 40
17.0
 40
17.0
 40
17.0
 40
18.0
 40
18.0
 40
18.0
 40
19.0
 40
19.0
 40
19.0
 40
20.0
 40
20.0
 40
20.0
 40
21.0
 40
21.0
 40
21.0
 40
22.0
 40
22.0
 40
22.0
 40
23.0
 40
23.0
 40
23.0
 40
23.0
 10
7.798687925375828
 20
-12.57482126232384
 30
0.0
 10
7.785610693995863
 20
-12.57482126263019
 30
0.0
 10
7.772533058089972
 20
-12.57468387681289
 30
0.0
 10
7.759458398508096
 20
-12.57440890102624
 30
0.0
 10
7.746515774937569
 20
-12.57413670211546
 30
0.0
 10
7.733576067881067
 20
-12.57372967814103
 30
0.0
 10
7.720642366029462
 20
-12.57317913941293
 30
0.0
 10
7.708018281061312
 20
-12.57264177990355
 30
0.0
 10
7.695399917225067
 20
-12.57196769453003
 30
0.0
 10
7.682791158138557
 20
-12.57114485707577
 30
0.0
 10
7.670639754181087
 20
-12.5703518662485
 30
0.0
 10
7.658497270827928
 20
-12.56942071893693
 30
0.0
 10
7.646368694529238
 20
-12.56833246622947
 30
0.0
 10
7.634830931962508
 20
-12.56729722507326
 30
0.0
 10
7.623305754554595
 20
-12.56611981172914
 30
0.0
 10
7.611799886141763
 20
-12.56477504351028
 30
0.0
 10
7.601011860713381
 20
-12.56351417442854
 30
0.0
 10
7.590240810089767
 20
-12.56210618136035
 30
0.0
 10
7.579496131399789
 20
-12.56051639450551
 30
0.0
 10
7.569589524672184
 20
-12.55905060910555
 30
0.0
 10
7.559705336362147
 20
-12.55743028331128
 30
0.0
 10
7.549857962965511
 20
-12.55560835252039
 30
0.0
 10
7.540951549568236
 20
-12.55396051525963
 30
0.0
 10
7.53207525157336
 20
-12.55214776071304
 30
0.0
 10
7.523248908881314
 20
-12.5501100770003
 30
0.0
 10
7.515443816406673
 20
-12.54830816307443
 30
0.0
 10
7.507677787879893
 20
-12.54633035948884
 30
0.0
 10
7.499988131302971
 20
-12.54408933698641
 30
0.0
 10
7.496543419243657
 20
-12.54308543295487
 30
0.0
 10
7.493114033079146
 20
-12.54202870762638
 30
0.0
 10
7.489706450234026
 20
-12.54090515922287
 30
0.0
 10
7.486570862313429
 20
-12.53987129300089
 30
0.0
 10
7.483453735924803
 20
-12.53878084565422
 30
0.0
 10
7.480363449530032
 20
-12.53761826081897
 30
0.0
 10
7.477545202697266
 20
-12.53655801894772
 30
0.0
 10
7.474749278373526
 20
-12.53543778117083
 30
0.0
 10
7.471987080145847
 20
-12.53423873381095
 30
0.0
 10
7.469493720010164
 20
-12.53315638683893
 30
0.0
 10
7.467027840487162
 20
-12.53200982444089
 30
0.0
 10
7.464605291012276
 20
-12.53077667032279
 30
0.0
 10
7.462442815478829
 20
-12.52967590204659
 30
0.0
 10
7.460314865945279
 20
-12.52850613625358
 30
0.0
 10
7.458243031026135
 20
-12.52724237758007
 30
0.0
 10
7.456413549422487
 20
-12.52612644733717
 30
0.0
 10
7.454627822223515
 20
-12.52493722776358
 30
0.0
 10
7.452916309608376
 20
-12.52364680324659
 30
0.0
 10
7.451419656696025
 20
-12.52251837591605
 30
0.0
 10
7.449979754485588
 20
-12.52131255878854
 30
0.0
 10
7.448639478331048
 20
-12.52000101387499
 30
0.0
 10
7.447473577714263
 20
-12.51886010644448
 30
0.0
 10
7.446383065999738
 20
-12.5176391928182
 30
0.0
 10
7.44542688899705
 20
-12.51631607596144
 30
0.0
 10
7.44458918233181
 20
-12.51515689329254
 30
0.0
 10
7.443854584435585
 20
-12.51391926441179
 30
0.0
 10
7.443292006402808
 20
-12.51260307662601
 30
0.0
 10
7.442782969926459
 20
-12.51141215278317
 30
0.0
 10
7.442414768537142
 20
-12.51015691165735
 30
0.0
 10
7.442239705422239
 20
-12.5088733010485
 30
0.0
 10
7.442070971104031
 20
-12.50763609490688
 30
0.0
 10
7.442081662996706
 20
-12.50637253340467
 30
0.0
 10
7.442270039610042
 20
-12.50513814590613
 30
0.0
 10
7.442466303769391
 20
-12.50385207318009
 30
0.0
 10
7.442855443893259
 20
-12.5025976687036
 30
0.0
 10
7.443383009202799
 20
-12.50140900899542
 30
0.0
 10
7.443967614322609
 20
-12.50009183264099
 30
0.0
 10
7.444722195551157
 20
-12.49885538610351
 30
0.0
 10
7.445578522183937
 20
-12.49769728612177
 30
0.0
 10
7.446556869768831
 20
-12.49637416445668
 30
0.0
 10
7.447668024747245
 20
-12.49515330787128
 30
0.0
 10
7.448851129203577
 20
-12.49401424930167
 30
0.0
  0
SPLINE
  5
132
330
70
100
AcDbEntity
  8
Layer 1
 62
    18
420
        0
370
     5
100
AcDbSpline
210
0.0
220
0.0
230
1.0
 70
     8
 71
     3
 72
    47
 73
    43
 74
     0
 42
0.0000000001
 43
0.0000000001
 40
0.0
 40
0.0
 40
0.0
 40
0.0
 40
1.0
 40
1.0
 40
1.0
 40
2.0
 40
2.0
 40
2.0
 40
3.0
 40
3.0
 40
3.0
 40
4.0
 40
4.0
 40
4.0
 40
5.0
 40
5.0
 40
5.0
 40
6.0
 40
6.0
 40
6.0
 40
7.0
 40
7.0
 40
7.0
 40
8.0
 40
8.0
 40
8.0
 40
9.0
 40
9.0
 40
9.0
 40
10.0
 40
10.0
 40
10.0
 40
11.0
 40
11.0
 40
11.0
 40
12.0
 40
12.0
 40
12.0
 40
13.0
 40
13.0
 40
13.0
 40
14.0
 40
14.0
 40
14.0
 40
14.0
 10
8.240337459815513
 20
-8.191351389423971
 30
0.0
 10
8.240337459815513
 20
-8.219724143732301
 30
0.0
 10
8.237475986150773
 20
-8.248202771676485
 30
0.0
 10
8.231843761200378
 20
-8.27604481171526
 30
0.0
 10
8.229020594716189
 20
-8.29000070214589
 30
0.0
 10
8.225501265871937
 20
-8.303796647315152
 30
0.0
 10
8.221303203339743
 20
-8.31738803050435
 30
0.0
 10
8.217103215082335
 20
-8.330985648300295
 30
0.0
 10
8.212223870299958
 20
-8.344378516400764
 30
0.0
 10
8.206692283900451
 20
-8.357494845195862
 30
0.0
 10
8.201154539883772
 20
-8.370625774744793
 30
0.0
 10
8.194963101325178
 20
-8.383479548973026
 30
0.0
 10
8.188150926199631
 20
-8.395995654852312
 30
0.0
 10
8.181328369426966
 20
-8.408530835078863
 30
0.0
 10
8.173883182660169
 20
-8.42072731696976
 30
0.0
 10
8.165856487509421
 20
-8.432528139200673
 30
0.0
 10
8.157817448633876
 20
-8.444347109137385
 30
0.0
 10
8.14919511147232
 20
-8.455769201560693
 30
0.0
 10
8.140030622878686
 20
-8.46673818228146
 30
0.0
 10
8.130851655533836
 20
-8.477724492626395
 30
0.0
 10
8.121128822340134
 20
-8.488256258417663
 30
0.0
 10
8.110915324528024
 20
-8.498288328693762
 30
0.0
 10
8.100685125311542
 20
-8.508336803698714
 30
0.0
 10
8.089962655466894
 20
-8.517883947619464
 30
0.0
 10
8.078798542515187
 20
-8.526883037987721
 30
0.0
 10
8.067616212607237
 20
-8.535896812553106
 30
0.0
 10
8.055990797120784
 20
-8.544360743542432
 30
0.0
 10
8.043982465407944
 20
-8.552240984255666
 30
0.0
 10
8.031956364313941
 20
-8.560132885789419
 30
0.0
 10
8.01954621291121
 20
-8.56743936833258
 30
0.0
 10
8.006811257753144
 20
-8.574126607074706
 30
0.0
 10
7.994061106804779
 20
-8.580821825262091
 30
0.0
 10
7.980985376504362
 20
-8.586896320960438
 30
0.0
 10
7.96764533358622
 20
-8.592324207114314
 30
0.0
 10
7.954289244999762
 20
-8.597758622037417
 30
0.0
 10
7.940668207572216
 20
-8.602544870970998
 30
0.0
 10
7.926852628333827
 20
-8.606661814264624
 30
0.0
 10
7.913018145842695
 20
-8.610784390591662
 30
0.0
 10
7.898988588810488
 20
-8.614235828462444
 30
0.0
 10
7.884807701085428
 20
-8.617003747673733
 30
0.0
 10
7.856470283033659
 20
-8.622534831858603
 30
0.0
 10
7.827528581479643
 20
-8.625336535494321
 30
0.0
 10
7.798687924967364
 20
-8.625336535494321
 30
0.0
  0
SPLINE
  5
133
330
70
100
AcDbEntity
  8
Layer 1
 62
    18
420
        0
370
     5
100
AcDbSpline
210
0.0
220
0.0
230
1.0
 70
     8
 71
     3
 72
    47
 73
    43
 74
     0
 42
0.0000000001
 43
0.0000000001
 40
0.0
 40
0.0
 40
0.0
 40
0.0
 40
1.0
 40
1.0
 40
1.0
 40
2.0
 40
2.0
 40
2.0
 40
3.0
 40
3.0
 40
3.0
 40
4.0
 40
4.0
 40
4.0
 40
5.0
 40
5.0
 40
5.0
 40
6.0
 40
6.0
 40
6.0
 40
7.0
 40
7.0
 40
7.0
 40
8.0
 40
8.0
 40
8.0
 40
9.0
 40
9.0
 40
9.0
 40
10.0
 40
10.0
 40
10.0
 40
11.0
 40
11.0
 40
11.0
 40
12.0
 40
12.0
 40
12.0
 40
13.0
 40
13.0
 40
13.0
 40
14.0
 40
14.0
 40
14.0
 40
14.0
 10
7.798687925682163
 20
-8.625336535494321
 30
0.0
 10
7.769847262328148
 20
-8.625336535494321
 30
0.0
 10
7.740905554479645
 20
-8.622534827212133
 30
0.0
 10
7.712568129544289
 20
-8.617003741730197
 30
0.0
 10
7.698387237623364
 20
-8.614235821723228
 30
0.0
 10
7.684357676263768
 20
-8.610784383823101
 30
0.0
 10
7.670523190023168
 20
-8.606661805666046
 30
0.0
 10
7.656707610548348
 20
-8.602544861590255
 30
0.0
 10
7.643086573361907
 20
-8.597758610418635
 30
0.0
 10
7.629730484718404
 20
-8.592324194126073
 30
0.0
 10
7.616390443929212
 20
-8.58689630749374
 30
0.0
 10
7.603314715373762
 20
-8.580821812395418
 30
0.0
 10
7.59056456651764
 20
-8.574126594263272
 30
0.0
 10
7.577829614120837
 20
-8.567439355928929
 30
0.0
 10
7.565419465791592
 20
-8.560132873315499
 30
0.0
 10
7.553393367404396
 20
-8.552240972357555
 30
0.0
 10
7.541385038704119
 20
-8.544360732422608
 30
0.0
 10
7.529759625844866
 20
-8.535896802885973
 30
0.0
 10
7.518577298299469
 20
-8.526883030109413
 30
0.0
 10
7.507413188174091
 20
-8.517883941903985
 30
0.0
 10
7.496690720854947
 20
-8.508336800527166
 30
0.0
 10
7.486460524244736
 20
-8.498288327970005
 30
0.0
 10
7.476247029055116
 20
-8.488256260157893
 30
0.0
 10
7.466524198562473
 20
-8.477724496736779
 30
0.0
 10
7.457345233509145
 20
-8.466738189140565
 30
0.0
 10
7.448180746898501
 20
-8.455769210799214
 30
0.0
 10
7.439558411347749
 20
-8.444347121102509
 30
0.0
 10
7.43151937348144
 20
-8.432528154207449
 30
0.0
 10
7.423492679134861
 20
-8.420727334714253
 30
0.0
 10
7.416047492602071
 20
-8.40853085585512
 30
0.0
 10
7.409224936437769
 20
-8.395995678442975
 30
0.0
 10
7.402412761571023
 20
-8.383479574733389
 30
0.0
 10
7.396221323708042
 20
-8.370625802423534
 30
0.0
 10
7.390683579326478
 20
-8.357494875162462
 30
0.0
 10
7.385151991690563
 20
-8.344378546585124
 30
0.0
 10
7.380272644819164
 20
-8.330985678983841
 30
0.0
 10
7.376072655899102
 20
-8.317388061214172
 30
0.0
 10
7.371874591636052
 20
-8.303796674592048
 30
0.0
 10
7.368355262831439
 20
-8.290000725413239
 30
0.0
 10
7.365532095582428
 20
-8.276044831102744
 30
0.0
 10
7.35989986932514
 20
-8.248202784406203
 30
0.0
 10
7.357038390936129
 20
-8.219724150369819
 30
0.0
 10
7.357038390936129
 20
-8.191351389423971
 30
0.0
  0
SPLINE
  5
134
330
70
100
AcDbEntity
  8
Layer 1
 62
    18
420
        0
370
     5
100
AcDbSpline
210
0.0
220
0.0
230
1.0
 70
     8
 71
     3
 72
    44
 73
    40
 74
     0
 42
0.0000000001
 43
0.0000000001
 40
0.0
 40
0.0
 40
0.0
 40
0.0
 40
1.0
 40
1.0
 40
1.0
 40
2.0
 40
2.0
 40
2.0
 40
3.0
 40
3.0
 40
3.0
 40
4.0
 40
4.0
 40
4.0
 40
5.0
 40
5.0
 40
5.0
 40
6.0
 40
6.0
 40
6.0
 40
7.0
 40
7.0
 40
7.0
 40
8.0
 40
8.0
 40
8.0
 40
9.0
 40
9.0
 40
9.0
 40
10.0
 40
10.0
 40
10.0
 40
11.0
 40
11.0
 40
11.0
 40
12.0
 40
12.0
 40
12.0
 40
13.0
 40
13.0
 40
13.0
 40
13.0
 10
8.240337459815513
 20
-8.191351389423971
 30
0.0
 10
8.240337459917629
 20
-8.219690886041727
 30
0.0
 10
8.237490514524994
 20
-8.248107021061514
 30
0.0
 10
8.231850698167173
 20
-8.27594523368633
 30
0.0
 10
8.226203032059325
 20
-8.303822192787265
 30
0.0
 10
8.217754715089061
 20
-8.331119619616856
 30
0.0
 10
8.206717322270947
 20
-8.357287669957599
 30
0.0
 10
8.201181880413109
 20
-8.370411396147371
 30
0.0
 10
8.194995235601457
 20
-8.383251062174862
 30
0.0
 10
8.188187102211031
 20
-8.395754721186461
 30
0.0
 10
8.181368553384711
 20
-8.408277508944744
 30
0.0
 10
8.173926612954094
 20
-8.420463260818792
 30
0.0
 10
8.165903676495329
 20
-8.432252863398717
 30
0.0
 10
8.157867442862841
 20
-8.444062006005385
 30
0.0
 10
8.149248285726596
 20
-8.455473685078079
 30
0.0
 10
8.140087634119051
 20
-8.466432741543775
 30
0.0
 10
8.130910707099587
 20
-8.477411268584976
 30
0.0
 10
8.121190359790704
 20
-8.48793556327266
 30
0.0
 10
8.110979847490941
 20
-8.497960413041898
 30
0.0
 10
8.100750804588049
 20
-8.50800345646366
 30
0.0
 10
8.090029815922662
 20
-8.517545240481341
 30
0.0
 10
8.078867478388461
 20
-8.52653911769514
 30
0.0
 10
8.067685179042831
 20
-8.535549078823274
 30
0.0
 10
8.056059950872445
 20
-8.544009171731834
 30
0.0
 10
8.044052051531075
 20
-8.551885675689618
 30
0.0
 10
8.032024645169611
 20
-8.55977497515121
 30
0.0
 10
8.019613323316711
 20
-8.56707878802317
 30
0.0
 10
8.006877439640094
 20
-8.573763532185996
 30
0.0
 10
7.994124659200198
 20
-8.580457145033733
 30
0.0
 10
7.981046455169575
 20
-8.586530045439316
 30
0.0
 10
7.967704117128985
 20
-8.591956480643867
 30
0.0
 10
7.95434422860367
 20
-8.597390053770519
 30
0.0
 10
7.940719510728702
 20
-8.602175459859482
 30
0.0
 10
7.926900371251967
 20
-8.606291680312462
 30
0.0
 10
7.913061121596367
 20
-8.610413890858353
 30
0.0
 10
7.899026884066706
 20
-8.613864966698328
 30
0.0
 10
7.884841400829296
 20
-8.616632593723313
 30
0.0
 10
7.856492593599618
 20
-8.622163524443294
 30
0.0
 10
7.827539748217936
 20
-8.624964928716797
 30
0.0
 10
7.798687925375828
 20
-8.624964928716797
 30
0.0
  0
SPLINE
  5
135
330
70
100
AcDbEntity
  8
Layer 1
 62
    18
420
        0
370
     5
100
AcDbSpline
210
0.0
220
0.0
230
1.0
 70
     8
 71
     3
 72
    44
 73
    40
 74
     0
 42
0.0000000001
 43
0.0000000001
 40
0.0
 40
0.0
 40
0.0
 40
0.0
 40
1.0
 40
1.0
 40
1.0
 40
2.0
 40
2.0
 40
2.0
 40
3.0
 40
3.0
 40
3.0
 40
4.0
 40
4.0
 40
4.0
 40
5.0
 40
5.0
 40
5.0
 40
6.0
 40
6.0
 40
6.0
 40
7.0
 40
7.0
 40
7.0
 40
8.0
 40
8.0
 40
8.0
 40
9.0
 40
9.0
 40
9.0
 40
10.0
 40
10.0
 40
10.0
 40
11.0
 40
11.0
 40
11.0
 40
12.0
 40
12.0
 40
12.0
 40
13.0
 40
13.0
 40
13.0
 40
13.0
 10
7.798687925375828
 20
-8.624964928716797
 30
0.0
 10
7.769836102431604
 20
-8.624964928716797
 30
0.0
 10
7.740883256997967
 20
-8.622163524383356
 30
0.0
 10
7.712534449672451
 20
-8.616632593631935
 30
0.0
 10
7.698348966263374
 20
-8.613864966567032
 30
0.0
 10
7.684314728553696
 20
-8.610413890682416
 30
0.0
 10
7.670475478731279
 20
-8.60629168004622
 30
0.0
 10
7.656656339153528
 20
-8.602175459522616
 30
0.0
 10
7.643031621188836
 20
-8.597390053323945
 30
0.0
 10
7.629671732564411
 20
-8.591956480130697
 30
0.0
 10
7.616329394552066
 20
-8.586530044911302
 30
0.0
 10
7.603251190535312
 20
-8.580457144546205
 30
0.0
 10
7.590498410128159
 20
-8.573763531701173
 30
0.0
 10
7.577762526565315
 20
-8.567078787583657
 30
0.0
 10
7.565351204840895
 20
-8.559774974727158
 30
0.0
 10
7.553323798590061
 20
-8.551885675299368
 30
0.0
 10
7.541315899359296
 20
-8.544009171375364
 30
0.0
 10
7.529690671281728
 20
-8.535549078518833
 30
0.0
 10
7.518508372040842
 20
-8.526539117424249
 30
0.0
 10
7.507346034540041
 20
-8.517545240186576
 30
0.0
 10
7.496625045925585
 20
-8.508003456119606
 30
0.0
 10
7.486396003052921
 20
-8.497960412679237
 30
0.0
 10
7.476185490767041
 20
-8.487935562875412
 30
0.0
 10
7.466465143452978
 20
-8.47741126818212
 30
0.0
 10
7.457288216426301
 20
-8.46643274114908
 30
0.0
 10
7.448127564811594
 20
-8.455473684691506
 30
0.0
 10
7.439508407666089
 20
-8.444062005640628
 30
0.0
 10
7.431472174058058
 20
-8.432252863034401
 30
0.0
 10
7.42344923764953
 20
-8.420463260492864
 30
0.0
 10
7.416007297298922
 20
-8.408277508638382
 30
0.0
 10
7.409188748515803
 20
-8.395754720910669
 30
0.0
 10
7.402380615157589
 20
-8.383251061909554
 30
0.0
 10
7.39619397034341
 20
-8.370411395902426
 30
0.0
 10
7.390658528484398
 20
-8.357287669734494
 30
0.0
 10
7.37962113566391
 20
-8.331119619437458
 30
0.0
 10
7.371172818696347
 20
-8.303822192657548
 30
0.0
 10
7.365525152640479
 20
-8.275945233587371
 30
0.0
 10
7.359885336329953
 20
-8.248107020970866
 30
0.0
 10
7.357038391038258
 20
-8.219690885939574
 30
0.0
 10
7.357038390936129
 20
-8.191351389423971
 30
0.0
  0
SPLINE
  5
136
330
70
100
AcDbEntity
  8
Layer 1
 62
    18
420
        0
370
     5
100
AcDbSpline
210
0.0
220
0.0
230
1.0
 70
     8
 71
     3
 72
    59
 73
    55
 74
     0
 42
0.0000000001
 43
0.0000000001
 40
0.0
 40
0.0
 40
0.0
 40
0.0
 40
1.0
 40
1.0
 40
1.0
 40
2.0
 40
2.0
 40
2.0
 40
3.0
 40
3.0
 40
3.0
 40
4.0
 40
4.0
 40
4.0
 40
5.0
 40
5.0
 40
5.0
 40
6.0
 40
6.0
 40
6.0
 40
7.0
 40
7.0
 40
7.0
 40
8.0
 40
8.0
 40
8.0
 40
9.0
 40
9.0
 40
9.0
 40
10.0
 40
10.0
 40
10.0
 40
11.0
 40
11.0
 40
11.0
 40
12.0
 40
12.0
 40
12.0
 40
13.0
 40
13.0
 40
13.0
 40
14.0
 40
14.0
 40
14.0
 40
15.0
 40
15.0
 40
15.0
 40
16.0
 40
16.0
 40
16.0
 40
17.0
 40
17.0
 40
17.0
 40
18.0
 40
18.0
 40
18.0
 40
18.0
 10
17.4748296625223
 20
-15.66478873839393
 30
0.0
 10
17.4748296625223
 20
-15.691942020832
 30
0.0
 10
17.47451867342432
 20
-15.71909711743104
 30
0.0
 10
17.47379443332829
 20
-15.74624200736806
 30
0.0
 10
17.4730658495034
 20
-15.77354970249363
 30
0.0
 10
17.47191904275617
 20
-15.80084706815826
 30
0.0
 10
17.47023899413423
 20
-15.82811325629291
 30
0.0
 10
17.46856346484335
 20
-15.85530609837805
 30
0.0
 10
17.4663575586605
 20
-15.88246793044267
 30
0.0
 10
17.46348871724508
 20
-15.90956198422501
 30
0.0
 10
17.46064943506204
 20
-15.93637687324639
 30
0.0
 10
17.45716080843133
 20
-15.96312537350278
 30
0.0
 10
17.45286897506907
 20
-15.98974769038715
 30
0.0
 10
17.44864850224626
 20
-16.01592735660673
 30
0.0
 10
17.44365131055949
 20
-16.04198500068476
 30
0.0
 10
17.43770513998152
 20
-16.0678298738351
 30
0.0
 10
17.43188510796815
 20
-16.09312648905029
 30
0.0
 10
17.42515593217447
 20
-16.11821926478354
 30
0.0
 10
17.41732258429167
 20
-16.14296803364211
 30
0.0
 10
17.40966116055506
 20
-16.16717362338729
 30
0.0
 10
17.40094350097221
 20
-16.19105014088361
 30
0.0
 10
17.39109081748787
 20
-16.21445192721421
 30
0.0
 10
17.38136722511454
 20
-16.23754710036645
 30
0.0
 10
17.37053815644993
 20
-16.26017990083387
 30
0.0
 10
17.35859585165351
 20
-16.28221025888357
 30
0.0
 10
17.34665536037745
 20
-16.30423727147343
 30
0.0
 10
17.33360197104887
 20
-16.32566202460152
 30
0.0
 10
17.31948997530561
 20
-16.34636732999552
 30
0.0
 10
17.30518110008996
 20
-16.36736149953574
 30
0.0
 10
17.28978387472691
 20
-16.38761600697264
 30
0.0
 10
17.27342549421387
 20
-16.40704749202041
 30
0.0
 10
17.26508598722168
 20
-16.41695366856985
 30
0.0
 10
17.25649667953606
 20
-16.42664594462315
 30
0.0
 10
17.24767512237945
 20
-16.43612259196101
 30
0.0
 10
17.23870586923734
 20
-16.44575790321065
 30
0.0
 10
17.22949652459156
 20
-16.45517030492119
 30
0.0
 10
17.22007311872211
 20
-16.46436273895238
 30
0.0
 10
17.2105116676807
 20
-16.47368983460749
 30
0.0
 10
17.20072983783544
 20
-16.48279047068616
 30
0.0
 10
17.19074948803836
 20
-16.49166700612063
 30
0.0
 10
17.18066771116865
 20
-16.50063375091864
 30
0.0
 10
17.17038335885536
 20
-16.5093718170023
 30
0.0
 10
17.15991195269609
 20
-16.51788228464955
 30
0.0
 10
17.13884280460787
 20
-16.53500589731776
 30
0.0
 10
17.11701638681425
 20
-16.55120809936203
 30
0.0
 10
17.09452838311421
 20
-16.5664318792284
 30
0.0
 10
17.07218623563302
 20
-16.58155691831737
 30
0.0
 10
17.04919105644932
 20
-16.59571618607624
 30
0.0
 10
17.02558884147968
 20
-16.60878352855232
 30
0.0
 10
17.00255179710777
 20
-16.62153796489782
 30
0.0
 10
16.97893644062308
 20
-16.63325214359795
 30
0.0
 10
16.95475975872568
 20
-16.64370923877924
 30
0.0
 10
16.93156831714749
 20
-16.65374018980083
 30
0.0
 10
16.90786036786711
 20
-16.66261442618777
 30
0.0
 10
16.88370756597629
 20
-16.66998101594342
 30
0.0
  0
SPLINE
  5
137
330
70
100
AcDbEntity
  8
Layer 1
 62
    18
420
        0
370
     5
100
AcDbSpline
210
0.0
220
0.0
230
1.0
 70
     8
 71
     3
 72
    59
 73
    55
 74
     0
 42
0.0000000001
 43
0.0000000001
 40
0.0
 40
0.0
 40
0.0
 40
0.0
 40
1.0
 40
1.0
 40
1.0
 40
2.0
 40
2.0
 40
2.0
 40
3.0
 40
3.0
 40
3.0
 40
4.0
 40
4.0
 40
4.0
 40
5.0
 40
5.0
 40
5.0
 40
6.0
 40
6.0
 40
6.0
 40
7.0
 40
7.0
 40
7.0
 40
8.0
 40
8.0
 40
8.0
 40
9.0
 40
9.0
 40
9.0
 40
10.0
 40
10.0
 40
10.0
 40
11.0
 40
11.0
 40
11.0
 40
12.0
 40
12.0
 40
12.0
 40
13.0
 40
13.0
 40
13.0
 40
14.0
 40
14.0
 40
14.0
 40
15.0
 40
15.0
 40
15.0
 40
16.0
 40
16.0
 40
16.0
 40
17.0
 40
17.0
 40
17.0
 40
18.0
 40
18.0
 40
18.0
 40
18.0
 10
18.35812873140164
 20
-15.66478873839393
 30
0.0
 10
18.35812873140164
 20
-15.691942020832
 30
0.0
 10
18.35843972044884
 20
-15.71909711743104
 30
0.0
 10
18.35916396051925
 20
-15.74624200736806
 30
0.0
 10
18.35989254431863
 20
-15.77354970249363
 30
0.0
 10
18.3610393510656
 20
-15.80084706815826
 30
0.0
 10
18.36271939968759
 20
-15.82811325629291
 30
0.0
 10
18.36439492897852
 20
-15.85530609837805
 30
0.0
 10
18.36660083516133
 20
-15.88246793044267
 30
0.0
 10
18.3694696765767
 20
-15.90956198422501
 30
0.0
 10
18.37230895875988
 20
-15.93637687324639
 30
0.0
 10
18.3757975853906
 20
-15.96312537350278
 30
0.0
 10
18.38008941875276
 20
-15.98974769038715
 30
0.0
 10
18.38430989157571
 20
-16.01592735660673
 30
0.0
 10
18.38930708326234
 20
-16.04198500068476
 30
0.0
 10
18.39525325384036
 20
-16.0678298738351
 30
0.0
 10
18.40107328585373
 20
-16.09312648905029
 30
0.0
 10
18.40780246164735
 20
-16.11821926478354
 30
0.0
 10
18.41563580953016
 20
-16.14296803364211
 30
0.0
 10
18.42329723326677
 20
-16.16717362338729
 30
0.0
 10
18.43201489284961
 20
-16.19105014088361
 30
0.0
 10
18.44186757635129
 20
-16.21445192721421
 30
0.0
 10
18.45159116874154
 20
-16.23754710036645
 30
0.0
 10
18.46242023744015
 20
-16.26017990083387
 30
0.0
 10
18.47436254223658
 20
-16.28221025888357
 30
0.0
 10
18.48630303351269
 20
-16.30423727147343
 30
0.0
 10
18.49935642280737
 20
-16.32566202460152
 30
0.0
 10
18.51346841853349
 20
-16.34636732999552
 30
0.0
 10
18.52777729373196
 20
-16.36736149953574
 30
0.0
 10
18.54317451909492
 20
-16.38761600697264
 30
0.0
 10
18.559532899608
 20
-16.40704749202041
 30
0.0
 10
18.56787240660029
 20
-16.41695366856985
 30
0.0
 10
18.57646171428577
 20
-16.42664594462315
 30
0.0
 10
18.58528327144237
 20
-16.43612259196101
 30
0.0
 10
18.59425252458448
 20
-16.44575790321065
 30
0.0
 10
18.60346186923031
 20
-16.45517030492119
 30
0.0
 10
18.61288527509977
 20
-16.46436273895238
 30
0.0
 10
18.62244672614118
 20
-16.47368983460749
 30
0.0
 10
18.63222855598638
 20
-16.48279047068616
 30
0.0
 10
18.64220890579609
 20
-16.49166700612063
 30
0.0
 10
18.65229068267854
 20
-16.50063375091864
 30
0.0
 10
18.66257503501735
 20
-16.5093718170023
 30
0.0
 10
18.67304644118677
 20
-16.51788228464955
 30
0.0
 10
18.69411558929581
 20
-16.53500589731776
 30
0.0
 10
18.7159420070484
 20
-16.55120809936203
 30
0.0
 10
18.73843001072808
 20
-16.5664318792284
 30
0.0
 10
18.7607721581888
 20
-16.58155691831737
 30
0.0
 10
18.78376733737266
 20
-16.59571618607624
 30
0.0
 10
18.80736955235994
 20
-16.60878352855232
 30
0.0
 10
18.83040659674917
 20
-16.62153796489782
 30
0.0
 10
18.85402195326808
 20
-16.63325214359795
 30
0.0
 10
18.87819863515556
 20
-16.64370923877924
 30
0.0
 10
18.90139007672436
 20
-16.65374018980083
 30
0.0
 10
18.92509802595471
 20
-16.66261442618777
 30
0.0
 10
18.94925082784564
 20
-16.66998101594342
 30
0.0
  0
SPLINE
  5
138
330
70
100
AcDbEntity
  8
Layer 1
 62
    18
420
        0
370
     5
100
AcDbSpline
210
0.0
220
0.0
230
1.0
 70
     8
 71
     3
 72
     8
 73
     4
 74
     0
 42
0.0000000001
 43
0.0000000001
 40
0.0
 40
0.0
 40
0.0
 40
0.0
 40
1.0
 40
1.0
 40
1.0
 40
1.0
 10
0.6471382071979153
 20
-3.308798205598893
 30
0.0
 10
0.6263843202869516
 20
-3.375877336513237
 30
0.0
 10
0.6151242071313795
 20
-3.45828193007426
 30
0.0
 10
0.6151242071315563
 20
-3.543085430539715
 30
0.0
  0
SPLINE
  5
139
330
70
100
AcDbEntity
  8
Layer 1
 62
    18
420
        0
370
     5
100
AcDbSpline
210
0.0
220
0.0
230
1.0
 70
     8
 71
     3
 72
     8
 73
     4
 74
     0
 42
0.0000000001
 43
0.0000000001
 40
0.0
 40
0.0
 40
0.0
 40
0.0
 40
1.0
 40
1.0
 40
1.0
 40
1.0
 10
0.6151242071315563
 20
-3.543085430535812
 30
0.0
 10
0.6151242071313795
 20
-3.627888931001216
 30
0.0
 10
0.6263843202869516
 20
-3.710293524562239
 30
0.0
 10
0.6471382071979153
 20
-3.777372655476571
 30
0.0
  0
SPLINE
  5
13A
330
70
100
AcDbEntity
  8
Layer 1
 62
    18
420
        0
370
     5
100
AcDbSpline
210
0.0
220
0.0
230
1.0
 70
     8
 71
     3
 72
     8
 73
     4
 74
     0
 42
0.0000000001
 43
0.0000000001
 40
0.0
 40
0.0
 40
0.0
 40
0.0
 40
1.0
 40
1.0
 40
1.0
 40
1.0
 10
14.95023764365679
 20
-3.777372655473489
 30
0.0
 10
14.99292297707491
 20
-3.639408375297143
 30
0.0
 10
14.99292297707754
 20
-3.446762485806781
 30
0.0
 10
14.95023764366321
 20
-3.308798205622994
 30
0.0
  0
ENDSEC
  0
SECTION
  2
OBJECTS
  0
DICTIONARY
  5
C
330
0
100
AcDbDictionary
281
     1
  3
ACAD_COLOR
350
63
  3
ACAD_DETAILVIEWSTYLE
350
6A
  3
ACAD_GROUP
350
D
  3
ACAD_LAYOUT
350
62
  3
ACAD_MATERIAL
350
10
  3
ACAD_MLEADERSTYLE
350
66
  3
ACAD_MLINESTYLE
350
5F
  3
ACAD_PLOTSETTINGS
350
61
  3
ACAD_PLOTSTYLENAME
350
E
  3
ACAD_SCALELIST
350
42
  3
ACAD_SECTIONVIEWSTYLE
350
68
  3
ACAD_TABLESTYLE
350
64
  3
ACAD_VISUALSTYLE
350
29
  3
ACDB_RECOMPOSE_DATA
350
143
  3
AcDbVariableDictionary
350
13B
  0
DICTIONARY
  5
63
102
{ACAD_REACTORS
330
C
102
}
330
C
100
AcDbDictionary
281
     1
  0
DICTIONARY
  5
6A
102
{ACAD_REACTORS
330
C
102
}
330
C
100
AcDbDictionary
281
     1
  3
Imperial24
350
6B
  0
DICTIONARY
  5
D
102
{ACAD_REACTORS
330
C
102
}
330
C
100
AcDbDictionary
281
     1
  0
DICTIONARY
  5
62
102
{ACAD_REACTORS
330
C
102
}
330
C
100
AcDbDictionary
281
     1
  3
Layout1
350
6F
  3
Layout2
350
77
  3
Model
350
73
  0
DICTIONARY
  5
10
102
{ACAD_REACTORS
330
C
102
}
330
C
100
AcDbDictionary
281
     1
  3
ByBlock
350
19
  3
ByLayer
350
11
  3
Global
350
21
  0
DICTIONARY
  5
66
102
{ACAD_REACTORS
330
C
102
}
330
C
100
AcDbDictionary
281
     1
  3
Standard
350
67
  0
DICTIONARY
  5
5F
102
{ACAD_REACTORS
330
C
102
}
330
C
100
AcDbDictionary
281
     1
  3
Standard
350
60
  0
DICTIONARY
  5
61
102
{ACAD_REACTORS
330
C
102
}
330
C
100
AcDbDictionary
281
     1
  0
ACDBDICTIONARYWDFLT
  5
E
102
{ACAD_REACTORS
330
C
102
}
330
C
100
AcDbDictionary
281
     1
  3
Normal
350
F
100
AcDbDictionaryWithDefault
340
F
  0
DICTIONARY
  5
42
102
{ACAD_REACTORS
330
C
102
}
330
C
100
AcDbDictionary
281
     1
  3
A0
350
43
  3
A1
350
44
  3
A2
350
45
  3
A3
350
46
  3
A4
350
47
  3
A5
350
48
  3
A6
350
49
  3
A7
350
4A
  3
A8
350
4B
  3
A9
350
4C
  3
B0
350
4D
  3
B1
350
4E
  3
B2
350
4F
  3
B3
350
50
  3
B4
350
51
  3
B5
350
52
  3
B6
350
53
  0
DICTIONARY
  5
68
102
{ACAD_REACTORS
330
C
102
}
330
C
100
AcDbDictionary
281
     1
  3
Imperial24
350
69
  0
DICTIONARY
  5
64
102
{ACAD_REACTORS
330
C
102
}
330
C
100
AcDbDictionary
281
     1
  3
Standard
350
65
  0
DICTIONARY
  5
29
102
{ACAD_REACTORS
330
C
102
}
330
C
100
AcDbDictionary
281
     1
  3
2dWireframe
350
2F
  3
Basic
350
2E
  3
Brighten
350
35
  3
ColorChange
350
39
  3
Conceptual
350
32
  3
Dim
350
34
  3
EdgeColorOff
350
41
  3
Facepattern
350
38
  3
Flat
350
2A
  3
FlatWithEdges
350
2B
  3
Gouraud
350
2C
  3
GouraudWithEdges
350
2D
  3
Hidden
350
31
  3
JitterOff
350
3F
  3
Linepattern
350
37
  3
OverhangOff
350
40
  3
Realistic
350
33
  3
Shaded
350
3E
  3
Shaded with edges
350
3D
  3
Shades of Gray
350
3A
  3
Sketchy
350
3B
  3
Thicken
350
36
  3
Wireframe
350
30
  3
X-Ray
350
3C
  0
XRECORD
  5
143
102
{ACAD_REACTORS
330
C
102
}
330
C
100
AcDbXrecord
280
     1
 90
        1
330
65
  0
DICTIONARY
  5
13B
102
{ACAD_REACTORS
330
C
102
}
330
C
100
AcDbDictionary
281
     1
  3
CANNOSCALE
350
140
  3
CMLEADERSTYLE
350
13D
  3
CTABLESTYLE
350
13C
  3
CVIEWDETAILSTYLE
350
13E
  3
CVIEWSECTIONSTYLE
350
13F
  0
ACDBDETAILVIEWSTYLE
  5
6B
102
{ACAD_REACTORS
330
6A
102
}
330
6A
100
AcDbModelDocViewStyle
 70
     0
  3
Imperial24
290
     1
300
Imperial24
 90
        0
100
AcDbDetailViewStyle
 70
     0
 71
     0
 90
        3
 71
     1
340
55
 62
   256
 40
0.24
340
0
 62
   256
 40
0.24
300

 40
0.36
280
     3
 71
     2
340
5D
 90
       25
 62
   256
 71
     3
340
55
 62
   256
 40
0.24
 90
        1
 40
0.75
 90
        1
300
%<\AcVar ViewType \f "%tc1">% %<\AcVar ViewDetailId>%\PSCALE %<\AcVar ViewScale \f "%sn">%
 71
     4
340
5D
 90
       25
 62
   256
340
5D
 90
       25
 62
   256
280
     0
  0
LAYOUT
  5
6F
102
{ACAD_REACTORS
330
62
102
}
330
62
100
AcDbPlotSettings
  1

  2

  4

  6

 40
0.0
 41
0.0
 42
0.0
 43
0.0
 44
0.0
 45
0.0
 46
0.0
 47
0.0
 48
0.0
 49
0.0
140
0.0
141
0.0
142
1.0
143
1.0
 70
   688
 72
     0
 73
     0
 74
     5
  7

 75
    16
147
1.0
 76
     0
 77
     2
 78
   300
148
0.0
149
0.0
100
AcDbLayout
  1
Layout1
 70
     1
 71
     1
 10
0.0
 20
0.0
 11
12.0
 21
9.0
 12
0.0
 22
0.0
 32
0.0
 14
0.0
 24
0.0
 34
0.0
 15
0.0
 25
0.0
 35
0.0
146
0.0
 13
0.0
 23
0.0
 33
0.0
 16
1.0
 26
0.0
 36
0.0
 17
0.0
 27
1.0
 37
0.0
 76
     0
330
6C
  0
LAYOUT
  5
77
102
{ACAD_REACTORS
330
62
102
}
330
62
100
AcDbPlotSettings
  1

  2

  4

  6

 40
0.0
 41
0.0
 42
0.0
 43
0.0
 44
0.0
 45
0.0
 46
0.0
 47
0.0
 48
0.0
 49
0.0
140
0.0
141
0.0
142
1.0
143
1.0
 70
   688
 72
     0
 73
     0
 74
     5
  7

 75
    16
147
1.0
 76
     0
 77
     2
 78
   300
148
0.0
149
0.0
100
AcDbLayout
  1
Layout2
 70
     1
 71
     2
 10
0.0
 20
0.0
 11
12.0
 21
9.0
 12
0.0
 22
0.0
 32
0.0
 14
0.0
 24
0.0
 34
0.0
 15
0.0
 25
0.0
 35
0.0
146
0.0
 13
0.0
 23
0.0
 33
0.0
 16
1.0
 26
0.0
 36
0.0
 17
0.0
 27
1.0
 37
0.0
 76
     0
330
74
  0
LAYOUT
  5
73
102
{ACAD_REACTORS
330
62
102
}
330
62
100
AcDbPlotSettings
  1

  2

  4

  6

 40
0.0
 41
0.0
 42
0.0
 43
0.0
 44
0.0
 45
0.0
 46
0.0
 47
0.0
 48
0.0
 49
0.0
140
0.0
141
0.0
142
1.0
143
1.0
 70
  1712
 72
     0
 73
     0
 74
     0
  7

 75
     0
147
1.0
 76
     0
 77
     2
 78
   300
148
0.0
149
0.0
100
AcDbLayout
  1
Model
 70
     1
 71
     0
 10
0.0
 20
0.0
 11
12.0
 21
9.0
 12
0.0
 22
0.0
 32
0.0
 14
0.0
 24
0.0
 34
0.0
 15
0.0
 25
0.0
 35
0.0
146
0.0
 13
0.0
 23
0.0
 33
0.0
 16
1.0
 26
0.0
 36
0.0
 17
0.0
 27
1.0
 37
0.0
 76
     0
330
70
  0
MATERIAL
  5
19
102
{ACAD_XDICTIONARY
360
1A
102
}
102
{ACAD_REACTORS
330
10
102
}
330
10
100
AcDbMaterial
  1
ByBlock
 72
     0
 43
0.0208333333333333
 43
0.0
 43
0.0
 43
0.0
 43
0.0
 43
0.0208333333333333
 43
0.0
 43
0.0
 43
0.0
 43
0.0
 43
1.0
 43
0.0
 43
0.0
 43
0.0
 43
0.0
 43
1.0
 77
     0
 47
0.0208333333333333
 47
0.0
 47
0.0
 47
0.0
 47
0.0
 47
0.0208333333333333
 47
0.0
 47
0.0
 47
0.0
 47
0.0
 47
1.0
 47
0.0
 47
0.0
 47
0.0
 47
0.0
 47
1.0
171
     0
 49
0.0208333333333333
 49
0.0
 49
0.0
 49
0.0
 49
0.0
 49
0.0208333333333333
 49
0.0
 49
0.0
 49
0.0
 49
0.0
 49
1.0
 49
0.0
 49
0.0
 49
0.0
 49
0.0
 49
1.0
175
     0
142
0.0208333333333333
142
0.0
142
0.0
142
0.0
142
0.0
142
0.0208333333333333
142
0.0
142
0.0
142
0.0
142
0.0
142
1.0
142
0.0
142
0.0
142
0.0
142
0.0
142
1.0
179
     0
144
0.0208333333333333
144
0.0
144
0.0
144
0.0
144
0.0
144
0.0208333333333333
144
0.0
144
0.0
144
0.0
144
0.0
144
1.0
144
0.0
144
0.0
144
0.0
144
0.0
144
1.0
147
0.0208333333333333
147
0.0
147
0.0
147
0.0
147
0.0
147
0.0208333333333333
147
0.0
147
0.0
147
0.0
147
0.0
147
1.0
147
0.0
147
0.0
147
0.0
147
0.0
147
1.0
  0
MATERIAL
  5
11
102
{ACAD_XDICTIONARY
360
12
102
}
102
{ACAD_REACTORS
330
10
102
}
330
10
100
AcDbMaterial
  1
ByLayer
 72
     0
 43
0.0208333333333333
 43
0.0
 43
0.0
 43
0.0
 43
0.0
 43
0.0208333333333333
 43
0.0
 43
0.0
 43
0.0
 43
0.0
 43
1.0
 43
0.0
 43
0.0
 43
0.0
 43
0.0
 43
1.0
 77
     0
 47
0.0208333333333333
 47
0.0
 47
0.0
 47
0.0
 47
0.0
 47
0.0208333333333333
 47
0.0
 47
0.0
 47
0.0
 47
0.0
 47
1.0
 47
0.0
 47
0.0
 47
0.0
 47
0.0
 47
1.0
171
     0
 49
0.0208333333333333
 49
0.0
 49
0.0
 49
0.0
 49
0.0
 49
0.0208333333333333
 49
0.0
 49
0.0
 49
0.0
 49
0.0
 49
1.0
 49
0.0
 49
0.0
 49
0.0
 49
0.0
 49
1.0
175
     0
142
0.0208333333333333
142
0.0
142
0.0
142
0.0
142
0.0
142
0.0208333333333333
142
0.0
142
0.0
142
0.0
142
0.0
142
1.0
142
0.0
142
0.0
142
0.0
142
0.0
142
1.0
179
     0
144
0.0208333333333333
144
0.0
144
0.0
144
0.0
144
0.0
144
0.0208333333333333
144
0.0
144
0.0
144
0.0
144
0.0
144
1.0
144
0.0
144
0.0
144
0.0
144
0.0
144
1.0
147
0.0208333333333333
147
0.0
147
0.0
147
0.0
147
0.0
147
0.0208333333333333
147
0.0
147
0.0
147
0.0
147
0.0
147
1.0
147
0.0
147
0.0
147
0.0
147
0.0
147
1.0
  0
MATERIAL
  5
21
102
{ACAD_XDICTIONARY
360
22
102
}
102
{ACAD_REACTORS
330
10
102
}
330
10
100
AcDbMaterial
  1
Global
 72
     0
 43
0.0208333333333333
 43
0.0
 43
0.0
 43
0.0
 43
0.0
 43
0.0208333333333333
 43
0.0
 43
0.0
 43
0.0
 43
0.0
 43
1.0
 43
0.0
 43
0.0
 43
0.0
 43
0.0
 43
1.0
 77
     0
 47
0.0208333333333333
 47
0.0
 47
0.0
 47
0.0
 47
0.0
 47
0.0208333333333333
 47
0.0
 47
0.0
 47
0.0
 47
0.0
 47
1.0
 47
0.0
 47
0.0
 47
0.0
 47
0.0
 47
1.0
171
     0
 49
0.0208333333333333
 49
0.0
 49
0.0
 49
0.0
 49
0.0
 49
0.0208333333333333
 49
0.0
 49
0.0
 49
0.0
 49
0.0
 49
1.0
 49
0.0
 49
0.0
 49
0.0
 49
0.0
 49
1.0
175
     0
142
0.0208333333333333
142
0.0
142
0.0
142
0.0
142
0.0
142
0.0208333333333333
142
0.0
142
0.0
142
0.0
142
0.0
142
1.0
142
0.0
142
0.0
142
0.0
142
0.0
142
1.0
179
     0
144
0.0208333333333333
144
0.0
144
0.0
144
0.0
144
0.0
144
0.0208333333333333
144
0.0
144
0.0
144
0.0
144
0.0
144
1.0
144
0.0
144
0.0
144
0.0
144
0.0
144
1.0
147
0.0208333333333333
147
0.0
147
0.0
147
0.0
147
0.0
147
0.0208333333333333
147
0.0
147
0.0
147
0.0
147
0.0
147
1.0
147
0.0
147
0.0
147
0.0
147
0.0
147
1.0
  0
MLEADERSTYLE
  5
67
102
{ACAD_REACTORS
330
66
102
}
330
66
100
AcDbMLeaderStyle
179
     2
170
     2
171
     1
172
     0
 90
        2
 40
0.0
 41
0.0
173
     1
 91
-1056964608
340
5B
 92
       -2
290
     1
 42
0.09
291
     1
 43
0.36
  3
Standard
 44
0.18
300

342
55
174
     1
178
     6
175
     1
176
     0
 93
-1056964608
 45
0.18
292
     0
297
     0
 46
0.18
 94
-1056964608
 47
1.0
 49
1.0
140
1.0
293
     1
141
0.0
294
     1
177
     0
142
1.0
295
     1
296
     0
143
0.125
271
     0
272
     9
273
     9
298
     1
  0
MLINESTYLE
  5
60
102
{ACAD_REACTORS
330
5F
102
}
330
5F
100
AcDbMlineStyle
  2
STANDARD
 70
     0
  3

 62
   256
 51
90.0
 52
90.0
 71
     2
 49
0.5
 62
   256
  6
BYLAYER
 49
-0.5
 62
   256
  6
BYLAYER
  0
ACDBPLACEHOLDER
  5
F
102
{ACAD_REACTORS
330
E
102
}
330
E
  0
SCALE
  5
43
102
{ACAD_REACTORS
330
42
102
}
330
42
100
AcDbScale
 70
     0
300
1:1
140
1.0
141
1.0
290
     1
  0
SCALE
  5
44
102
{ACAD_REACTORS
330
42
102
}
330
42
100
AcDbScale
 70
     0
300
1/128" = 1'-0"
140
0.0078125
141
12.0
290
     0
  0
SCALE
  5
45
102
{ACAD_REACTORS
330
42
102
}
330
42
100
AcDbScale
 70
     0
300
1/64" = 1'-0"
140
0.015625
141
12.0
290
     0
  0
SCALE
  5
46
102
{ACAD_REACTORS
330
42
102
}
330
42
100
AcDbScale
 70
     0
300
1/32" = 1'-0"
140
0.03125
141
12.0
290
     0
  0
SCALE
  5
47
102
{ACAD_REACTORS
330
42
102
}
330
42
100
AcDbScale
 70
     0
300
1/16" = 1'-0"
140
0.0625
141
12.0
290
     0
  0
SCALE
  5
48
102
{ACAD_REACTORS
330
42
102
}
330
42
100
AcDbScale
 70
     0
300
3/32" = 1'-0"
140
0.09375
141
12.0
290
     0
  0
SCALE
  5
49
102
{ACAD_REACTORS
330
42
102
}
330
42
100
AcDbScale
 70
     0
300
1/8" = 1'-0"
140
0.125
141
12.0
290
     0
  0
SCALE
  5
4A
102
{ACAD_REACTORS
330
42
102
}
330
42
100
AcDbScale
 70
     0
300
3/16" = 1'-0"
140
0.1875
141
12.0
290
     0
  0
SCALE
  5
4B
102
{ACAD_REACTORS
330
42
102
}
330
42
100
AcDbScale
 70
     0
300
1/4" = 1'-0"
140
0.25
141
12.0
290
     0
  0
SCALE
  5
4C
102
{ACAD_REACTORS
330
42
102
}
330
42
100
AcDbScale
 70
     0
300
3/8" = 1'-0"
140
0.375
141
12.0
290
     0
  0
SCALE
  5
4D
102
{ACAD_REACTORS
330
42
102
}
330
42
100
AcDbScale
 70
     0
300
1/2" = 1'-0"
140
0.5
141
12.0
290
     0
  0
SCALE
  5
4E
102
{ACAD_REACTORS
330
42
102
}
330
42
100
AcDbScale
 70
     0
300
3/4" = 1'-0"
140
0.75
141
12.0
290
     0
  0
SCALE
  5
4F
102
{ACAD_REACTORS
330
42
102
}
330
42
100
AcDbScale
 70
     0
300
1" = 1'-0"
140
1.0
141
12.0
290
     0
  0
SCALE
  5
50
102
{ACAD_REACTORS
330
42
102
}
330
42
100
AcDbScale
 70
     0
300
1-1/2" = 1'-0"
140
1.5
141
12.0
290
     0
  0
SCALE
  5
51
102
{ACAD_REACTORS
330
42
102
}
330
42
100
AcDbScale
 70
     0
300
3" = 1'-0"
140
3.0
141
12.0
290
     0
  0
SCALE
  5
52
102
{ACAD_REACTORS
330
42
102
}
330
42
100
AcDbScale
 70
     0
300
6" = 1'-0"
140
6.0
141
12.0
290
     0
  0
SCALE
  5
53
102
{ACAD_REACTORS
330
42
102
}
330
42
100
AcDbScale
 70
     0
300
1'-0" = 1'-0"
140
12.0
141
12.0
290
     0
  0
ACDBSECTIONVIEWSTYLE
  5
69
102
{ACAD_REACTORS
330
68
102
}
330
68
100
AcDbModelDocViewStyle
 70
     0
  3
Imperial24
290
     1
300
Imperial24
 90
        0
100
AcDbSectionViewStyle
 70
     0
 71
     0
 90
       78
 71
     1
340
55
 62
   256
 40
0.24
340
0
340
0
 62
   256
 40
0.24
300
I, O, Q, S, X, Z
 40
0.48
 90
        3
 40
0.18
 90
        1
 71
     2
340
5D
 90
       25
 62
   256
340
5D
 90
       50
 62
   256
 40
0.24
 40
0.0
 40
0.24
 71
     3
340
55
 62
   256
 40
0.24
 90
        1
 40
0.75
 90
        1
300
%<\AcVar ViewType \f "%tc1">% %<\AcVar ViewSectionStartId>%-%<\AcVar ViewSectionEndId>%\PSCALE %<\AcVar ViewScale \f "%sn">%
 71
     4
 62
   256
 62
   257
300
ANSI31
 40
1.0
 90
        0
290
     0
290
     0
 90
        6
 40
0.0
 40
1.570796326794896
 40
0.2617993877991494
 40
1.308996938995747
 40
-0.2617993877991494
 40
1.832595714594046
  0
TABLESTYLE
  5
65
102
{ACAD_XDICTIONARY
360
141
102
}
102
{ACAD_REACTORS
330
64
102
}
330
64
100
AcDbTableStyle
280
     0
  3
Standard
 70
     0
 71
     0
 40
0.06
 41
0.06
280
     0
281
     0
  7
Standard
140
0.18
170
     2
 62
     0
 63
     7
283
     0
 90
      512
 91
        0
  1

274
    -2
284
     1
 64
     0
275
    -2
285
     1
 65
     0
276
    -2
286
     1
 66
     0
277
    -2
287
     1
 67
     0
278
    -2
288
     1
 68
     0
279
    -2
289
     1
 69
     0
  7
Standard
140
0.25
170
     5
 62
     0
 63
     7
283
     0
 90
      512
 91
        0
  1

274
    -2
284
     1
 64
     0
275
    -2
285
     1
 65
     0
276
    -2
286
     1
 66
     0
277
    -2
287
     1
 67
     0
278
    -2
288
     1
 68
     0
279
    -2
289
     1
 69
     0
  7
Standard
140
0.18
170
     5
 62
     0
 63
     7
283
     0
 90
      512
 91
        0
  1

274
    -2
284
     1
 64
     0
275
    -2
285
     1
 65
     0
276
    -2
286
     1
 66
     0
277
    -2
287
     1
 67
     0
278
    -2
288
     1
 68
     0
279
    -2
289
     1
 69
     0
  0
VISUALSTYLE
  5
2F
102
{ACAD_REACTORS
330
29
102
}
330
29
100
AcDbVisualStyle
  2
2dWireframe
 70
     4
177
     3
291
     0
 70
    58
 90
        0
176
     1
 90
        2
176
     1
 90
        0
176
     1
 90
        0
176
     1
 40
0.6
176
     1
 40
30.0
176
     1
 62
     7
420
 16777215
176
     1
 90
        1
176
     1
 90
        4
176
     1
 62
     7
176
     1
 62
   257
176
     1
 90
        1
176
     1
 90
        1
176
     1
 40
1.0
176
     1
 90
        0
176
     1
 62
   257
176
     1
 40
1.0
176
     1
 90
        1
176
     1
 90
        6
176
     1
 90
        2
176
     1
 62
     7
176
     1
 90
        5
176
     1
 90
        0
176
     1
 90
        0
176
     1
290
     0
176
     1
 90
        1
176
     1
 40
0.0
176
     1
 90
        0
176
     1
290
     1
176
     1
290
     1
176
     1
290
     0
176
     1
290
     0
176
     1
290
     0
176
     1
290
     0
176
     1
290
     0
176
     1
290
     0
176
     1
290
     0
176
     1
 90
       50
176
     1
 40
0.0
176
     1
 40
1.0
176
     1
 90
        0
176
     1
 62
    18
420
        0
176
     1
 90
       50
176
     1
 90
        3
176
     1
 62
     5
420
      255
176
     1
290
     0
176
     1
 90
       50
176
     1
 90
       50
176
     1
 90
       50
176
     1
290
     0
176
     1
 90
       50
176
     1
 62
   256
176
     0
 40
1.0
176
     0
 90
        2
176
     1
  1
strokes_ogs.tif
176
     1
290
     0
176
     1
 40
1.0
176
     1
 40
1.0
176
     1
  0
VISUALSTYLE
  5
2E
102
{ACAD_REACTORS
330
29
102
}
330
29
100
AcDbVisualStyle
  2
Basic
 70
     7
177
     3
291
     1
 70
    58
 90
        1
176
     1
 90
        0
176
     1
 90
        1
176
     1
 90
        0
176
     1
 40
0.6
176
     1
 40
30.0
176
     1
 62
     7
420
 16777215
176
     1
 90
        0
176
     1
 90
        4
176
     1
 62
     7
176
     1
 62
   257
176
     1
 90
        1
176
     1
 90
        1
176
     1
 40
1.0
176
     1
 90
        8
176
     1
 62
     7
176
     1
 40
1.0
176
     1
 90
        1
176
     1
 90
        6
176
     1
 90
        2
176
     1
 62
     7
176
     1
 90
        5
176
     1
 90
        0
176
     1
 90
        0
176
     1
290
     0
176
     1
 90
        1
176
     1
 40
0.0
176
     1
 90
        0
176
     1
290
     0
176
     1
290
     1
176
     1
290
     1
176
     1
290
     0
176
     1
290
     0
176
     1
290
     0
176
     1
290
     0
176
     1
290
     0
176
     1
290
     0
176
     1
 90
       50
176
     1
 40
0.0
176
     1
 40
1.0
176
     1
 90
        0
176
     1
 62
    18
420
        0
176
     1
 90
       50
176
     1
 90
        3
176
     1
 62
     5
420
      255
176
     1
290
     0
176
     1
 90
       50
176
     1
 90
       50
176
     1
 90
       50
176
     1
290
     0
176
     1
 90
       50
176
     1
 62
   256
176
     0
 40
1.0
176
     0
 90
        2
176
     1
  1
strokes_ogs.tif
176
     1
290
     0
176
     1
 40
1.0
176
     1
 40
1.0
176
     1
  0
VISUALSTYLE
  5
35
102
{ACAD_REACTORS
330
29
102
}
330
29
100
AcDbVisualStyle
  2
Brighten
 70
    12
177
     3
291
     1
 70
    58
 90
        2
176
     1
 90
        2
176
     1
 90
        0
176
     1
 90
        0
176
     1
 40
0.6
176
     1
 40
30.0
176
     1
 62
     7
420
 16777215
176
     1
 90
        1
176
     1
 90
        4
176
     1
 62
     7
176
     1
 62
   257
176
     1
 90
        1
176
     1
 90
        1
176
     1
 40
1.0
176
     1
 90
        8
176
     1
 62
     7
176
     1
 40
1.0
176
     1
 90
        1
176
     1
 90
        6
176
     1
 90
        2
176
     1
 62
     7
176
     1
 90
        5
176
     1
 90
        0
176
     1
 90
        0
176
     1
290
     0
176
     1
 90
        1
176
     1
 40
50.0
176
     1
 90
        0
176
     1
290
     0
176
     1
290
     1
176
     1
290
     1
176
     1
290
     0
176
     1
290
     0
176
     1
290
     0
176
     1
290
     0
176
     1
290
     0
176
     1
290
     0
176
     1
 90
       50
176
     1
 40
0.0
176
     1
 40
1.0
176
     1
 90
        0
176
     1
 62
    18
420
        0
176
     1
 90
       50
176
     1
 90
        3
176
     1
 62
     5
420
      255
176
     1
290
     0
176
     1
 90
       50
176
     1
 90
       50
176
     1
 90
       50
176
     1
290
     0
176
     1
 90
       50
176
     1
 62
   256
176
     0
 40
1.0
176
     0
 90
        2
176
     1
  1
strokes_ogs.tif
176
     1
290
     0
176
     1
 40
1.0
176
     1
 40
1.0
176
     1
  0
VISUALSTYLE
  5
39
102
{ACAD_REACTORS
330
29
102
}
330
29
100
AcDbVisualStyle
  2
ColorChange
 70
    16
177
     3
291
     1
 70
    58
 90
        2
176
     1
 90
        2
176
     1
 90
        3
176
     1
 90
        0
176
     1
 40
0.6
176
     1
 40
30.0
176
     1
 62
     8
420
  8421504
176
     1
 90
        1
176
     1
 90
        4
176
     1
 62
     7
176
     1
 62
   257
176
     1
 90
        1
176
     1
 90
        1
176
     1
 40
1.0
176
     1
 90
        8
176
     1
 62
     8
420
  8421504
176
     1
 40
1.0
176
     1
 90
        1
176
     1
 90
        6
176
     1
 90
        2
176
     1
 62
     7
176
     1
 90
        5
176
     1
 90
        0
176
     1
 90
        0
176
     1
290
     0
176
     1
 90
        1
176
     1
 40
0.0
176
     1
 90
        0
176
     1
290
     0
176
     1
290
     1
176
     1
290
     1
176
     1
290
     0
176
     1
290
     0
176
     1
290
     0
176
     1
290
     0
176
     1
290
     0
176
     1
290
     0
176
     1
 90
       50
176
     1
 40
0.0
176
     1
 40
1.0
176
     1
 90
        0
176
     1
 62
    18
420
        0
176
     1
 90
       50
176
     1
 90
        3
176
     1
 62
     5
420
      255
176
     1
290
     0
176
     1
 90
       50
176
     1
 90
       50
176
     1
 90
       50
176
     1
290
     0
176
     1
 90
       50
176
     1
 62
   256
176
     0
 40
1.0
176
     0
 90
        2
176
     1
  1
strokes_ogs.tif
176
     1
290
     0
176
     1
 40
1.0
176
     1
 40
1.0
176
     1
  0
VISUALSTYLE
  5
32
102
{ACAD_REACTORS
330
29
102
}
330
29
100
AcDbVisualStyle
  2
Conceptual
 70
     9
177
     3
291
     0
 70
    58
 90
        3
176
     1
 90
        2
176
     1
 90
        0
176
     1
 90
        0
176
     1
 40
0.6
176
     1
 40
30.0
176
     1
 62
     7
420
 16777215
176
     1
 90
        2
176
     1
 90
        2
176
     1
 62
     7
176
     1
 62
   257
176
     1
 90
        1
176
     1
 90
        1
176
     1
 40
179.0
176
     1
 90
        8
176
     1
 62
     7
176
     1
 40
1.0
176
     1
 90
        1
176
     1
 90
        6
176
     1
 90
        2
176
     1
 62
     7
176
     1
 90
        3
176
     1
 90
        0
176
     1
 90
        0
176
     1
290
     0
176
     1
 90
        1
176
     1
 40
0.0
176
     1
 90
        0
176
     1
290
     0
176
     1
290
     1
176
     1
290
     1
176
     1
290
     0
176
     1
290
     0
176
     1
290
     0
176
     1
290
     0
176
     1
290
     0
176
     1
290
     0
176
     1
 90
       50
176
     1
 40
0.0
176
     1
 40
1.0
176
     1
 90
        0
176
     1
 62
    18
420
        0
176
     1
 90
       50
176
     1
 90
        3
176
     1
 62
     5
420
      255
176
     1
290
     0
176
     1
 90
       50
176
     1
 90
       50
176
     1
 90
       50
176
     1
290
     0
176
     1
 90
       50
176
     1
 62
   256
176
     0
 40
1.0
176
     0
 90
        2
176
     1
  1
strokes_ogs.tif
176
     1
290
     0
176
     1
 40
1.0
176
     1
 40
1.0
176
     1
  0
VISUALSTYLE
  5
34
102
{ACAD_REACTORS
330
29
102
}
330
29
100
AcDbVisualStyle
  2
Dim
 70
    11
177
     3
291
     1
 70
    58
 90
        2
176
     1
 90
        2
176
     1
 90
        0
176
     1
 90
        0
176
     1
 40
0.6
176
     1
 40
30.0
176
     1
 62
     7
420
 16777215
176
     1
 90
        1
176
     1
 90
        4
176
     1
 62
     7
176
     1
 62
   257
176
     1
 90
        1
176
     1
 90
        1
176
     1
 40
1.0
176
     1
 90
        8
176
     1
 62
     7
176
     1
 40
1.0
176
     1
 90
        1
176
     1
 90
        6
176
     1
 90
        2
176
     1
 62
     7
176
     1
 90
        5
176
     1
 90
        0
176
     1
 90
        0
176
     1
290
     0
176
     1
 90
        1
176
     1
 40
-50.0
176
     1
 90
        0
176
     1
290
     0
176
     1
290
     1
176
     1
290
     1
176
     1
290
     0
176
     1
290
     0
176
     1
290
     0
176
     1
290
     0
176
     1
290
     0
176
     1
290
     0
176
     1
 90
       50
176
     1
 40
0.0
176
     1
 40
1.0
176
     1
 90
        0
176
     1
 62
    18
420
        0
176
     1
 90
       50
176
     1
 90
        3
176
     1
 62
     5
420
      255
176
     1
290
     0
176
     1
 90
       50
176
     1
 90
       50
176
     1
 90
       50
176
     1
290
     0
176
     1
 90
       50
176
     1
 62
   256
176
     0
 40
1.0
176
     0
 90
        2
176
     1
  1
strokes_ogs.tif
176
     1
290
     0
176
     1
 40
1.0
176
     1
 40
1.0
176
     1
  0
VISUALSTYLE
  5
41
102
{ACAD_REACTORS
330
29
102
}
330
29
100
AcDbVisualStyle
  2
EdgeColorOff
 70
    22
177
     3
291
     1
 70
    58
 90
        2
176
     0
 90
        2
176
     0
 90
        0
176
     0
 90
        0
176
     0
 40
0.6
176
     0
 40
30.0
176
     0
 62
     7
420
 16777215
176
     0
 90
        1
176
     0
 90
        4
176
     0
 62
     7
176
     0
 62
   257
176
     0
 90
        1
176
     0
 90
        1
176
     0
 40
1.0
176
     0
 90
        8
176
     2
 62
     7
176
     0
 40
1.0
176
     0
 90
        1
176
     0
 90
        6
176
     0
 90
        2
176
     0
 62
     7
176
     0
 90
        5
176
     0
 90
        0
176
     0
 90
        0
176
     0
290
     0
176
     0
 90
        1
176
     0
 40
0.0
176
     0
 90
        0
176
     0
290
     0
176
     0
290
     1
176
     0
290
     1
176
     0
290
     0
176
     0
290
     0
176
     0
290
     0
176
     0
290
     0
176
     0
290
     0
176
     0
290
     0
176
     0
 90
       50
176
     0
 40
0.0
176
     0
 40
1.0
176
     0
 90
        0
176
     0
 62
    18
420
        0
176
     0
 90
       50
176
     0
 90
        3
176
     0
 62
     5
420
      255
176
     0
290
     0
176
     0
 90
       50
176
     0
 90
       50
176
     0
 90
       50
176
     0
290
     0
176
     0
 90
       50
176
     0
 62
   256
176
     0
 40
1.0
176
     0
 90
        2
176
     0
  1
strokes_ogs.tif
176
     0
290
     0
176
     0
 40
1.0
176
     0
 40
1.0
176
     0
  0
VISUALSTYLE
  5
38
102
{ACAD_REACTORS
330
29
102
}
330
29
100
AcDbVisualStyle
  2
Facepattern
 70
    15
177
     3
291
     1
 70
    58
 90
        2
176
     1
 90
        2
176
     1
 90
        0
176
     1
 90
        0
176
     1
 40
0.6
176
     1
 40
30.0
176
     1
 62
     7
420
 16777215
176
     1
 90
        1
176
     1
 90
        4
176
     1
 62
     7
176
     1
 62
   257
176
     1
 90
        1
176
     1
 90
        1
176
     1
 40
1.0
176
     1
 90
        8
176
     1
 62
     7
176
     1
 40
1.0
176
     1
 90
        1
176
     1
 90
        6
176
     1
 90
        2
176
     1
 62
     7
176
     1
 90
        5
176
     1
 90
        0
176
     1
 90
        0
176
     1
290
     0
176
     1
 90
        1
176
     1
 40
0.0
176
     1
 90
        0
176
     1
290
     0
176
     1
290
     1
176
     1
290
     1
176
     1
290
     0
176
     1
290
     0
176
     1
290
     0
176
     1
290
     0
176
     1
290
     0
176
     1
290
     0
176
     1
 90
       50
176
     1
 40
0.0
176
     1
 40
1.0
176
     1
 90
        0
176
     1
 62
    18
420
        0
176
     1
 90
       50
176
     1
 90
        3
176
     1
 62
     5
420
      255
176
     1
290
     0
176
     1
 90
       50
176
     1
 90
       50
176
     1
 90
       50
176
     1
290
     0
176
     1
 90
       50
176
     1
 62
   256
176
     0
 40
1.0
176
     0
 90
        2
176
     1
  1
strokes_ogs.tif
176
     1
290
     0
176
     1
 40
1.0
176
     1
 40
1.0
176
     1
  0
VISUALSTYLE
  5
2A
102
{ACAD_REACTORS
330
29
102
}
330
29
100
AcDbVisualStyle
  2
Flat
 70
     0
177
     3
291
     1
 70
    58
 90
        2
176
     1
 90
        1
176
     1
 90
        1
176
     1
 90
        2
176
     1
 40
0.6
176
     1
 40
30.0
176
     1
 62
     7
420
 16777215
176
     1
 90
        0
176
     1
 90
        0
176
     1
 62
     7
176
     1
 62
   257
176
     1
 90
        1
176
     1
 90
        1
176
     1
 40
1.0
176
     1
 90
        8
176
     1
 62
     7
176
     1
 40
1.0
176
     1
 90
        1
176
     1
 90
        6
176
     1
 90
        2
176
     1
 62
     7
176
     1
 90
        5
176
     1
 90
        0
176
     1
 90
        0
176
     1
290
     0
176
     1
 90
       13
176
     1
 40
0.0
176
     1
 90
        0
176
     1
290
     0
176
     1
290
     1
176
     1
290
     1
176
     1
290
     0
176
     1
290
     0
176
     1
290
     0
176
     1
290
     0
176
     1
290
     0
176
     1
290
     0
176
     1
 90
       50
176
     1
 40
0.0
176
     1
 40
1.0
176
     1
 90
        0
176
     1
 62
    18
420
        0
176
     1
 90
       50
176
     1
 90
        3
176
     1
 62
     5
420
      255
176
     1
290
     0
176
     1
 90
       50
176
     1
 90
       50
176
     1
 90
       50
176
     1
290
     0
176
     1
 90
       50
176
     1
 62
   256
176
     0
 40
1.0
176
     0
 90
        2
176
     1
  1
strokes_ogs.tif
176
     1
290
     0
176
     1
 40
1.0
176
     1
 40
1.0
176
     1
  0
VISUALSTYLE
  5
2B
102
{ACAD_REACTORS
330
29
102
}
330
29
100
AcDbVisualStyle
  2
FlatWithEdges
 70
     1
177
     3
291
     1
 70
    58
 90
        2
176
     1
 90
        1
176
     1
 90
        1
176
     1
 90
        2
176
     1
 40
0.6
176
     1
 40
30.0
176
     1
 62
     7
420
 16777215
176
     1
 90
        1
176
     1
 90
        0
176
     1
 62
     7
176
     1
 62
   257
176
     1
 90
        1
176
     1
 90
        1
176
     1
 40
1.0
176
     1
 90
        0
176
     1
 62
   257
176
     1
 40
1.0
176
     1
 90
        1
176
     1
 90
        6
176
     1
 90
        2
176
     1
 62
     7
176
     1
 90
        5
176
     1
 90
        0
176
     1
 90
        0
176
     1
290
     0
176
     1
 90
       13
176
     1
 40
0.0
176
     1
 90
        0
176
     1
290
     0
176
     1
290
     1
176
     1
290
     1
176
     1
290
     0
176
     1
290
     0
176
     1
290
     0
176
     1
290
     0
176
     1
290
     0
176
     1
290
     0
176
     1
 90
       50
176
     1
 40
0.0
176
     1
 40
1.0
176
     1
 90
        0
176
     1
 62
    18
420
        0
176
     1
 90
       50
176
     1
 90
        3
176
     1
 62
     5
420
      255
176
     1
290
     0
176
     1
 90
       50
176
     1
 90
       50
176
     1
 90
       50
176
     1
290
     0
176
     1
 90
       50
176
     1
 62
   256
176
     0
 40
1.0
176
     0
 90
        2
176
     1
  1
strokes_ogs.tif
176
     1
290
     0
176
     1
 40
1.0
176
     1
 40
1.0
176
     1
  0
VISUALSTYLE
  5
2C
102
{ACAD_REACTORS
330
29
102
}
330
29
100
AcDbVisualStyle
  2
Gouraud
 70
     2
177
     3
291
     1
 70
    58
 90
        2
176
     1
 90
        2
176
     1
 90
        1
176
     1
 90
        2
176
     1
 40
0.6
176
     1
 40
30.0
176
     1
 62
     7
420
 16777215
176
     1
 90
        0
176
     1
 90
        0
176
     1
 62
     7
176
     1
 62
   257
176
     1
 90
        1
176
     1
 90
        1
176
     1
 40
1.0
176
     1
 90
        0
176
     1
 62
     7
176
     1
 40
1.0
176
     1
 90
        1
176
     1
 90
        6
176
     1
 90
        2
176
     1
 62
     7
176
     1
 90
        5
176
     1
 90
        0
176
     1
 90
        0
176
     1
290
     0
176
     1
 90
       13
176
     1
 40
0.0
176
     1
 90
        0
176
     1
290
     0
176
     1
290
     1
176
     1
290
     1
176
     1
290
     0
176
     1
290
     0
176
     1
290
     0
176
     1
290
     0
176
     1
290
     0
176
     1
290
     0
176
     1
 90
       50
176
     1
 40
0.0
176
     1
 40
1.0
176
     1
 90
        0
176
     1
 62
    18
420
        0
176
     1
 90
       50
176
     1
 90
        3
176
     1
 62
     5
420
      255
176
     1
290
     0
176
     1
 90
       50
176
     1
 90
       50
176
     1
 90
       50
176
     1
290
     0
176
     1
 90
       50
176
     1
 62
   256
176
     0
 40
1.0
176
     0
 90
        2
176
     1
  1
strokes_ogs.tif
176
     1
290
     0
176
     1
 40
1.0
176
     1
 40
1.0
176
     1
  0
VISUALSTYLE
  5
2D
102
{ACAD_REACTORS
330
29
102
}
330
29
100
AcDbVisualStyle
  2
GouraudWithEdges
 70
     3
177
     3
291
     1
 70
    58
 90
        2
176
     1
 90
        2
176
     1
 90
        1
176
     1
 90
        2
176
     1
 40
0.6
176
     1
 40
30.0
176
     1
 62
     7
420
 16777215
176
     1
 90
        1
176
     1
 90
        0
176
     1
 62
     7
176
     1
 62
   257
176
     1
 90
        1
176
     1
 90
        1
176
     1
 40
1.0
176
     1
 90
        0
176
     1
 62
   257
176
     1
 40
1.0
176
     1
 90
        1
176
     1
 90
        6
176
     1
 90
        2
176
     1
 62
     7
176
     1
 90
        5
176
     1
 90
        0
176
     1
 90
        0
176
     1
290
     0
176
     1
 90
       13
176
     1
 40
0.0
176
     1
 90
        0
176
     1
290
     0
176
     1
290
     1
176
     1
290
     1
176
     1
290
     0
176
     1
290
     0
176
     1
290
     0
176
     1
290
     0
176
     1
290
     0
176
     1
290
     0
176
     1
 90
       50
176
     1
 40
0.0
176
     1
 40
1.0
176
     1
 90
        0
176
     1
 62
    18
420
        0
176
     1
 90
       50
176
     1
 90
        3
176
     1
 62
     5
420
      255
176
     1
290
     0
176
     1
 90
       50
176
     1
 90
       50
176
     1
 90
       50
176
     1
290
     0
176
     1
 90
       50
176
     1
 62
   256
176
     0
 40
1.0
176
     0
 90
        2
176
     1
  1
strokes_ogs.tif
176
     1
290
     0
176
     1
 40
1.0
176
     1
 40
1.0
176
     1
  0
VISUALSTYLE
  5
31
102
{ACAD_REACTORS
330
29
102
}
330
29
100
AcDbVisualStyle
  2
Hidden
 70
     6
177
     3
291
     0
 70
    58
 90
        1
176
     1
 90
        2
176
     1
 90
        2
176
     1
 90
        0
176
     1
 40
0.6
176
     1
 40
30.0
176
     1
 62
     7
420
 16777215
176
     1
 90
        2
176
     1
 90
        2
176
     1
 62
     7
176
     1
 62
   257
176
     1
 90
        2
176
     1
 90
        1
176
     1
 40
40.0
176
     1
 90
        0
176
     1
 62
   257
176
     1
 40
1.0
176
     1
 90
        1
176
     1
 90
        6
176
     1
 90
        2
176
     1
 62
     7
176
     1
 90
        3
176
     1
 90
        0
176
     1
 90
        0
176
     1
290
     0
176
     1
 90
        1
176
     1
 40
0.0
176
     1
 90
        0
176
     1
290
     0
176
     1
290
     1
176
     1
290
     1
176
     1
290
     0
176
     1
290
     0
176
     1
290
     0
176
     1
290
     0
176
     1
290
     0
176
     1
290
     0
176
     1
 90
       50
176
     1
 40
0.0
176
     1
 40
1.0
176
     1
 90
        0
176
     1
 62
    18
420
        0
176
     1
 90
       50
176
     1
 90
        3
176
     1
 62
     5
420
      255
176
     1
290
     0
176
     1
 90
       50
176
     1
 90
       50
176
     1
 90
       50
176
     1
290
     0
176
     1
 90
       50
176
     1
 62
   256
176
     0
 40
1.0
176
     0
 90
        2
176
     1
  1
strokes_ogs.tif
176
     1
290
     0
176
     1
 40
1.0
176
     1
 40
1.0
176
     1
  0
VISUALSTYLE
  5
3F
102
{ACAD_REACTORS
330
29
102
}
330
29
100
AcDbVisualStyle
  2
JitterOff
 70
    20
177
     3
291
     1
 70
    58
 90
        2
176
     0
 90
        2
176
     0
 90
        0
176
     0
 90
        0
176
     0
 40
0.6
176
     0
 40
30.0
176
     0
 62
     7
420
 16777215
176
     0
 90
        1
176
     0
 90
        4
176
     0
 62
     7
176
     0
 62
   257
176
     0
 90
        1
176
     0
 90
        1
176
     0
 40
1.0
176
     0
 90
       10
176
     2
 62
     7
176
     0
 40
1.0
176
     0
 90
        1
176
     0
 90
        6
176
     0
 90
        2
176
     0
 62
     7
176
     0
 90
        5
176
     0
 90
        0
176
     0
 90
        0
176
     0
290
     0
176
     0
 90
        1
176
     0
 40
0.0
176
     0
 90
        0
176
     0
290
     0
176
     0
290
     1
176
     0
290
     1
176
     0
290
     0
176
     0
290
     0
176
     0
290
     0
176
     0
290
     0
176
     0
290
     0
176
     0
290
     0
176
     0
 90
       50
176
     0
 40
0.0
176
     0
 40
1.0
176
     0
 90
        0
176
     0
 62
    18
420
        0
176
     0
 90
       50
176
     0
 90
        3
176
     0
 62
     5
420
      255
176
     0
290
     0
176
     0
 90
       50
176
     0
 90
       50
176
     0
 90
       50
176
     0
290
     0
176
     0
 90
       50
176
     0
 62
   256
176
     0
 40
1.0
176
     0
 90
        2
176
     0
  1
strokes_ogs.tif
176
     0
290
     0
176
     0
 40
1.0
176
     0
 40
1.0
176
     0
  0
VISUALSTYLE
  5
37
102
{ACAD_REACTORS
330
29
102
}
330
29
100
AcDbVisualStyle
  2
Linepattern
 70
    14
177
     3
291
     1
 70
    58
 90
        2
176
     1
 90
        2
176
     1
 90
        0
176
     1
 90
        0
176
     1
 40
0.6
176
     1
 40
30.0
176
     1
 62
     7
420
 16777215
176
     1
 90
        1
176
     1
 90
        4
176
     1
 62
     7
176
     1
 62
   257
176
     1
 90
        7
176
     1
 90
        7
176
     1
 40
1.0
176
     1
 90
        8
176
     1
 62
     7
176
     1
 40
1.0
176
     1
 90
        1
176
     1
 90
        6
176
     1
 90
        2
176
     1
 62
     7
176
     1
 90
        5
176
     1
 90
        0
176
     1
 90
        0
176
     1
290
     0
176
     1
 90
        1
176
     1
 40
0.0
176
     1
 90
        0
176
     1
290
     0
176
     1
290
     1
176
     1
290
     1
176
     1
290
     0
176
     1
290
     0
176
     1
290
     0
176
     1
290
     0
176
     1
290
     0
176
     1
290
     0
176
     1
 90
       50
176
     1
 40
0.0
176
     1
 40
1.0
176
     1
 90
        0
176
     1
 62
    18
420
        0
176
     1
 90
       50
176
     1
 90
        3
176
     1
 62
     5
420
      255
176
     1
290
     0
176
     1
 90
       50
176
     1
 90
       50
176
     1
 90
       50
176
     1
290
     0
176
     1
 90
       50
176
     1
 62
   256
176
     0
 40
1.0
176
     0
 90
        2
176
     1
  1
strokes_ogs.tif
176
     1
290
     0
176
     1
 40
1.0
176
     1
 40
1.0
176
     1
  0
VISUALSTYLE
  5
40
102
{ACAD_REACTORS
330
29
102
}
330
29
100
AcDbVisualStyle
  2
OverhangOff
 70
    21
177
     3
291
     1
 70
    58
 90
        2
176
     0
 90
        2
176
     0
 90
        0
176
     0
 90
        0
176
     0
 40
0.6
176
     0
 40
30.0
176
     0
 62
     7
420
 16777215
176
     0
 90
        1
176
     0
 90
        4
176
     0
 62
     7
176
     0
 62
   257
176
     0
 90
        1
176
     0
 90
        1
176
     0
 40
1.0
176
     0
 90
        9
176
     2
 62
     7
176
     0
 40
1.0
176
     0
 90
        1
176
     0
 90
        6
176
     0
 90
        2
176
     0
 62
     7
176
     0
 90
        5
176
     0
 90
        0
176
     0
 90
        0
176
     0
290
     0
176
     0
 90
        1
176
     0
 40
0.0
176
     0
 90
        0
176
     0
290
     0
176
     0
290
     1
176
     0
290
     1
176
     0
290
     0
176
     0
290
     0
176
     0
290
     0
176
     0
290
     0
176
     0
290
     0
176
     0
290
     0
176
     0
 90
       50
176
     0
 40
0.0
176
     0
 40
1.0
176
     0
 90
        0
176
     0
 62
    18
420
        0
176
     0
 90
       50
176
     0
 90
        3
176
     0
 62
     5
420
      255
176
     0
290
     0
176
     0
 90
       50
176
     0
 90
       50
176
     0
 90
       50
176
     0
290
     0
176
     0
 90
       50
176
     0
 62
   256
176
     0
 40
1.0
176
     0
 90
        2
176
     0
  1
strokes_ogs.tif
176
     0
290
     0
176
     0
 40
1.0
176
     0
 40
1.0
176
     0
  0
VISUALSTYLE
  5
33
102
{ACAD_REACTORS
330
29
102
}
330
29
100
AcDbVisualStyle
  2
Realistic
 70
     8
177
     3
291
     0
 70
    58
 90
        2
176
     1
 90
        3
176
     1
 90
        0
176
     1
 90
        2
176
     1
 40
0.6
176
     1
 40
30.0
176
     1
 62
     7
420
 16777215
176
     1
 90
        0
176
     1
 90
        0
176
     1
 62
     7
176
     1
 62
   257
176
     1
 90
        1
176
     1
 90
        1
176
     1
 40
1.0
176
     1
 90
        8
176
     1
 62
   257
176
     1
 40
1.0
176
     1
 90
        1
176
     1
 90
        6
176
     1
 90
        2
176
     1
 62
     7
176
     1
 90
        3
176
     1
 90
        0
176
     1
 90
        0
176
     1
290
     0
176
     1
 90
       13
176
     1
 40
0.0
176
     1
 90
        0
176
     1
290
     0
176
     1
290
     1
176
     1
290
     1
176
     1
290
     0
176
     1
290
     0
176
     1
290
     0
176
     1
290
     0
176
     1
290
     0
176
     1
290
     0
176
     1
 90
       50
176
     1
 40
0.0
176
     1
 40
1.0
176
     1
 90
        0
176
     1
 62
    18
420
        0
176
     1
 90
       50
176
     1
 90
        3
176
     1
 62
     5
420
      255
176
     1
290
     0
176
     1
 90
       50
176
     1
 90
       50
176
     1
 90
       50
176
     1
290
     0
176
     1
 90
       50
176
     1
 62
   256
176
     0
 40
1.0
176
     0
 90
        2
176
     1
  1
strokes_ogs.tif
176
     1
290
     0
176
     1
 40
1.0
176
     1
 40
1.0
176
     1
  0
VISUALSTYLE
  5
3E
102
{ACAD_REACTORS
330
29
102
}
330
29
100
AcDbVisualStyle
  2
Shaded
 70
    27
177
     3
291
     0
 70
    58
 90
        2
176
     1
 90
        2
176
     1
 90
        1
176
     1
 90
        2
176
     1
 40
0.6
176
     1
 40
30.0
176
     1
 62
     7
420
 16777215
176
     1
 90
        0
176
     1
 90
        4
176
     1
 62
     7
176
     1
 62
   257
176
     1
 90
        1
176
     1
 90
        1
176
     1
 40
1.0
176
     1
 90
        8
176
     1
 62
   257
176
     1
 40
1.0
176
     1
 90
        1
176
     1
 90
        6
176
     1
 90
        2
176
     1
 62
     8
420
  7895160
176
     1
 90
        3
176
     1
 90
        0
176
     1
 90
        0
176
     1
290
     0
176
     1
 90
        5
176
     1
 40
0.0
176
     1
 90
        0
176
     1
290
     0
176
     1
290
     1
176
     1
290
     1
176
     1
290
     0
176
     1
290
     0
176
     1
290
     0
176
     1
290
     0
176
     1
290
     0
176
     1
290
     0
176
     1
 90
       50
176
     1
 40
0.0
176
     1
 40
1.0
176
     1
 90
        0
176
     1
 62
    18
420
        0
176
     1
 90
       50
176
     1
 90
        3
176
     1
 62
     5
420
      255
176
     1
290
     0
176
     1
 90
       50
176
     1
 90
       50
176
     1
 90
       50
176
     1
290
     0
176
     1
 90
       50
176
     1
 62
   256
176
     0
 40
1.0
176
     0
 90
        2
176
     1
  1
strokes_ogs.tif
176
     1
290
     0
176
     1
 40
1.0
176
     1
 40
1.0
176
     1
  0
VISUALSTYLE
  5
3D
102
{ACAD_REACTORS
330
29
102
}
330
29
100
AcDbVisualStyle
  2
Shaded with edges
 70
    26
177
     3
291
     0
 70
    58
 90
        2
176
     1
 90
        2
176
     1
 90
        1
176
     1
 90
        2
176
     1
 40
0.6
176
     1
 40
30.0
176
     1
 62
     7
420
 16777215
176
     1
 90
        1
176
     1
 90
        2
176
     1
 62
     7
176
     1
 62
   257
176
     1
 90
        2
176
     1
 90
        1
176
     1
 40
1.0
176
     1
 90
        8
176
     1
 62
   257
176
     1
 40
1.0
176
     1
 90
        1
176
     1
 90
        6
176
     1
 90
        2
176
     1
 62
     7
176
     1
 90
        3
176
     1
 90
        0
176
     1
 90
        0
176
     1
290
     0
176
     1
 90
        5
176
     1
 40
0.0
176
     1
 90
        0
176
     1
290
     0
176
     1
290
     1
176
     1
290
     1
176
     1
290
     0
176
     1
290
     0
176
     1
290
     0
176
     1
290
     0
176
     1
290
     0
176
     1
290
     0
176
     1
 90
       50
176
     1
 40
0.0
176
     1
 40
1.0
176
     1
 90
        0
176
     1
 62
    18
420
        0
176
     1
 90
       50
176
     1
 90
        3
176
     1
 62
     5
420
      255
176
     1
290
     0
176
     1
 90
       50
176
     1
 90
       50
176
     1
 90
       50
176
     1
290
     0
176
     1
 90
       50
176
     1
 62
   256
176
     0
 40
1.0
176
     0
 90
        2
176
     1
  1
strokes_ogs.tif
176
     1
290
     0
176
     1
 40
1.0
176
     1
 40
1.0
176
     1
  0
VISUALSTYLE
  5
3A
102
{ACAD_REACTORS
330
29
102
}
330
29
100
AcDbVisualStyle
  2
Shades of Gray
 70
    23
177
     3
291
     0
 70
    58
 90
        2
176
     1
 90
        2
176
     1
 90
        3
176
     1
 90
        0
176
     1
 40
0.6
176
     1
 40
30.0
176
     1
 62
     7
420
 16777215
176
     1
 90
        2
176
     1
 90
        2
176
     1
 62
     7
176
     1
 62
     7
176
     1
 90
        1
176
     1
 90
        1
176
     1
 40
40.0
176
     1
 90
        8
176
     1
 62
     7
176
     1
 40
1.0
176
     1
 90
        1
176
     1
 90
        6
176
     1
 90
        2
176
     1
 62
     7
176
     1
 90
        3
176
     1
 90
        0
176
     1
 90
        0
176
     1
290
     0
176
     1
 90
        1
176
     1
 40
0.0
176
     1
 90
        0
176
     1
290
     0
176
     1
290
     1
176
     1
290
     1
176
     1
290
     0
176
     1
290
     0
176
     1
290
     0
176
     1
290
     0
176
     1
290
     0
176
     1
290
     0
176
     1
 90
       50
176
     1
 40
0.0
176
     1
 40
1.0
176
     1
 90
        0
176
     1
 62
    18
420
        0
176
     1
 90
       50
176
     1
 90
        3
176
     1
 62
     5
420
      255
176
     1
290
     0
176
     1
 90
       50
176
     1
 90
       50
176
     1
 90
       50
176
     1
290
     0
176
     1
 90
       50
176
     1
 62
   256
176
     0
 40
1.0
176
     0
 90
        2
176
     1
  1
strokes_ogs.tif
176
     1
290
     0
176
     1
 40
1.0
176
     1
 40
1.0
176
     1
  0
VISUALSTYLE
  5
3B
102
{ACAD_REACTORS
330
29
102
}
330
29
100
AcDbVisualStyle
  2
Sketchy
 70
    24
177
     3
291
     0
 70
    58
 90
        1
176
     1
 90
        2
176
     1
 90
        2
176
     1
 90
        0
176
     1
 40
0.6
176
     1
 40
30.0
176
     1
 62
     7
420
 16777215
176
     1
 90
        2
176
     1
 90
        2
176
     1
 62
     7
176
     1
 62
     7
176
     1
 90
        1
176
     1
 90
        1
176
     1
 40
40.0
176
     1
 90
       11
176
     1
 62
     7
176
     1
 40
1.0
176
     1
 90
        1
176
     1
 90
        6
176
     1
 90
        2
176
     1
 62
     7
176
     1
 90
        6
176
     1
 90
        0
176
     1
 90
        0
176
     1
290
     0
176
     1
 90
        1
176
     1
 40
0.0
176
     1
 90
        0
176
     1
290
     0
176
     1
290
     1
176
     1
290
     1
176
     1
290
     0
176
     1
290
     0
176
     1
290
     0
176
     1
290
     0
176
     1
290
     0
176
     1
290
     0
176
     1
 90
       50
176
     1
 40
0.0
176
     1
 40
1.0
176
     1
 90
        0
176
     1
 62
    18
420
        0
176
     1
 90
       50
176
     1
 90
        3
176
     1
 62
     5
420
      255
176
     1
290
     0
176
     1
 90
       50
176
     1
 90
       50
176
     1
 90
       50
176
     1
290
     0
176
     1
 90
       50
176
     1
 62
   256
176
     0
 40
1.0
176
     0
 90
        2
176
     1
  1
strokes_ogs.tif
176
     1
290
     0
176
     1
 40
1.0
176
     1
 40
1.0
176
     1
  0
VISUALSTYLE
  5
36
102
{ACAD_REACTORS
330
29
102
}
330
29
100
AcDbVisualStyle
  2
Thicken
 70
    13
177
     3
291
     1
 70
    58
 90
        2
176
     1
 90
        2
176
     1
 90
        0
176
     1
 90
        0
176
     1
 40
0.6
176
     1
 40
30.0
176
     1
 62
     7
420
 16777215
176
     1
 90
        1
176
     1
 90
        4
176
     1
 62
     7
176
     1
 62
   257
176
     1
 90
        1
176
     1
 90
        1
176
     1
 40
1.0
176
     1
 90
       12
176
     1
 62
     7
176
     1
 40
1.0
176
     1
 90
        1
176
     1
 90
        6
176
     1
 90
        2
176
     1
 62
     7
176
     1
 90
        5
176
     1
 90
        0
176
     1
 90
        0
176
     1
290
     0
176
     1
 90
        1
176
     1
 40
0.0
176
     1
 90
        0
176
     1
290
     0
176
     1
290
     1
176
     1
290
     1
176
     1
290
     0
176
     1
290
     0
176
     1
290
     0
176
     1
290
     0
176
     1
290
     0
176
     1
290
     0
176
     1
 90
       50
176
     1
 40
0.0
176
     1
 40
1.0
176
     1
 90
        0
176
     1
 62
    18
420
        0
176
     1
 90
       50
176
     1
 90
        3
176
     1
 62
     5
420
      255
176
     1
290
     0
176
     1
 90
       50
176
     1
 90
       50
176
     1
 90
       50
176
     1
290
     0
176
     1
 90
       50
176
     1
 62
   256
176
     0
 40
1.0
176
     0
 90
        2
176
     1
  1
strokes_ogs.tif
176
     1
290
     0
176
     1
 40
1.0
176
     1
 40
1.0
176
     1
  0
VISUALSTYLE
  5
30
102
{ACAD_REACTORS
330
29
102
}
330
29
100
AcDbVisualStyle
  2
Wireframe
 70
     5
177
     3
291
     0
 70
    58
 90
        0
176
     1
 90
        2
176
     1
 90
        0
176
     1
 90
        0
176
     1
 40
0.6
176
     1
 40
30.0
176
     1
 62
     7
420
 16777215
176
     1
 90
        1
176
     1
 90
        4
176
     1
 62
     7
176
     1
 62
   257
176
     1
 90
        1
176
     1
 90
        1
176
     1
 40
1.0
176
     1
 90
        0
176
     1
 62
   257
176
     1
 40
1.0
176
     1
 90
        1
176
     1
 90
        6
176
     1
 90
        2
176
     1
 62
     7
176
     1
 90
        3
176
     1
 90
        0
176
     1
 90
        0
176
     1
290
     0
176
     1
 90
        1
176
     1
 40
0.0
176
     1
 90
        0
176
     1
290
     0
176
     1
290
     1
176
     1
290
     1
176
     1
290
     0
176
     1
290
     0
176
     1
290
     0
176
     1
290
     0
176
     1
290
     0
176
     1
290
     0
176
     1
 90
       50
176
     1
 40
0.0
176
     1
 40
1.0
176
     1
 90
        0
176
     1
 62
    18
420
        0
176
     1
 90
       50
176
     1
 90
        3
176
     1
 62
     5
420
      255
176
     1
290
     0
176
     1
 90
       50
176
     1
 90
       50
176
     1
 90
       50
176
     1
290
     0
176
     1
 90
       50
176
     1
 62
   256
176
     0
 40
1.0
176
     0
 90
        2
176
     1
  1
strokes_ogs.tif
176
     1
290
     0
176
     1
 40
1.0
176
     1
 40
1.0
176
     1
  0
VISUALSTYLE
  5
3C
102
{ACAD_REACTORS
330
29
102
}
330
29
100
AcDbVisualStyle
  2
X-Ray
 70
    25
177
     3
291
     0
 70
    58
 90
        2
176
     1
 90
        2
176
     1
 90
        1
176
     1
 90
        1
176
     1
 40
0.5
176
     1
 40
30.0
176
     1
 62
     7
420
 16777215
176
     1
 90
        1
176
     1
 90
        0
176
     1
 62
     7
176
     1
 62
   257
176
     1
 90
        1
176
     1
 90
        1
176
     1
 40
1.0
176
     1
 90
        8
176
     1
 62
     7
176
     1
 40
1.0
176
     1
 90
        1
176
     1
 90
        6
176
     1
 90
        2
176
     1
 62
     7
176
     1
 90
        3
176
     1
 90
        0
176
     1
 90
        0
176
     1
290
     0
176
     1
 90
       13
176
     1
 40
0.0
176
     1
 90
        0
176
     1
290
     0
176
     1
290
     1
176
     1
290
     1
176
     1
290
     0
176
     1
290
     0
176
     1
290
     0
176
     1
290
     0
176
     1
290
     0
176
     1
290
     0
176
     1
 90
       50
176
     1
 40
0.0
176
     1
 40
1.0
176
     1
 90
        0
176
     1
 62
    18
420
        0
176
     1
 90
       50
176
     1
 90
        3
176
     1
 62
     5
420
      255
176
     1
290
     0
176
     1
 90
       50
176
     1
 90
       50
176
     1
 90
       50
176
     1
290
     0
176
     1
 90
       50
176
     1
 62
   256
176
     0
 40
1.0
176
     0
 90
        2
176
     1
  1
strokes_ogs.tif
176
     1
290
     0
176
     1
 40
1.0
176
     1
 40
1.0
176
     1
  0
DICTIONARYVAR
  5
140
102
{ACAD_REACTORS
330
13B
102
}
330
13B
100
DictionaryVariables
280
     0
  1
1:1
  0
DICTIONARYVAR
  5
13D
102
{ACAD_REACTORS
330
13B
102
}
330
13B
100
DictionaryVariables
280
     0
  1
STANDARD
  0
DICTIONARYVAR
  5
13C
102
{ACAD_REACTORS
330
13B
102
}
330
13B
100
DictionaryVariables
280
     0
  1
STANDARD
  0
DICTIONARYVAR
  5
13E
102
{ACAD_REACTORS
330
13B
102
}
330
13B
100
DictionaryVariables
280
     0
  1
Imperial24
  0
DICTIONARYVAR
  5
13F
102
{ACAD_REACTORS
330
13B
102
}
330
13B
100
DictionaryVariables
280
     0
  1
Imperial24
  0
DICTIONARY
  5
1A
330
19
100
AcDbDictionary
280
     1
281
     1
  3
BUMPTILE
360
1C
  3
DIFFUSETILE
360
1B
  3
OPACITYTILE
360
1F
  3
REFLECTIONTILE
360
1E
  3
REFRACTIONTILE
360
20
  3
SPECULARTILE
360
1D
  0
DICTIONARY
  5
12
330
11
100
AcDbDictionary
280
     1
281
     1
  3
BUMPTILE
360
14
  3
DIFFUSETILE
360
13
  3
OPACITYTILE
360
17
  3
REFLECTIONTILE
360
16
  3
REFRACTIONTILE
360
18
  3
SPECULARTILE
360
15
  0
DICTIONARY
  5
22
330
21
100
AcDbDictionary
280
     1
281
     1
  3
BUMPTILE
360
24
  3
DIFFUSETILE
360
23
  3
OPACITYTILE
360
27
  3
REFLECTIONTILE
360
26
  3
REFRACTIONTILE
360
28
  3
SPECULARTILE
360
25
  0
DICTIONARY
  5
141
330
65
100
AcDbDictionary
280
     1
281
     1
  3
ACAD_ROUNDTRIP_2008_TABLESTYLE_CELLSTYLEMAP
360
142
  0
XRECORD
  5
1C
102
{ACAD_REACTORS
330
1A
102
}
330
1A
100
AcDbXrecord
280
     1
270
     1
271
     1
  0
XRECORD
  5
1B
102
{ACAD_REACTORS
330
1A
102
}
330
1A
100
AcDbXrecord
280
     1
270
     1
271
     1
  0
XRECORD
  5
1F
102
{ACAD_REACTORS
330
1A
102
}
330
1A
100
AcDbXrecord
280
     1
270
     1
271
     1
  0
XRECORD
  5
1E
102
{ACAD_REACTORS
330
1A
102
}
330
1A
100
AcDbXrecord
280
     1
270
     1
271
     1
  0
XRECORD
  5
20
102
{ACAD_REACTORS
330
1A
102
}
330
1A
100
AcDbXrecord
280
     1
270
     1
271
     1
  0
XRECORD
  5
1D
102
{ACAD_REACTORS
330
1A
102
}
330
1A
100
AcDbXrecord
280
     1
270
     1
271
     1
  0
XRECORD
  5
14
102
{ACAD_REACTORS
330
12
102
}
330
12
100
AcDbXrecord
280
     1
270
     1
271
     1
  0
XRECORD
  5
13
102
{ACAD_REACTORS
330
12
102
}
330
12
100
AcDbXrecord
280
     1
270
     1
271
     1
  0
XRECORD
  5
17
102
{ACAD_REACTORS
330
12
102
}
330
12
100
AcDbXrecord
280
     1
270
     1
271
     1
  0
XRECORD
  5
16
102
{ACAD_REACTORS
330
12
102
}
330
12
100
AcDbXrecord
280
     1
270
     1
271
     1
  0
XRECORD
  5
18
102
{ACAD_REACTORS
330
12
102
}
330
12
100
AcDbXrecord
280
     1
270
     1
271
     1
  0
XRECORD
  5
15
102
{ACAD_REACTORS
330
12
102
}
330
12
100
AcDbXrecord
280
     1
270
     1
271
     1
  0
XRECORD
  5
24
102
{ACAD_REACTORS
330
22
102
}
330
22
100
AcDbXrecord
280
     1
270
     1
271
     1
  0
XRECORD
  5
23
102
{ACAD_REACTORS
330
22
102
}
330
22
100
AcDbXrecord
280
     1
270
     1
271
     1
  0
XRECORD
  5
27
102
{ACAD_REACTORS
330
22
102
}
330
22
100
AcDbXrecord
280
     1
270
     1
271
     1
  0
XRECORD
  5
26
102
{ACAD_REACTORS
330
22
102
}
330
22
100
AcDbXrecord
280
     1
270
     1
271
     1
  0
XRECORD
  5
28
102
{ACAD_REACTORS
330
22
102
}
330
22
100
AcDbXrecord
280
     1
270
     1
271
     1
  0
XRECORD
  5
25
102
{ACAD_REACTORS
330
22
102
}
330
22
100
AcDbXrecord
280
     1
270
     1
271
     1
  0
CELLSTYLEMAP
  5
142
102
{ACAD_REACTORS
330
141
102
}
330
141
100
AcDbCellStyleMap
 90
        3
300
CELLSTYLE
  1
TABLEFORMAT_BEGIN
 90
        5
170
     1
 91
        0
 92
    32768
 62
   257
 93
        1
300
CONTENTFORMAT
  1
CONTENTFORMAT_BEGIN
 90
        0
 91
        0
 92
      512
 93
        0
300

 40
0.0
140
1.0
 94
        5
 62
     0
340
55
144
0.25
309
CONTENTFORMAT_END
171
     0
 94
        0
309
TABLEFORMAT_END
  1
CELLSTYLE_BEGIN
 90
        1
 91
        1
300
_TITLE
309
CELLSTYLE_END
300
CELLSTYLE
  1
TABLEFORMAT_BEGIN
 90
        5
170
     1
 91
        0
 92
        0
 62
   257
 93
        1
300
CONTENTFORMAT
  1
CONTENTFORMAT_BEGIN
 90
        0
 91
        0
 92
      512
 93
        0
300

 40
0.0
140
1.0
 94
        5
 62
     0
340
55
144
0.18
309
CONTENTFORMAT_END
171
     0
 94
        0
309
TABLEFORMAT_END
  1
CELLSTYLE_BEGIN
 90
        2
 91
        1
300
_HEADER
309
CELLSTYLE_END
300
CELLSTYLE
  1
TABLEFORMAT_BEGIN
 90
        5
170
     1
 91
        0
 92
        0
 62
   257
 93
        1
300
CONTENTFORMAT
  1
CONTENTFORMAT_BEGIN
 90
        0
 91
        0
 92
      512
 93
        0
300

 40
0.0
140
1.0
 94
        2
 62
     0
340
55
144
0.18
309
CONTENTFORMAT_END
171
     0
 94
        0
309
TABLEFORMAT_END
  1
CELLSTYLE_BEGIN
 90
        3
 91
        2
300
_DATA
309
CELLSTYLE_END
  0
ENDSEC
  0
EOF
