  0
SECTION
  2
HEADER
  9
$ACADVER
  1
AC1032
  9
$ACADMAINTVER
 90
      329
  9
$DWGCODEPAGE
  3
ANSI_936
  9
$REQUIREDVERSIONS
160
                 0
  9
$INSBASE
 10
0.0
 20
0.0
 30
0.0
  9
$EXTMIN
 10
1.000000000000000E+20
 20
1.000000000000000E+20
 30
1.000000000000000E+20
  9
$EXTMAX
 10
-1.000000000000000E+20
 20
-1.000000000000000E+20
 30
-1.000000000000000E+20
  9
$LIMMIN
 10
0.0
 20
0.0
  9
$LIMMAX
 10
12.0
 20
9.0
  9
$ORTHOMODE
 70
     0
  9
$REGENMODE
 70
     1
  9
$FILLMODE
 70
     1
  9
$QTEXTMODE
 70
     0
  9
$MIRRTEXT
 70
     0
  9
$LTSCALE
 40
1.0
  9
$ATTMODE
 70
     1
  9
$TEXTSIZE
 40
0.2
  9
$TRACEWID
 40
0.05
  9
$TEXTSTYLE
  7
Standard
  9
$CLAYER
  8
0
  9
$CELTYPE
  6
ByLayer
  9
$CECOLOR
 62
   256
  9
$CELTSCALE
 40
1.0
  9
$DISPSILH
 70
     0
  9
$DIMSCALE
 40
1.0
  9
$DIMASZ
 40
0.18
  9
$DIMEXO
 40
0.0625
  9
$DIMDLI
 40
0.38
  9
$DIMRND
 40
0.0
  9
$DIMDLE
 40
0.0
  9
$DIMEXE
 40
0.18
  9
$DIMTP
 40
0.0
  9
$DIMTM
 40
0.0
  9
$DIMTXT
 40
0.18
  9
$DIMCEN
 40
0.09
  9
$DIMTSZ
 40
0.0
  9
$DIMTOL
 70
     0
  9
$DIMLIM
 70
     0
  9
$DIMTIH
 70
     1
  9
$DIMTOH
 70
     1
  9
$DIMSE1
 70
     0
  9
$DIMSE2
 70
     0
  9
$DIMTAD
 70
     0
  9
$DIMZIN
 70
     0
  9
$DIMBLK
  1

  9
$DIMASO
 70
     1
  9
$DIMSHO
 70
     1
  9
$DIMPOST
  1

  9
$DIMAPOST
  1

  9
$DIMALT
 70
     0
  9
$DIMALTD
 70
     2
  9
$DIMALTF
 40
25.4
  9
$DIMLFAC
 40
1.0
  9
$DIMTOFL
 70
     0
  9
$DIMTVP
 40
0.0
  9
$DIMTIX
 70
     0
  9
$DIMSOXD
 70
     0
  9
$DIMSAH
 70
     0
  9
$DIMBLK1
  1

  9
$DIMBLK2
  1

  9
$DIMSTYLE
  2
Standard
  9
$DIMCLRD
 70
     0
  9
$DIMCLRE
 70
     0
  9
$DIMCLRT
 70
     0
  9
$DIMTFAC
 40
1.0
  9
$DIMGAP
 40
0.09
  9
$DIMJUST
 70
     0
  9
$DIMSD1
 70
     0
  9
$DIMSD2
 70
     0
  9
$DIMTOLJ
 70
     1
  9
$DIMTZIN
 70
     0
  9
$DIMALTZ
 70
     0
  9
$DIMALTTZ
 70
     0
  9
$DIMUPT
 70
     0
  9
$DIMDEC
 70
     4
  9
$DIMTDEC
 70
     4
  9
$DIMALTU
 70
     2
  9
$DIMALTTD
 70
     2
  9
$DIMTXSTY
  7
Standard
  9
$DIMAUNIT
 70
     0
  9
$DIMADEC
 70
     0
  9
$DIMALTRND
 40
0.0
  9
$DIMAZIN
 70
     0
  9
$DIMDSEP
 70
    46
  9
$DIMATFIT
 70
     3
  9
$DIMFRAC
 70
     0
  9
$DIMLDRBLK
  1

  9
$DIMLUNIT
 70
     2
  9
$DIMLWD
 70
    -2
  9
$DIMLWE
 70
    -2
  9
$DIMTMOVE
 70
     0
  9
$DIMFXL
 40
1.0
  9
$DIMFXLON
 70
     0
  9
$DIMJOGANG
 40
0.7853981633974483
  9
$DIMTFILL
 70
     0
  9
$DIMTFILLCLR
 70
     0
  9
$DIMARCSYM
 70
     0
  9
$DIMLTYPE
  6

  9
$DIMLTEX1
  6

  9
$DIMLTEX2
  6

  9
$DIMTXTDIRECTION
 70
     0
  9
$LUNITS
 70
     2
  9
$LUPREC
 70
     4
  9
$SKETCHINC
 40
0.1
  9
$FILLETRAD
 40
0.0
  9
$AUNITS
 70
     0
  9
$AUPREC
 70
     0
  9
$MENU
  1
.
  9
$ELEVATION
 40
0.0
  9
$PELEVATION
 40
0.0
  9
$THICKNESS
 40
0.0
  9
$LIMCHECK
 70
     0
  9
$CHAMFERA
 40
0.0
  9
$CHAMFERB
 40
0.0
  9
$CHAMFERC
 40
0.0
  9
$CHAMFERD
 40
0.0
  9
$SKPOLY
 70
     0
  9
$TDCREATE
 40
2460887.388738426
  9
$TDUCREATE
 40
2460887.055405093
  9
$TDUPDATE
 40
2460887.388738426
  9
$TDUUPDATE
 40
2460887.055405093
  9
$TDINDWG
 40
0.0000000000
  9
$TDUSRTIMER
 40
0.0000000000
  9
$USRTIMER
 70
     1
  9
$ANGBASE
 50
0.0
  9
$ANGDIR
 70
     0
  9
$PDMODE
 70
     0
  9
$PDSIZE
 40
0.0
  9
$PLINEWID
 40
0.0
  9
$SPLFRAME
 70
     0
  9
$SPLINETYPE
 70
     6
  9
$SPLINESEGS
 70
     8
  9
$HANDSEED
  5
146
  9
$SURFTAB1
 70
     6
  9
$SURFTAB2
 70
     6
  9
$SURFTYPE
 70
     6
  9
$SURFU
 70
     6
  9
$SURFV
 70
     6
  9
$UCSBASE
  2

  9
$UCSNAME
  2

  9
$UCSORG
 10
0.0
 20
0.0
 30
0.0
  9
$UCSXDIR
 10
1.0
 20
0.0
 30
0.0
  9
$UCSYDIR
 10
0.0
 20
1.0
 30
0.0
  9
$UCSORTHOREF
  2

  9
$UCSORTHOVIEW
 70
     0
  9
$UCSORGTOP
 10
0.0
 20
0.0
 30
0.0
  9
$UCSORGBOTTOM
 10
0.0
 20
0.0
 30
0.0
  9
$UCSORGLEFT
 10
0.0
 20
0.0
 30
0.0
  9
$UCSORGRIGHT
 10
0.0
 20
0.0
 30
0.0
  9
$UCSORGFRONT
 10
0.0
 20
0.0
 30
0.0
  9
$UCSORGBACK
 10
0.0
 20
0.0
 30
0.0
  9
$PUCSBASE
  2

  9
$PUCSNAME
  2

  9
$PUCSORG
 10
0.0
 20
0.0
 30
0.0
  9
$PUCSXDIR
 10
1.0
 20
0.0
 30
0.0
  9
$PUCSYDIR
 10
0.0
 20
1.0
 30
0.0
  9
$PUCSORTHOREF
  2

  9
$PUCSORTHOVIEW
 70
     0
  9
$PUCSORGTOP
 10
0.0
 20
0.0
 30
0.0
  9
$PUCSORGBOTTOM
 10
0.0
 20
0.0
 30
0.0
  9
$PUCSORGLEFT
 10
0.0
 20
0.0
 30
0.0
  9
$PUCSORGRIGHT
 10
0.0
 20
0.0
 30
0.0
  9
$PUCSORGFRONT
 10
0.0
 20
0.0
 30
0.0
  9
$PUCSORGBACK
 10
0.0
 20
0.0
 30
0.0
  9
$USERI1
 70
     0
  9
$USERI2
 70
     0
  9
$USERI3
 70
     0
  9
$USERI4
 70
     0
  9
$USERI5
 70
     0
  9
$USERR1
 40
0.0
  9
$USERR2
 40
0.0
  9
$USERR3
 40
0.0
  9
$USERR4
 40
0.0
  9
$USERR5
 40
0.0
  9
$WORLDVIEW
 70
     1
  9
$SHADEDGE
 70
     3
  9
$SHADEDIF
 70
    70
  9
$TILEMODE
 70
     1
  9
$MAXACTVP
 70
    64
  9
$PINSBASE
 10
0.0
 20
0.0
 30
0.0
  9
$PLIMCHECK
 70
     0
  9
$PEXTMIN
 10
1.000000000000000E+20
 20
1.000000000000000E+20
 30
1.000000000000000E+20
  9
$PEXTMAX
 10
-1.000000000000000E+20
 20
-1.000000000000000E+20
 30
-1.000000000000000E+20
  9
$PLIMMIN
 10
0.0
 20
0.0
  9
$PLIMMAX
 10
12.0
 20
9.0
  9
$UNITMODE
 70
     0
  9
$VISRETAIN
 70
     1
  9
$PLINEGEN
 70
     0
  9
$PSLTSCALE
 70
     1
  9
$TREEDEPTH
 70
  3020
  9
$CMLSTYLE
  2
Standard
  9
$CMLJUST
 70
     0
  9
$CMLSCALE
 40
1.0
  9
$PROXYGRAPHICS
 70
     1
  9
$MEASUREMENT
 70
     0
  9
$CELWEIGHT
370
    -1
  9
$ENDCAPS
280
     0
  9
$JOINSTYLE
280
     0
  9
$LWDISPLAY
290
     1
  9
$INSUNITS
 70
     1
  9
$HYPERLINKBASE
  1

  9
$STYLESHEET
  1

  9
$XEDIT
290
     1
  9
$CEPSNTYPE
380
     0
  9
$PSTYLEMODE
290
     1
  9
$FINGERPRINTGUID
  2
{FE693CDC-B6A4-F948-9CA9-0C1FBBEAC618}
  9
$VERSIONGUID
  2
{0C0D4D91-8A71-3945-95F9-D7D8AB69F525}
  9
$EXTNAMES
290
     1
  9
$PSVPSCALE
 40
0.0
  9
$OLESTARTUP
290
     0
  9
$SORTENTS
280
   127
  9
$INDEXCTL
280
     0
  9
$HIDETEXT
280
     1
  9
$XCLIPFRAME
280
     2
  9
$HALOGAP
280
     0
  9
$OBSCOLOR
 70
   257
  9
$OBSLTYPE
280
     0
  9
$INTERSECTIONDISPLAY
280
     0
  9
$INTERSECTIONCOLOR
 70
   257
  9
$DIMASSOC
280
     2
  9
$PROJECTNAME
  1

  9
$CAMERADISPLAY
290
     0
  9
$LENSLENGTH
 40
50.0
  9
$CAMERAHEIGHT
 40
0.0
  9
$STEPSPERSEC
 40
2.0
  9
$STEPSIZE
 40
6.0
  9
$3DDWFPREC
 40
2.0
  9
$PSOLWIDTH
 40
0.25
  9
$PSOLHEIGHT
 40
4.0
  9
$LOFTANG1
 40
1.570796326794896
  9
$LOFTANG2
 40
1.570796326794896
  9
$LOFTMAG1
 40
0.0
  9
$LOFTMAG2
 40
0.0
  9
$LOFTPARAM
 70
     7
  9
$LOFTNORMALS
280
     1
  9
$LATITUDE
 40
37.795
  9
$LONGITUDE
 40
-122.394
  9
$NORTHDIRECTION
 40
0.0
  9
$TIMEZONE
 70
 -8000
  9
$LIGHTGLYPHDISPLAY
280
     1
  9
$TILEMODELIGHTSYNCH
280
     1
  9
$CMATERIAL
347
11
  9
$SOLIDHIST
280
     0
  9
$SHOWHIST
280
     1
  9
$DWFFRAME
280
     2
  9
$DGNFRAME
280
     0
  9
$REALWORLDSCALE
290
     1
  9
$INTERFERECOLOR
 62
     1
  9
$INTERFEREOBJVS
345
33
  9
$INTERFEREVPVS
346
30
  9
$CSHADOW
280
     0
  9
$SHADOWPLANELOCATION
 40
0.0
  0
ENDSEC
  0
SECTION
  2
CLASSES
  0
CLASS
  1
ACDBDICTIONARYWDFLT
  2
AcDbDictionaryWithDefault
  3
ObjectDBX Classes
 90
        0
 91
        1
280
     0
281
     0
  0
CLASS
  1
MATERIAL
  2
AcDbMaterial
  3
ObjectDBX Classes
 90
     1153
 91
        3
280
     0
281
     0
  0
CLASS
  1
VISUALSTYLE
  2
AcDbVisualStyle
  3
ObjectDBX Classes
 90
     4095
 91
       24
280
     0
281
     0
  0
CLASS
  1
SCALE
  2
AcDbScale
  3
ObjectDBX Classes
 90
     1153
 91
       17
280
     0
281
     0
  0
CLASS
  1
TABLESTYLE
  2
AcDbTableStyle
  3
ObjectDBX Classes
 90
     4095
 91
        1
280
     0
281
     0
  0
CLASS
  1
MLEADERSTYLE
  2
AcDbMLeaderStyle
  3
ACDB_MLEADERSTYLE_CLASS
 90
     4095
 91
        1
280
     0
281
     0
  0
CLASS
  1
ACDBSECTIONVIEWSTYLE
  2
AcDbSectionViewStyle
  3
ObjectDBX Classes
 90
     1025
 91
        1
280
     0
281
     0
  0
CLASS
  1
ACDBDETAILVIEWSTYLE
  2
AcDbDetailViewStyle
  3
ObjectDBX Classes
 90
     1025
 91
        1
280
     0
281
     0
  0
CLASS
  1
DICTIONARYVAR
  2
AcDbDictionaryVar
  3
ObjectDBX Classes
 90
        0
 91
        5
280
     0
281
     0
  0
CLASS
  1
CELLSTYLEMAP
  2
AcDbCellStyleMap
  3
ObjectDBX Classes
 90
     1152
 91
        1
280
     0
281
     0
  0
ENDSEC
  0
SECTION
  2
TABLES
  0
TABLE
  2
VPORT
  5
8
330
0
100
AcDbSymbolTable
 70
     1
  0
VPORT
  5
57
330
8
100
AcDbSymbolTableRecord
100
AcDbViewportTableRecord
  2
*Active
 70
     0
 10
0.0
 20
0.0
 11
1.0
 21
1.0
 12
0.0
 22
0.0
 13
0.0
 23
0.0
 14
1.0
 24
1.0
 15
0.0
 25
0.0
 16
0.0
 26
0.0
 36
1.0
 17
12.0
 27
-10.0
 37
0.0
 40
20.4
 41
1.2
 42
50.0
 43
0.0
 44
0.0
 50
0.0
 51
0.0
 71
     0
 72
   100
 73
     1
 74
     1
 75
     0
 76
     0
 77
     0
 78
     0
281
     0
 65
     1
110
0.0
120
0.0
130
0.0
111
1.0
121
0.0
131
0.0
112
0.0
122
1.0
132
0.0
 79
     0
146
0.0
 60
     3
 61
     5
292
     1
282
     1
141
0.0
142
0.0
 63
   250
421
  3355443
  0
ENDTAB
  0
TABLE
  2
LTYPE
  5
5
330
0
100
AcDbSymbolTable
 70
     1
  0
LTYPE
  5
5B
330
5
100
AcDbSymbolTableRecord
100
AcDbLinetypeTableRecord
  2
ByBlock
 70
     0
  3

 72
    65
 73
     0
 40
0.0
  0
LTYPE
  5
5C
330
5
100
AcDbSymbolTableRecord
100
AcDbLinetypeTableRecord
  2
ByLayer
 70
     0
  3

 72
    65
 73
     0
 40
0.0
  0
LTYPE
  5
5D
330
5
100
AcDbSymbolTableRecord
100
AcDbLinetypeTableRecord
  2
Continuous
 70
     0
  3
Solid line
 72
    65
 73
     0
 40
0.0
  0
ENDTAB
  0
TABLE
  2
LAYER
  5
2
330
0
100
AcDbSymbolTable
 70
     2
  0
LAYER
  5
54
330
2
100
AcDbSymbolTableRecord
100
AcDbLayerTableRecord
  2
0
 70
     0
 62
     7
  6
Continuous
370
    -3
390
F
347
21
348
0
  0
LAYER
  5
78
330
2
100
AcDbSymbolTableRecord
100
AcDbLayerTableRecord
  2
Layer 1
 70
     0
 62
     7
  6
Continuous
370
     0
390
F
347
21
348
0
  0
ENDTAB
  0
TABLE
  2
STYLE
  5
3
330
0
100
AcDbSymbolTable
 70
     2
  0
STYLE
  5
55
330
3
100
AcDbSymbolTableRecord
100
AcDbTextStyleTableRecord
  2
Standard
 70
     0
 40
0.0
 41
1.0
 50
0.0
 71
     0
 42
0.2
  3
txt
  4

  0
STYLE
  5
5A
330
3
100
AcDbSymbolTableRecord
100
AcDbTextStyleTableRecord
  2
Annotative
 70
     0
 40
0.0
 41
1.0
 50
0.0
 71
     0
 42
0.2
  3
txt
  4

1001
AcadAnnotative
1000
AnnotativeData
1002
{
1070
     1
1070
     1
1002
}
  0
ENDTAB
  0
TABLE
  2
VIEW
  5
6
330
0
100
AcDbSymbolTable
 70
     0
  0
ENDTAB
  0
TABLE
  2
UCS
  5
7
330
0
100
AcDbSymbolTable
 70
     0
  0
ENDTAB
  0
TABLE
  2
APPID
  5
9
330
0
100
AcDbSymbolTable
 70
     2
  0
APPID
  5
56
330
9
100
AcDbSymbolTableRecord
100
AcDbRegAppTableRecord
  2
ACAD
 70
     0
  0
APPID
  5
5E
330
9
100
AcDbSymbolTableRecord
100
AcDbRegAppTableRecord
  2
AcadAnnotative
 70
     0
  0
ENDTAB
  0
TABLE
  2
DIMSTYLE
  5
A
330
0
100
AcDbSymbolTable
 70
     2
100
AcDbDimStyleTable
 71
     0
  0
DIMSTYLE
105
58
330
A
100
AcDbSymbolTableRecord
100
AcDbDimStyleTableRecord
  2
Standard
 70
     0
340
55
  0
DIMSTYLE
105
59
330
A
100
AcDbSymbolTableRecord
100
AcDbDimStyleTableRecord
  2
Annotative
 70
     0
340
55
1001
AcadAnnotative
1000
AnnotativeData
1002
{
1070
     1
1070
     1
1002
}
  0
ENDTAB
  0
TABLE
  2
BLOCK_RECORD
  5
1
330
0
100
AcDbSymbolTable
 70
     1
  0
BLOCK_RECORD
  5
70
330
1
100
AcDbSymbolTableRecord
100
AcDbBlockTableRecord
  2
*Model_Space
340
73
 70
     0
280
     1
281
     0
  0
BLOCK_RECORD
  5
6C
330
1
100
AcDbSymbolTableRecord
100
AcDbBlockTableRecord
  2
*Paper_Space
340
6F
 70
     0
280
     1
281
     0
  0
BLOCK_RECORD
  5
74
330
1
100
AcDbSymbolTableRecord
100
AcDbBlockTableRecord
  2
*Paper_Space0
340
77
 70
     0
280
     1
281
     0
  0
ENDTAB
  0
ENDSEC
  0
SECTION
  2
BLOCKS
  0
BLOCK
  5
71
330
70
100
AcDbEntity
  8
0
100
AcDbBlockBegin
  2
*Model_Space
 70
     0
 10
0.0
 20
0.0
 30
0.0
  3
*Model_Space
  1

  0
ENDBLK
  5
72
330
70
100
AcDbEntity
  8
0
100
AcDbBlockEnd
  0
BLOCK
  5
6D
330
6C
100
AcDbEntity
 67
     1
  8
0
100
AcDbBlockBegin
  2
*Paper_Space
 70
     0
 10
0.0
 20
0.0
 30
0.0
  3
*Paper_Space
  1

  0
ENDBLK
  5
6E
330
6C
100
AcDbEntity
 67
     1
  8
0
100
AcDbBlockEnd
  0
BLOCK
  5
75
330
74
100
AcDbEntity
 67
     1
  8
0
100
AcDbBlockBegin
  2
*Paper_Space0
 70
     0
 10
0.0
 20
0.0
 30
0.0
  3
*Paper_Space0
  1

  0
ENDBLK
  5
76
330
74
100
AcDbEntity
 67
     1
  8
0
100
AcDbBlockEnd
  0
ENDSEC
  0
SECTION
  2
ENTITIES
  0
LINE
  5
79
330
70
100
AcDbEntity
  8
Layer 1
 62
    18
420
        0
370
     5
100
AcDbLine
 10
6.698903997996504
 20
-17.00760755408911
 30
0.0
 11
6.698903997996504
 21
-16.74465847698835
 31
0.0
  0
LINE
  5
7A
330
70
100
AcDbEntity
  8
Layer 1
 62
    18
420
        0
370
     5
100
AcDbLine
 10
0.8050796109547869
 20
-14.95347439628204
 30
0.0
 11
0.8050796109547869
 21
-15.422745279469
 31
0.0
  0
LINE
  5
7B
330
70
100
AcDbEntity
  8
Layer 1
 62
    18
420
        0
370
     5
100
AcDbLine
 10
7.149097126711378
 20
-15.18810983787557
 30
0.0
 11
7.149097126711378
 21
-16.25922708122428
 31
0.0
  0
LINE
  5
7C
330
70
100
AcDbEntity
  8
Layer 1
 62
    18
420
        0
370
     5
100
AcDbLine
 10
8.126744800017426
 20
-15.18810983787557
 30
0.0
 11
8.126744800017426
 21
-16.25922708122428
 31
0.0
  0
LINE
  5
7D
330
70
100
AcDbEntity
  8
Layer 1
 62
    18
420
        0
370
     5
100
AcDbLine
 10
3.72733027014034
 20
-15.422745279469
 30
0.0
 11
0.8050796109547869
 21
-15.422745279469
 31
0.0
  0
LINE
  5
7E
330
70
100
AcDbEntity
  8
Layer 1
 62
    18
420
        0
370
     5
100
AcDbLine
 10
11.54851165658844
 20
-15.422745279469
 30
0.0
 11
14.47076231577398
 21
-15.422745279469
 31
0.0
  0
LINE
  5
7F
330
70
100
AcDbEntity
  8
Layer 1
 62
    18
420
        0
370
     5
100
AcDbLine
 10
3.72733027014034
 20
-14.95347439628204
 30
0.0
 11
0.8050796109547869
 21
-14.95347439628204
 31
0.0
  0
LINE
  5
80
330
70
100
AcDbEntity
  8
Layer 1
 62
    18
420
        0
370
     5
100
AcDbLine
 10
11.54851165658844
 20
-14.95347439628204
 30
0.0
 11
14.47076231577398
 21
-14.95347439628204
 31
0.0
  0
LINE
  5
81
330
70
100
AcDbEntity
  8
Layer 1
 62
    18
420
        0
370
     5
100
AcDbLine
 10
14.47076231577398
 20
-15.422745279469
 30
0.0
 11
14.47076231577398
 21
-14.95347439628204
 31
0.0
  0
LINE
  5
82
330
70
100
AcDbEntity
  8
Layer 1
 62
    18
420
        0
370
     5
100
AcDbLine
 10
0.8050796109547869
 20
-5.678067352477063
 30
0.0
 11
0.8050796109547869
 21
-6.14733823566395
 31
0.0
  0
LINE
  5
83
330
70
100
AcDbEntity
  8
Layer 1
 62
    18
420
        0
370
     5
100
AcDbLine
 10
2.749682596834342
 20
-3.953190853043502
 30
0.0
 11
2.749682596834342
 21
-4.187826294636971
 31
0.0
  0
LINE
  5
84
330
70
100
AcDbEntity
  8
Layer 1
 62
    18
420
        0
370
     5
100
AcDbLine
 10
2.803453218866163
 20
-4.226932201569196
 30
0.0
 11
2.803453218866163
 21
-4.241596916668805
 31
0.0
  0
LINE
  5
85
330
70
100
AcDbEntity
  8
Layer 1
 62
    18
420
        0
370
     5
100
AcDbLine
 10
3.238506433487347
 20
-4.826224885980764
 30
0.0
 11
3.238506433487347
 21
-5.224132828341326
 31
0.0
  0
LINE
  5
86
330
70
100
AcDbEntity
  8
Layer 1
 62
    18
420
        0
370
     5
100
AcDbLine
 10
3.492694828546909
 20
-5.47276134108285
 30
0.0
 11
3.492694828546909
 21
-5.238797543440884
 31
0.0
  0
LINE
  5
87
330
70
100
AcDbEntity
  8
Layer 1
 62
    18
420
        0
370
     5
100
AcDbLine
 10
3.961965711733808
 20
-5.238797543440884
 30
0.0
 11
3.961965711733808
 21
-5.47276134108285
 31
0.0
  0
LINE
  5
88
330
70
100
AcDbEntity
  8
Layer 1
 62
    18
420
        0
370
     5
100
AcDbLine
 10
4.216154106793358
 20
-4.826224885980764
 30
0.0
 11
4.216154106793358
 21
-5.224132828341326
 31
0.0
  0
LINE
  5
89
330
70
100
AcDbEntity
  8
Layer 1
 62
    18
420
        0
370
     5
100
AcDbLine
 10
4.651207321414542
 20
-4.226932201569196
 30
0.0
 11
4.651207321414542
 21
-4.241596916668805
 31
0.0
  0
LINE
  5
8A
330
70
100
AcDbEntity
  8
Layer 1
 62
    18
420
        0
370
     5
100
AcDbLine
 10
4.704977943446364
 20
-3.953190853043502
 30
0.0
 11
4.704977943446364
 21
-4.187826294636971
 31
0.0
  0
LINE
  5
8B
330
70
100
AcDbEntity
  8
Layer 1
 62
    18
420
        0
370
     5
100
AcDbLine
 10
6.660273290058385
 20
-4.432238212963473
 30
0.0
 11
6.660273290058385
 21
-3.953190853043502
 31
0.0
  0
LINE
  5
8C
330
70
100
AcDbEntity
  8
Layer 1
 62
    18
420
        0
370
     5
100
AcDbLine
 10
6.718932150456743
 20
-4.461567643162664
 30
0.0
 11
6.718932150456743
 21
-4.486008834995307
 31
0.0
  0
LINE
  5
8D
330
70
100
AcDbEntity
  8
Layer 1
 62
    18
420
        0
370
     5
100
AcDbLine
 10
7.149097126711378
 20
-4.891732619417274
 30
0.0
 11
7.149097126711378
 21
-11.40851442157385
 31
0.0
  0
LINE
  5
8E
330
70
100
AcDbEntity
  8
Layer 1
 62
    18
420
        0
370
     5
100
AcDbLine
 10
8.126744800017426
 20
-4.891732619417274
 30
0.0
 11
8.126744800017426
 21
-11.40851442157385
 31
0.0
  0
LINE
  5
8F
330
70
100
AcDbEntity
  8
Layer 1
 62
    18
420
        0
370
     5
100
AcDbLine
 10
8.556909776272037
 20
-4.461567643162664
 30
0.0
 11
8.556909776272037
 21
-4.486008834995307
 31
0.0
  0
LINE
  5
90
330
70
100
AcDbEntity
  8
Layer 1
 62
    18
420
        0
370
     5
100
AcDbLine
 10
8.615568636670406
 20
-3.953190853043502
 30
0.0
 11
8.615568636670406
 21
-4.432238212963473
 31
0.0
  0
LINE
  5
91
330
70
100
AcDbEntity
  8
Layer 1
 62
    18
420
        0
370
     5
100
AcDbLine
 10
10.57086398328241
 20
-3.953190853043502
 30
0.0
 11
10.57086398328241
 21
-4.187826294636971
 31
0.0
  0
LINE
  5
92
330
70
100
AcDbEntity
  8
Layer 1
 62
    18
420
        0
370
     5
100
AcDbLine
 10
10.62463460531424
 20
-4.226932201569196
 30
0.0
 11
10.62463460531424
 21
-4.241596916668805
 31
0.0
  0
LINE
  5
93
330
70
100
AcDbEntity
  8
Layer 1
 62
    18
420
        0
370
     5
100
AcDbLine
 10
3.287388817152645
 20
-6.14733823566395
 30
0.0
 11
0.8050796109547869
 21
-6.14733823566395
 31
0.0
  0
LINE
  5
94
330
70
100
AcDbEntity
  8
Layer 1
 62
    18
420
        0
370
     5
100
AcDbLine
 10
11.98845310957611
 20
-6.14733823566395
 30
0.0
 11
14.47076231577398
 21
-6.14733823566395
 31
0.0
  0
LINE
  5
95
330
70
100
AcDbEntity
  8
Layer 1
 62
    18
420
        0
370
     5
100
AcDbLine
 10
3.287388817152645
 20
-5.678067352477063
 30
0.0
 11
0.8050796109547869
 21
-5.678067352477063
 31
0.0
  0
LINE
  5
96
330
70
100
AcDbEntity
  8
Layer 1
 62
    18
420
        0
370
     5
100
AcDbLine
 10
11.98845310957611
 20
-5.678067352477063
 30
0.0
 11
14.47076231577398
 21
-5.678067352477063
 31
0.0
  0
LINE
  5
97
330
70
100
AcDbEntity
  8
Layer 1
 62
    18
420
        0
370
     5
100
AcDbLine
 10
11.05968781993542
 20
-4.826224885980764
 30
0.0
 11
11.05968781993542
 21
-5.224132828341326
 31
0.0
  0
LINE
  5
98
330
70
100
AcDbEntity
  8
Layer 1
 62
    18
420
        0
370
     5
100
AcDbLine
 10
11.313876214995
 20
-5.238797543440884
 30
0.0
 11
11.313876214995
 21
-5.47276134108285
 31
0.0
  0
LINE
  5
99
330
70
100
AcDbEntity
  8
Layer 1
 62
    18
420
        0
370
     5
100
AcDbLine
 10
12.02267077814187
 20
-5.238797543440884
 30
0.0
 11
11.074352535035
 21
-5.238797543440884
 31
0.0
  0
LINE
  5
9A
330
70
100
AcDbEntity
  8
Layer 1
 62
    18
420
        0
370
     5
100
AcDbLine
 10
4.201489391693749
 20
-5.238797543440884
 30
0.0
 11
3.253171148586918
 21
-5.238797543440884
 31
0.0
  0
LINE
  5
9B
330
70
100
AcDbEntity
  8
Layer 1
 62
    18
420
        0
370
     5
100
AcDbLine
 10
11.78314709818187
 20
-5.47276134108285
 30
0.0
 11
11.78314709818187
 21
-5.238797543440884
 31
0.0
  0
LINE
  5
9C
330
70
100
AcDbEntity
  8
Layer 1
 62
    18
420
        0
370
     5
100
AcDbLine
 10
12.03733549324144
 20
-4.826224885980764
 30
0.0
 11
12.03733549324144
 21
-5.224132828341326
 31
0.0
  0
LINE
  5
9D
330
70
100
AcDbEntity
  8
Layer 1
 62
    18
420
        0
370
     5
100
AcDbLine
 10
8.542245061172428
 20
-4.500673550094902
 30
0.0
 11
6.733596865556326
 21
-4.500673550094902
 31
0.0
  0
LINE
  5
9E
330
70
100
AcDbEntity
  8
Layer 1
 62
    18
420
        0
370
     5
100
AcDbLine
 10
8.600903921570823
 20
-4.446902928063056
 30
0.0
 11
6.674938005157955
 21
-4.446902928063056
 31
0.0
  0
LINE
  5
9F
330
70
100
AcDbEntity
  8
Layer 1
 62
    18
420
        0
370
     5
100
AcDbLine
 10
12.47238870786259
 20
-4.226932201569196
 30
0.0
 11
12.47238870786259
 21
-4.241596916668805
 31
0.0
  0
LINE
  5
A0
330
70
100
AcDbEntity
  8
Layer 1
 62
    18
420
        0
370
     5
100
AcDbLine
 10
12.5261593298944
 20
-3.953190853043502
 30
0.0
 11
12.5261593298944
 21
-4.187826294636971
 31
0.0
  0
LINE
  5
A1
330
70
100
AcDbEntity
  8
Layer 1
 62
    18
420
        0
370
     5
100
AcDbLine
 10
12.45283575439657
 20
-4.261149870134898
 30
0.0
 11
10.64418755878036
 21
-4.261149870134898
 31
0.0
  0
LINE
  5
A2
330
70
100
AcDbEntity
  8
Layer 1
 62
    18
420
        0
370
     5
100
AcDbLine
 10
4.63165436794841
 20
-4.261149870134898
 30
0.0
 11
2.823006172332283
 21
-4.261149870134898
 31
0.0
  0
LINE
  5
A3
330
70
100
AcDbEntity
  8
Layer 1
 62
    18
420
        0
370
     5
100
AcDbLine
 10
12.50660637642828
 20
-4.207379248103064
 30
0.0
 11
10.59041693674853
 21
-4.207379248103064
 31
0.0
  0
LINE
  5
A4
330
70
100
AcDbEntity
  8
Layer 1
 62
    18
420
        0
370
     5
100
AcDbLine
 10
4.685424989980244
 20
-4.207379248103064
 30
0.0
 11
2.769235550300461
 21
-4.207379248103064
 31
0.0
  0
LINE
  5
A5
330
70
100
AcDbEntity
  8
Layer 1
 62
    18
420
        0
370
     5
100
AcDbLine
 10
12.51149461479488
 20
-3.938526137943931
 30
0.0
 11
10.58552869838201
 21
-3.938526137943931
 31
0.0
  0
LINE
  5
A6
330
70
100
AcDbEntity
  8
Layer 1
 62
    18
420
        0
370
     5
100
AcDbLine
 10
4.690313228346767
 20
-3.938526137943931
 30
0.0
 11
2.764347311933925
 21
-3.938526137943931
 31
0.0
  0
LINE
  5
A7
330
70
100
AcDbEntity
  8
Layer 1
 62
    18
420
        0
370
     5
100
AcDbLine
 10
6.674938005157955
 20
-3.938526137943931
 30
0.0
 11
8.600903921570823
 21
-3.938526137943931
 31
0.0
  0
LINE
  5
A8
330
70
100
AcDbEntity
  8
Layer 1
 62
    18
420
        0
370
     5
100
AcDbLine
 10
14.47076231577398
 20
-6.14733823566395
 30
0.0
 11
14.47076231577398
 21
-5.678067352477063
 31
0.0
  0
LINE
  5
A9
330
70
100
AcDbEntity
  8
Layer 1
 62
    18
420
        0
370
     5
100
AcDbLine
 10
22.97258918281285
 20
-16.12162112321281
 30
0.0
 11
22.83351901022971
 21
-15.64757427314768
 31
0.0
  0
LINE
  5
AA
330
70
100
AcDbEntity
  8
Layer 1
 62
    18
420
        0
370
     5
100
AcDbLine
 10
22.03447758267394
 20
-16.39683303964784
 30
0.0
 11
21.89540741018848
 21
-15.92278618958271
 31
0.0
  0
LINE
  5
AB
330
70
100
AcDbEntity
  8
Layer 1
 62
    18
420
        0
370
     5
100
AcDbLine
 10
22.96264568748797
 20
-16.13982097593003
 30
0.0
 11
22.05267743548903
 21
-16.406776534875
 31
0.0
  0
LINE
  5
AC
330
70
100
AcDbEntity
  8
Layer 1
 62
    18
420
        0
370
     5
100
AcDbLine
 10
15.51072686056757
 20
-16.16557785878161
 30
0.0
 11
15.51075369347669
 21
-16.16558303611042
 31
0.0
  0
LINE
  5
AD
330
70
100
AcDbEntity
  8
Layer 1
 62
    18
420
        0
370
     5
100
AcDbLine
 10
15.50636241541969
 20
-16.16458202910995
 30
0.0
 11
15.51259245898877
 21
-16.16575751102482
 31
0.0
  0
LINE
  5
AE
330
70
100
AcDbEntity
  8
Layer 1
 62
    18
420
        0
370
     5
100
AcDbLine
 10
15.50447420811391
 20
-16.16441065099229
 30
0.0
 11
15.51075369347669
 21
-16.16558303611042
 31
0.0
  0
LWPOLYLINE
  5
AF
330
70
100
AcDbEntity
  8
Layer 1
 62
    18
420
        0
370
     5
100
AcDbPolyline
 90
        7
 70
     0
 43
0.0
 10
15.30246242406088
 20
-16.14880373008931
 10
15.32908210224036
 20
-16.14814606767388
 10
15.37614177698565
 20
-16.14933698762492
 10
15.419893903843
 20
-16.15254748130175
 10
15.45740875410241
 20
-16.15689846619827
 10
15.48624209351192
 20
-16.16123213685637
 10
15.50448679034169
 20
-16.16441284454039
  0
LINE
  5
B0
330
70
100
AcDbEntity
  8
Layer 1
 62
    18
420
        0
370
     5
100
AcDbLine
 10
15.28284525576186
 20
-16.16575751101451
 30
0.0
 11
15.04820981416843
 21
-16.16575751100395
 31
0.0
  0
LINE
  5
B1
330
70
100
AcDbEntity
  8
Layer 1
 62
    18
420
        0
370
     5
100
AcDbLine
 10
15.52725717408836
 20
-16.16575751102548
 30
0.0
 11
15.51259245898877
 21
-16.16575751102482
 31
0.0
  0
LINE
  5
B2
330
70
100
AcDbEntity
  8
Layer 1
 62
    18
420
        0
370
     5
100
AcDbLine
 10
15.33661587779614
 20
-16.11198688898515
 30
0.0
 11
15.32195116269655
 21
-16.11198688898447
 31
0.0
  0
LINE
  5
B3
330
70
100
AcDbEntity
  8
Layer 1
 62
    18
420
        0
370
     5
100
AcDbLine
 10
15.58102779612282
 20
-16.10709865062962
 30
0.0
 11
15.55658660429021
 21
-16.10709865062851
 31
0.0
  0
LINE
  5
B4
330
70
100
AcDbEntity
  8
Layer 1
 62
    18
420
        0
370
     5
100
AcDbLine
 10
21.56706835019923
 20
-15.6769336746437
 30
0.0
 11
15.92124384722537
 21
-15.6769336743902
 31
0.0
  0
LINE
  5
B5
330
70
100
AcDbEntity
  8
Layer 1
 62
    18
420
        0
370
     5
100
AcDbLine
 10
17.00772175522873
 20
-15.42274527937939
 30
0.0
 11
16.3338165045992
 21
-15.4227452793491
 31
0.0
  0
LINE
  5
B6
330
70
100
AcDbEntity
  8
Layer 1
 62
    18
420
        0
370
     5
100
AcDbLine
 10
17.00772175524985
 20
-14.95347439619245
 30
0.0
 11
16.33381650462032
 21
-14.95347439616219
 31
0.0
  0
LINE
  5
B7
330
70
100
AcDbEntity
  8
Layer 1
 62
    18
420
        0
370
     5
100
AcDbLine
 10
21.56706835024311
 20
-14.69928600133767
 30
0.0
 11
15.92124384726927
 21
-14.69928600108415
 31
0.0
  0
LINE
  5
B8
330
70
100
AcDbEntity
  8
Layer 1
 62
    18
420
        0
370
     5
100
AcDbLine
 10
15.58102779620531
 20
-14.26912102481426
 30
0.0
 11
15.55658660437264
 21
-14.26912102481307
 31
0.0
  0
LINE
  5
B9
330
70
100
AcDbEntity
  8
Layer 1
 62
    18
420
        0
370
     5
100
AcDbLine
 10
15.32195116277956
 20
-14.26423278643602
 30
0.0
 11
15.33661587787911
 21
-14.26423278643675
 31
0.0
  0
LINE
  5
BA
330
70
100
AcDbEntity
  8
Layer 1
 62
    18
420
        0
370
     5
100
AcDbLine
 10
15.04820981425622
 20
-14.21046216439201
 30
0.0
 11
15.52725717417615
 21
-14.2104621644134
 31
0.0
  0
LINE
  5
BB
330
70
100
AcDbEntity
  8
Layer 1
 62
    18
420
        0
370
     5
100
AcDbLine
 10
16.33381650463105
 20
-14.71395071620223
 30
0.0
 11
16.33381650458844
 21
-15.66226895930915
 31
0.0
  0
LINE
  5
BC
330
70
100
AcDbEntity
  8
Layer 1
 62
    18
420
        0
370
     5
100
AcDbLine
 10
15.59569251123753
 20
-15.77256848833174
 30
0.0
 11
15.5956925112231
 21
-16.09243393553058
 31
0.0
  0
LINE
  5
BD
330
70
100
AcDbEntity
  8
Layer 1
 62
    18
420
        0
370
     5
100
AcDbLine
 10
15.5956925113043
 20
-14.28378573991444
 30
0.0
 11
15.59569251129
 21
-14.60365118721104
 31
0.0
  0
LINE
  5
BE
330
70
100
AcDbEntity
  8
Layer 1
 62
    18
420
        0
370
     5
100
AcDbLine
 10
15.54192188920407
 20
-15.80799842231454
 30
0.0
 11
15.54192188918869
 21
-16.15109279592659
 31
0.0
  0
LINE
  5
BF
330
70
100
AcDbEntity
  8
Layer 1
 62
    18
420
        0
370
     5
100
AcDbLine
 10
15.54192188927517
 20
-14.22512687951376
 30
0.0
 11
15.54192188925968
 21
-14.56822125312578
 31
0.0
  0
LINE
  5
C0
330
70
100
AcDbEntity
  8
Layer 1
 62
    18
420
        0
370
     5
100
AcDbLine
 10
15.35616883134432
 20
-14.28378573990365
 30
0.0
 11
15.3561688312631
 21
-16.09243393551984
 31
0.0
  0
LINE
  5
C1
330
70
100
AcDbEntity
  8
Layer 1
 62
    18
420
        0
370
     5
100
AcDbLine
 10
15.30239820931491
 20
-14.23001511786952
 30
0.0
 11
15.30239820922886
 21
-16.1462045575493
 31
0.0
  0
LINE
  5
C2
330
70
100
AcDbEntity
  8
Layer 1
 62
    18
420
        0
370
     5
100
AcDbLine
 10
15.03354509906946
 20
-16.15109279590372
 30
0.0
 11
15.03354509915594
 21
-14.22512687949094
 31
0.0
  0
SPLINE
  5
C3
330
70
100
AcDbEntity
  8
Layer 1
 62
    18
420
        0
370
     5
100
AcDbSpline
210
0.0
220
0.0
230
1.0
 70
     8
 71
     3
 72
     8
 73
     4
 74
     0
 42
0.0000000001
 43
0.0000000001
 40
0.0
 40
0.0
 40
0.0
 40
0.0
 40
1.0
 40
1.0
 40
1.0
 40
1.0
 10
7.311059442807137
 20
-16.24506272487502
 30
0.0
 10
7.3101003317645
 20
-16.24594059016805
 30
0.0
 10
7.309165676740285
 20
-16.24684480673565
 30
0.0
 10
7.308256549145412
 20
-16.24777433805904
 30
0.0
  0
SPLINE
  5
C4
330
70
100
AcDbEntity
  8
Layer 1
 62
    18
420
        0
370
     5
100
AcDbSpline
210
0.0
220
0.0
230
1.0
 70
     8
 71
     3
 72
    17
 73
    13
 74
     0
 42
0.0000000001
 43
0.0000000001
 40
0.0
 40
0.0
 40
0.0
 40
0.0
 40
1.0
 40
1.0
 40
1.0
 40
2.0
 40
2.0
 40
2.0
 40
3.0
 40
3.0
 40
3.0
 40
4.0
 40
4.0
 40
4.0
 40
4.0
 10
2.778371168651359
 20
-15.42320895914551
 30
0.0
 10
2.908212828027406
 20
-15.94730459911107
 30
0.0
 10
3.43833375144484
 20
-16.26691059874047
 30
0.0
 10
3.962429391410334
 20
-16.13706893936453
 30
0.0
 10
4.486525031375789
 20
-16.00722727998848
 30
0.0
 10
4.806131031005343
 20
-15.47710635657103
 30
0.0
 10
4.676289371629309
 20
-14.95301071660555
 30
0.0
 10
4.546447712253299
 20
-14.4289150766401
 30
0.0
 10
4.016326788835865
 20
-14.10930907701054
 30
0.0
 10
3.492231148870384
 20
-14.23915073638659
 30
0.0
 10
3.140321814851265
 20
-14.32633423572259
 30
0.0
 10
2.865554668111384
 20
-14.60110138240444
 30
0.0
 10
2.77837116870104
 20
-14.95301071640516
 30
0.0
  0
SPLINE
  5
C5
330
70
100
AcDbEntity
  8
Layer 1
 62
    18
420
        0
370
     5
100
AcDbSpline
210
0.0
220
0.0
230
1.0
 70
     8
 71
     3
 72
    17
 73
    13
 74
     0
 42
0.0000000001
 43
0.0000000001
 40
0.0
 40
0.0
 40
0.0
 40
0.0
 40
1.0
 40
1.0
 40
1.0
 40
2.0
 40
2.0
 40
2.0
 40
3.0
 40
3.0
 40
3.0
 40
4.0
 40
4.0
 40
4.0
 40
4.0
 10
2.854111241297573
 20
-15.42324937420082
 30
0.0
 10
2.983975221292338
 20
-15.90551492709275
 30
0.0
 10
3.480204253573712
 20
-16.19119284671311
 30
0.0
 10
3.962469806465643
 20
-16.06132886671826
 30
0.0
 10
4.444735359357537
 20
-15.93146488672356
 30
0.0
 10
4.730413278977821
 20
-15.4352358544422
 30
0.0
 10
4.600549298983133
 20
-14.95297030155024
 30
0.0
 10
4.470685318988367
 20
-14.47070474865836
 30
0.0
 10
3.974456286706968
 20
-14.18502682903802
 30
0.0
 10
3.49219073381505
 20
-14.31489080903275
 30
0.0
 10
3.180993387254678
 20
-14.39868971556012
 30
0.0
 10
2.93791017566059
 20
-14.64177291476916
 30
0.0
 10
2.854111253277879
 20
-14.95297025706001
 30
0.0
  0
SPLINE
  5
C6
330
70
100
AcDbEntity
  8
Layer 1
 62
    18
420
        0
370
     5
100
AcDbSpline
210
0.0
220
0.0
230
1.0
 70
     8
 71
     3
 72
    17
 73
    13
 74
     0
 42
0.0000000001
 43
0.0000000001
 40
0.0
 40
0.0
 40
0.0
 40
0.0
 40
1.0
 40
1.0
 40
1.0
 40
2.0
 40
2.0
 40
2.0
 40
3.0
 40
3.0
 40
3.0
 40
4.0
 40
4.0
 40
4.0
 40
4.0
 10
3.298738020276889
 20
-15.42317882059584
 30
0.0
 10
3.42856303459156
 20
-15.65988378409115
 30
0.0
 10
3.725694289365403
 20
-15.74652710205363
 30
0.0
 10
3.962399252860652
 20
-15.61670208773896
 30
0.0
 10
4.199104216355926
 20
-15.48687707342434
 30
0.0
 10
4.28574753431845
 20
-15.18974581865043
 30
0.0
 10
4.155922520003766
 20
-14.95304085515522
 30
0.0
 10
4.026097505689159
 20
-14.71633589166003
 30
0.0
 10
3.728966250915302
 20
-14.62969257369748
 30
0.0
 10
3.492261287420041
 20
-14.75951758801213
 30
0.0
 10
3.41064272209687
 20
-14.80428273047025
 30
0.0
 10
3.343503160640263
 20
-14.87142229237103
 30
0.0
 10
3.298738018721969
 20
-14.95304085799024
 30
0.0
  0
SPLINE
  5
C7
330
70
100
AcDbEntity
  8
Layer 1
 62
    18
420
        0
370
     5
100
AcDbSpline
210
0.0
220
0.0
230
1.0
 70
     8
 71
     3
 72
    14
 73
    10
 74
     0
 42
0.0000000001
 43
0.0000000001
 40
0.0
 40
0.0
 40
0.0
 40
0.0
 40
1.0
 40
1.0
 40
1.0
 40
2.0
 40
2.0
 40
2.0
 40
3.0
 40
3.0
 40
3.0
 40
3.0
 10
3.634298179657939
 20
-15.42308515739458
 30
0.0
 10
3.764071465214922
 20
-15.47446536221286
 30
0.0
 10
3.910925384841068
 20
-15.41091521391498
 30
0.0
 10
3.962305589659397
 20
-15.28114192835796
 30
0.0
 10
4.013685794477725
 20
-15.15136864280099
 30
0.0
 10
3.950135646179735
 20
-15.00451472317475
 30
0.0
 10
3.820362360622741
 20
-14.95313451835646
 30
0.0
 10
3.760597837249381
 20
-14.92947237989233
 30
0.0
 10
3.69406270498905
 20
-14.92947237964058
 30
0.0
 10
3.634298181436583
 20
-14.95313451765226
 30
0.0
  0
SPLINE
  5
C8
330
70
100
AcDbEntity
  8
Layer 1
 62
    18
420
        0
370
     5
100
AcDbSpline
210
0.0
220
0.0
230
1.0
 70
     8
 71
     3
 72
    14
 73
    10
 74
     0
 42
0.0000000001
 43
0.0000000001
 40
0.0
 40
0.0
 40
0.0
 40
0.0
 40
1.0
 40
1.0
 40
1.0
 40
2.0
 40
2.0
 40
2.0
 40
3.0
 40
3.0
 40
3.0
 40
3.0
 10
3.70811911237787
 20
-15.42293841205522
 30
0.0
 10
3.837811352721814
 20
-15.43354844151405
 30
0.0
 10
3.951548814861199
 20
-15.33701323598196
 30
0.0
 10
3.962158844320015
 20
-15.20732099563805
 30
0.0
 10
3.97276887377878
 20
-15.0776287552941
 30
0.0
 10
3.876233668246754
 20
-14.9638912931547
 30
0.0
 10
3.74654142790281
 20
-14.95328126369587
 30
0.0
 10
3.733755263493549
 20
-14.95223523672712
 30
0.0
 10
3.720905024795229
 20
-14.95223524359125
 30
0.0
 10
3.708118861503458
 20
-14.95328128421993
 30
0.0
  0
SPLINE
  5
C9
330
70
100
AcDbEntity
  8
Layer 1
 62
    18
420
        0
370
     5
100
AcDbSpline
210
0.0
220
0.0
230
1.0
 70
     8
 71
     3
 72
    11
 73
     7
 74
     0
 42
0.0000000001
 43
0.0000000001
 40
0.0
 40
0.0
 40
0.0
 40
0.0
 40
1.0
 40
1.0
 40
1.0
 40
2.0
 40
2.0
 40
2.0
 40
2.0
 10
3.72733027014034
 20
-15.422745279469
 30
0.0
 10
3.856915846302247
 20
-15.422745279469
 30
0.0
 10
3.961965711733808
 20
-15.31769541403744
 30
0.0
 10
3.961965711733808
 20
-15.18810983787557
 30
0.0
 10
3.961965711733808
 20
-15.05852426171363
 30
0.0
 10
3.856915846302247
 20
-14.95347439628204
 30
0.0
 10
3.72733027014034
 20
-14.95347439628204
 30
0.0
  0
SPLINE
  5
CA
330
70
100
AcDbEntity
  8
Layer 1
 62
    18
420
        0
370
     5
100
AcDbSpline
210
0.0
220
0.0
230
1.0
 70
     8
 71
     3
 72
     8
 73
     4
 74
     0
 42
0.0000000001
 43
0.0000000001
 40
0.0
 40
0.0
 40
0.0
 40
0.0
 40
1.0
 40
1.0
 40
1.0
 40
1.0
 10
0.8050796109547869
 20
-14.95347439628204
 30
0.0
 10
0.7986501478161978
 20
-14.95347439628204
 30
0.0
 10
0.7929704628546308
 20
-14.95766245172833
 30
0.0
 10
0.7910701023205951
 20
-14.96380465215586
 30
0.0
  0
SPLINE
  5
CB
330
70
100
AcDbEntity
  8
Layer 1
 62
    18
420
        0
370
     5
100
AcDbSpline
210
0.0
220
0.0
230
1.0
 70
     8
 71
     3
 72
     8
 73
     4
 74
     0
 42
0.0000000001
 43
0.0000000001
 40
0.0
 40
0.0
 40
0.0
 40
0.0
 40
1.0
 40
1.0
 40
1.0
 40
1.0
 10
0.7910701023205951
 20
-15.4124150235952
 30
0.0
 10
0.7929704628546308
 20
-15.41855722402275
 30
0.0
 10
0.7986501478161978
 20
-15.422745279469
 30
0.0
 10
0.8050796109547869
 20
-15.422745279469
 30
0.0
  0
SPLINE
  5
CC
330
70
100
AcDbEntity
  8
Layer 1
 62
    18
420
        0
370
     5
100
AcDbSpline
210
0.0
220
0.0
230
1.0
 70
     8
 71
     3
 72
     8
 73
     4
 74
     0
 42
0.0000000001
 43
0.0000000001
 40
0.0
 40
0.0
 40
0.0
 40
0.0
 40
1.0
 40
1.0
 40
1.0
 40
1.0
 10
7.967585319233067
 20
-16.24777427811907
 30
0.0
 10
7.966675603356179
 20
-16.24684537808727
 30
0.0
 10
7.965740984770377
 20
-16.24594119786853
 30
0.0
 10
7.964782484137963
 20
-16.24506272488452
 30
0.0
  0
SPLINE
  5
CD
330
70
100
AcDbEntity
  8
Layer 1
 62
    18
420
        0
370
     5
100
AcDbSpline
210
0.0
220
0.0
230
1.0
 70
     8
 71
     3
 72
    17
 73
    13
 74
     0
 42
0.0000000001
 43
0.0000000001
 40
0.0
 40
0.0
 40
0.0
 40
0.0
 40
1.0
 40
1.0
 40
1.0
 40
2.0
 40
2.0
 40
2.0
 40
3.0
 40
3.0
 40
3.0
 40
4.0
 40
4.0
 40
4.0
 40
4.0
 10
8.126744823360846
 20
-16.03477754543193
 30
0.0
 10
8.594346486418443
 20
-15.76480758220246
 30
0.0
 10
8.754558634150271
 20
-15.16688764093674
 30
0.0
 10
8.48458867092078
 20
-14.69928597787912
 30
0.0
 10
8.214618707691341
 20
-14.23168431482147
 30
0.0
 10
7.616698766425555
 20
-14.0714721670897
 30
0.0
 10
7.149097103367934
 20
-14.34144213031913
 30
0.0
 10
6.681495440310349
 20
-14.6114120935486
 30
0.0
 10
6.521283292578522
 20
-15.2093320348144
 30
0.0
 10
6.791253255807987
 20
-15.67693369787197
 30
0.0
 10
6.877059755946598
 20
-15.82555490626871
 30
0.0
 10
7.000475894424134
 20
-15.94897104483496
 30
0.0
 10
7.149097102759102
 20
-16.03477754508044
 30
0.0
  0
SPLINE
  5
CE
330
70
100
AcDbEntity
  8
Layer 1
 62
    18
420
        0
370
     5
100
AcDbSpline
210
0.0
220
0.0
230
1.0
 70
     8
 71
     3
 72
    17
 73
    13
 74
     0
 42
0.0000000001
 43
0.0000000001
 40
0.0
 40
0.0
 40
0.0
 40
0.0
 40
1.0
 40
1.0
 40
1.0
 40
2.0
 40
2.0
 40
2.0
 40
3.0
 40
3.0
 40
3.0
 40
4.0
 40
4.0
 40
4.0
 40
4.0
 10
8.128749195293531
 20
-15.9476424050626
 30
0.0
 10
8.54822744915072
 20
-15.67656545778163
 30
0.0
 10
8.668530477832291
 20
-15.11675985980365
 30
0.0
 10
8.397453530551375
 20
-14.69728160594637
 30
0.0
 10
8.126376583270522
 20
-14.27780335208917
 30
0.0
 10
7.56657098529245
 20
-14.15750032340772
 30
0.0
 10
7.147092731435249
 20
-14.42857727068854
 30
0.0
 10
6.727614477578033
 20
-14.69965421796943
 30
0.0
 10
6.607311448896514
 20
-15.25945981594746
 30
0.0
 10
6.878388396177405
 20
-15.67893806980474
 30
0.0
 10
6.94791451390669
 20
-15.78652632013394
 30
0.0
 10
7.039504426920188
 20
-15.87811624034
 30
0.0
 10
7.147092671789664
 20
-15.94764236651809
 30
0.0
  0
SPLINE
  5
CF
330
70
100
AcDbEntity
  8
Layer 1
 62
    18
420
        0
370
     5
100
AcDbSpline
210
0.0
220
0.0
230
1.0
 70
     8
 71
     3
 72
    11
 73
     7
 74
     0
 42
0.0000000001
 43
0.0000000001
 40
0.0
 40
0.0
 40
0.0
 40
0.0
 40
1.0
 40
1.0
 40
1.0
 40
2.0
 40
2.0
 40
2.0
 40
2.0
 10
8.126744800017426
 20
-15.18810983787557
 30
0.0
 10
8.126744800017426
 20
-14.91813988753834
 30
0.0
 10
7.907890913701609
 20
-14.69928600122254
 30
0.0
 10
7.637920963364396
 20
-14.69928600122254
 30
0.0
 10
7.367951013027158
 20
-14.69928600122254
 30
0.0
 10
7.149097126711378
 20
-14.91813988753834
 30
0.0
 10
7.149097126711378
 20
-15.18810983787557
 30
0.0
  0
SPLINE
  5
D0
330
70
100
AcDbEntity
  8
Layer 1
 62
    18
420
        0
370
     5
100
AcDbSpline
210
0.0
220
0.0
230
1.0
 70
     8
 71
     3
 72
     8
 73
     4
 74
     0
 42
0.0000000001
 43
0.0000000001
 40
0.0
 40
0.0
 40
0.0
 40
0.0
 40
1.0
 40
1.0
 40
1.0
 40
1.0
 10
14.47076231577398
 20
-15.422745279469
 30
0.0
 10
14.47719177891261
 20
-15.422745279469
 30
0.0
 10
14.48287146387411
 20
-15.41855722402275
 30
0.0
 10
14.48477182440815
 20
-15.4124150235952
 30
0.0
  0
SPLINE
  5
D1
330
70
100
AcDbEntity
  8
Layer 1
 62
    18
420
        0
370
     5
100
AcDbSpline
210
0.0
220
0.0
230
1.0
 70
     8
 71
     3
 72
    17
 73
    13
 74
     0
 42
0.0000000001
 43
0.0000000001
 40
0.0
 40
0.0
 40
0.0
 40
0.0
 40
1.0
 40
1.0
 40
1.0
 40
2.0
 40
2.0
 40
2.0
 40
3.0
 40
3.0
 40
3.0
 40
4.0
 40
4.0
 40
4.0
 40
4.0
 10
12.4974707580774
 20
-14.95301071660555
 30
0.0
 10
12.3676290987014
 20
-14.4289150766401
 30
0.0
 10
11.83750817528397
 20
-14.10930907701054
 30
0.0
 10
11.31341253531845
 20
-14.23915073638659
 30
0.0
 10
10.78931689535299
 20
-14.36899239576258
 30
0.0
 10
10.46971089572342
 20
-14.89911331918006
 30
0.0
 10
10.59955255509946
 20
-15.42320895914551
 30
0.0
 10
10.72939421447549
 20
-15.94730459911107
 30
0.0
 10
11.25951513789289
 20
-16.26691059874047
 30
0.0
 10
11.78361077785843
 20
-16.13706893936453
 30
0.0
 10
12.13552011187751
 20
-16.04988544002845
 30
0.0
 10
12.41028725861737
 20
-15.77511829334669
 30
0.0
 10
12.49747075802775
 20
-15.42320895934593
 30
0.0
  0
SPLINE
  5
D2
330
70
100
AcDbEntity
  8
Layer 1
 62
    18
420
        0
370
     5
100
AcDbSpline
210
0.0
220
0.0
230
1.0
 70
     8
 71
     3
 72
    17
 73
    13
 74
     0
 42
0.0000000001
 43
0.0000000001
 40
0.0
 40
0.0
 40
0.0
 40
0.0
 40
1.0
 40
1.0
 40
1.0
 40
2.0
 40
2.0
 40
2.0
 40
3.0
 40
3.0
 40
3.0
 40
4.0
 40
4.0
 40
4.0
 40
4.0
 10
12.4217306854312
 20
-14.95297030155024
 30
0.0
 10
12.29186670543648
 20
-14.47070474865836
 30
0.0
 10
11.79563767315503
 20
-14.18502682903802
 30
0.0
 10
11.31337212026315
 20
-14.31489080903275
 30
0.0
 10
10.8311065673712
 20
-14.44475478902748
 30
0.0
 10
10.54542864775094
 20
-14.94098382130892
 30
0.0
 10
10.67529262774567
 20
-15.42324937420082
 30
0.0
 10
10.8051566077404
 20
-15.90551492709275
 30
0.0
 10
11.30138564002182
 20
-16.19119284671311
 30
0.0
 10
11.78365119291374
 20
-16.06132886671826
 30
0.0
 10
12.09484853947409
 20
-15.97752996019097
 30
0.0
 10
12.33793175106818
 20
-15.73444676098191
 30
0.0
 10
12.42173067345094
 20
-15.42324941869106
 30
0.0
  0
SPLINE
  5
D3
330
70
100
AcDbEntity
  8
Layer 1
 62
    18
420
        0
370
     5
100
AcDbSpline
210
0.0
220
0.0
230
1.0
 70
     8
 71
     3
 72
    17
 73
    13
 74
     0
 42
0.0000000001
 43
0.0000000001
 40
0.0
 40
0.0
 40
0.0
 40
0.0
 40
1.0
 40
1.0
 40
1.0
 40
2.0
 40
2.0
 40
2.0
 40
3.0
 40
3.0
 40
3.0
 40
4.0
 40
4.0
 40
4.0
 40
4.0
 10
11.97710390645193
 20
-14.95304085515522
 30
0.0
 10
11.84727889213722
 20
-14.71633589166003
 30
0.0
 10
11.55014763736337
 20
-14.62969257369748
 30
0.0
 10
11.31344267386813
 20
-14.75951758801213
 30
0.0
 10
11.07673771037288
 20
-14.88934260232675
 30
0.0
 10
10.99009439241033
 20
-15.18647385710058
 30
0.0
 10
11.119919406725
 20
-15.42317882059584
 30
0.0
 10
11.24974442103962
 20
-15.65988378409115
 30
0.0
 10
11.5468756758135
 20
-15.74652710205363
 30
0.0
 10
11.78358063930872
 20
-15.61670208773896
 30
0.0
 10
11.86519920463192
 20
-15.57193694528084
 30
0.0
 10
11.93233876608853
 20
-15.50479738338008
 30
0.0
 10
11.97710390800682
 20
-15.42317881776077
 30
0.0
  0
SPLINE
  5
D4
330
70
100
AcDbEntity
  8
Layer 1
 62
    18
420
        0
370
     5
100
AcDbSpline
210
0.0
220
0.0
230
1.0
 70
     8
 71
     3
 72
    14
 73
    10
 74
     0
 42
0.0000000001
 43
0.0000000001
 40
0.0
 40
0.0
 40
0.0
 40
0.0
 40
1.0
 40
1.0
 40
1.0
 40
2.0
 40
2.0
 40
2.0
 40
3.0
 40
3.0
 40
3.0
 40
3.0
 10
11.64154374707081
 20
-14.95313451835646
 30
0.0
 10
11.51177046151383
 20
-14.90175431353815
 30
0.0
 10
11.36491654188766
 20
-14.96530446183614
 30
0.0
 10
11.31353633706938
 20
-15.09507774739318
 30
0.0
 10
11.26215613225107
 20
-15.22485103295018
 30
0.0
 10
11.32570628054904
 20
-15.37170495257636
 30
0.0
 10
11.45547956610602
 20
-15.42308515739458
 30
0.0
 10
11.5152440894794
 20
-15.44674729585874
 30
0.0
 10
11.5817792217397
 20
-15.44674729611056
 30
0.0
 10
11.64154374529218
 20
-15.4230851580988
 30
0.0
  0
SPLINE
  5
D5
330
70
100
AcDbEntity
  8
Layer 1
 62
    18
420
        0
370
     5
100
AcDbSpline
210
0.0
220
0.0
230
1.0
 70
     8
 71
     3
 72
    14
 73
    10
 74
     0
 42
0.0000000001
 43
0.0000000001
 40
0.0
 40
0.0
 40
0.0
 40
0.0
 40
1.0
 40
1.0
 40
1.0
 40
2.0
 40
2.0
 40
2.0
 40
3.0
 40
3.0
 40
3.0
 40
3.0
 10
11.5677228143509
 20
-14.95328126369587
 30
0.0
 10
11.43803057400696
 20
-14.94267123423709
 30
0.0
 10
11.3242931118676
 20
-15.03920643976916
 30
0.0
 10
11.31368308240881
 20
-15.16889868011306
 30
0.0
 10
11.30307305294999
 20
-15.29859092045697
 30
0.0
 10
11.39960825848204
 20
-15.41232838259639
 30
0.0
 10
11.52930049882597
 20
-15.42293841205522
 30
0.0
 10
11.54208666323524
 20
-15.42398443902402
 30
0.0
 10
11.55493690193356
 20
-15.42398443215989
 30
0.0
 10
11.56772306522529
 20
-15.42293839153116
 30
0.0
  0
SPLINE
  5
D6
330
70
100
AcDbEntity
  8
Layer 1
 62
    18
420
        0
370
     5
100
AcDbSpline
210
0.0
220
0.0
230
1.0
 70
     8
 71
     3
 72
    11
 73
     7
 74
     0
 42
0.0000000001
 43
0.0000000001
 40
0.0
 40
0.0
 40
0.0
 40
0.0
 40
1.0
 40
1.0
 40
1.0
 40
2.0
 40
2.0
 40
2.0
 40
2.0
 10
11.54851165658844
 20
-14.95347439628204
 30
0.0
 10
11.41892608042656
 20
-14.95347439628204
 30
0.0
 10
11.313876214995
 20
-15.05852426171363
 30
0.0
 10
11.313876214995
 20
-15.18810983787557
 30
0.0
 10
11.313876214995
 20
-15.31769541403744
 30
0.0
 10
11.41892608042656
 20
-15.422745279469
 30
0.0
 10
11.54851165658844
 20
-15.422745279469
 30
0.0
  0
SPLINE
  5
D7
330
70
100
AcDbEntity
  8
Layer 1
 62
    18
420
        0
370
     5
100
AcDbSpline
210
0.0
220
0.0
230
1.0
 70
     8
 71
     3
 72
     8
 73
     4
 74
     0
 42
0.0000000001
 43
0.0000000001
 40
0.0
 40
0.0
 40
0.0
 40
0.0
 40
1.0
 40
1.0
 40
1.0
 40
1.0
 10
14.48477182440815
 20
-14.96380465215586
 30
0.0
 10
14.48287146387411
 20
-14.95766245172833
 30
0.0
 10
14.47719177891261
 20
-14.95347439628204
 30
0.0
 10
14.47076231577398
 20
-14.95347439628204
 30
0.0
  0
SPLINE
  5
D8
330
70
100
AcDbEntity
  8
Layer 1
 62
    18
420
        0
370
     5
100
AcDbSpline
210
0.0
220
0.0
230
1.0
 70
     8
 71
     3
 72
     8
 73
     4
 74
     0
 42
0.0000000001
 43
0.0000000001
 40
0.0
 40
0.0
 40
0.0
 40
0.0
 40
1.0
 40
1.0
 40
1.0
 40
1.0
 10
7.637920963367996
 20
-11.87757022156468
 30
0.0
 10
7.672051102350324
 20
-11.87756752677655
 30
0.0
 10
7.706094566223669
 20
-11.87413463174531
 30
0.0
 10
7.739538130747543
 20
-11.86732328928193
 30
0.0
  0
SPLINE
  5
D9
330
70
100
AcDbEntity
  8
Layer 1
 62
    18
420
        0
370
     5
100
AcDbSpline
210
0.0
220
0.0
230
1.0
 70
     8
 71
     3
 72
     8
 73
     4
 74
     0
 42
0.0000000001
 43
0.0000000001
 40
0.0
 40
0.0
 40
0.0
 40
0.0
 40
1.0
 40
1.0
 40
1.0
 40
1.0
 10
3.287388817152645
 20
-6.14733823566395
 30
0.0
 10
3.659947348618023
 20
-6.14733823566395
 30
0.0
 10
3.961965711733808
 20
-5.845319872548164
 30
0.0
 10
3.961965711733808
 20
-5.47276134108285
 30
0.0
  0
SPLINE
  5
DA
330
70
100
AcDbEntity
  8
Layer 1
 62
    18
420
        0
370
     5
100
AcDbSpline
210
0.0
220
0.0
230
1.0
 70
     8
 71
     3
 72
     8
 73
     4
 74
     0
 42
0.0000000001
 43
0.0000000001
 40
0.0
 40
0.0
 40
0.0
 40
0.0
 40
1.0
 40
1.0
 40
1.0
 40
1.0
 10
4.527299424433913
 20
-4.287340365327483
 30
0.0
 10
4.334763706162814
 20
-4.398486484334764
 30
0.0
 10
4.216154106793358
 20
-4.603911002967239
 30
0.0
 10
4.216154106793358
 20
-4.826224885980764
 30
0.0
  0
SPLINE
  5
DB
330
70
100
AcDbEntity
  8
Layer 1
 62
    18
420
        0
370
     5
100
AcDbSpline
210
0.0
220
0.0
230
1.0
 70
     8
 71
     3
 72
     8
 73
     4
 74
     0
 42
0.0000000001
 43
0.0000000001
 40
0.0
 40
0.0
 40
0.0
 40
0.0
 40
1.0
 40
1.0
 40
1.0
 40
1.0
 10
3.238506433487347
 20
-4.826224885980764
 30
0.0
 10
3.238506433487347
 20
-4.603911002967239
 30
0.0
 10
3.119896834117904
 20
-4.398486484334764
 30
0.0
 10
2.927361115846805
 20
-4.287340365327483
 30
0.0
  0
SPLINE
  5
DC
330
70
100
AcDbEntity
  8
Layer 1
 62
    18
420
        0
370
     5
100
AcDbSpline
210
0.0
220
0.0
230
1.0
 70
     8
 71
     3
 72
     8
 73
     4
 74
     0
 42
0.0000000001
 43
0.0000000001
 40
0.0
 40
0.0
 40
0.0
 40
0.0
 40
1.0
 40
1.0
 40
1.0
 40
1.0
 10
7.149097126711378
 20
-4.891732619417274
 30
0.0
 10
7.149097126711378
 20
-4.675756659147483
 30
0.0
 10
6.97401401765876
 20
-4.500673550094902
 30
0.0
 10
6.758038057388969
 20
-4.500673550094902
 30
0.0
  0
SPLINE
  5
DD
330
70
100
AcDbEntity
  8
Layer 1
 62
    18
420
        0
370
     5
100
AcDbSpline
210
0.0
220
0.0
230
1.0
 70
     8
 71
     3
 72
     8
 73
     4
 74
     0
 42
0.0000000001
 43
0.0000000001
 40
0.0
 40
0.0
 40
0.0
 40
0.0
 40
1.0
 40
1.0
 40
1.0
 40
1.0
 10
3.287388817152645
 20
-5.678067352477063
 30
0.0
 10
3.400776196294297
 20
-5.678067352477063
 30
0.0
 10
3.492694828546909
 20
-5.586148720224451
 30
0.0
 10
3.492694828546909
 20
-5.47276134108285
 30
0.0
  0
SPLINE
  5
DE
330
70
100
AcDbEntity
  8
Layer 1
 62
    18
420
        0
370
     5
100
AcDbSpline
210
0.0
220
0.0
230
1.0
 70
     8
 71
     3
 72
     8
 73
     4
 74
     0
 42
0.0000000001
 43
0.0000000001
 40
0.0
 40
0.0
 40
0.0
 40
0.0
 40
1.0
 40
1.0
 40
1.0
 40
1.0
 10
2.927361115850847
 20
-4.287340365376242
 30
0.0
 10
2.898401921042048
 20
-4.270622936831133
 30
0.0
 10
2.865639356702015
 20
-4.26161148345856
 30
0.0
 10
2.83220419653114
 20
-4.261167135081058
 30
0.0
  0
SPLINE
  5
DF
330
70
100
AcDbEntity
  8
Layer 1
 62
    18
420
        0
370
     5
100
AcDbSpline
210
0.0
220
0.0
230
1.0
 70
     8
 71
     3
 72
     8
 73
     4
 74
     0
 42
0.0000000001
 43
0.0000000001
 40
0.0
 40
0.0
 40
0.0
 40
0.0
 40
1.0
 40
1.0
 40
1.0
 40
1.0
 10
4.622456343749566
 20
-4.261167135081058
 30
0.0
 10
4.58902118357864
 20
-4.26161148345856
 30
0.0
 10
4.556258619238633
 20
-4.270622936831133
 30
0.0
 10
4.527299424429833
 20
-4.287340365376242
 30
0.0
  0
SPLINE
  5
E0
330
70
100
AcDbEntity
  8
Layer 1
 62
    18
420
        0
370
     5
100
AcDbSpline
210
0.0
220
0.0
230
1.0
 70
     8
 71
     3
 72
     8
 73
     4
 74
     0
 42
0.0000000001
 43
0.0000000001
 40
0.0
 40
0.0
 40
0.0
 40
0.0
 40
1.0
 40
1.0
 40
1.0
 40
1.0
 10
4.670760274880623
 20
-4.207379248103064
 30
0.0
 10
4.659961476867175
 20
-4.207379248103064
 30
0.0
 10
4.651207321414542
 20
-4.216133403555734
 30
0.0
 10
4.651207321414542
 20
-4.226932201569196
 30
0.0
  0
SPLINE
  5
E1
330
70
100
AcDbEntity
  8
Layer 1
 62
    18
420
        0
370
     5
100
AcDbSpline
210
0.0
220
0.0
230
1.0
 70
     8
 71
     3
 72
     8
 73
     4
 74
     0
 42
0.0000000001
 43
0.0000000001
 40
0.0
 40
0.0
 40
0.0
 40
0.0
 40
1.0
 40
1.0
 40
1.0
 40
1.0
 10
2.803453218866163
 20
-4.226932201569196
 30
0.0
 10
2.803453218866163
 20
-4.216133403555734
 30
0.0
 10
2.794699063413544
 20
-4.207379248103064
 30
0.0
 10
2.783900265400032
 20
-4.207379248103064
 30
0.0
  0
SPLINE
  5
E2
330
70
100
AcDbEntity
  8
Layer 1
 62
    18
420
        0
370
     5
100
AcDbSpline
210
0.0
220
0.0
230
1.0
 70
     8
 71
     3
 72
     8
 73
     4
 74
     0
 42
0.0000000001
 43
0.0000000001
 40
0.0
 40
0.0
 40
0.0
 40
0.0
 40
1.0
 40
1.0
 40
1.0
 40
1.0
 10
4.685424989980244
 20
-4.207379248103064
 30
0.0
 10
4.696223787993718
 20
-4.207379248103064
 30
0.0
 10
4.704977943446338
 20
-4.198625092650432
 30
0.0
 10
4.704977943446338
 20
-4.187826294636971
 30
0.0
  0
SPLINE
  5
E3
330
70
100
AcDbEntity
  8
Layer 1
 62
    18
420
        0
370
     5
100
AcDbSpline
210
0.0
220
0.0
230
1.0
 70
     8
 71
     3
 72
     8
 73
     4
 74
     0
 42
0.0000000001
 43
0.0000000001
 40
0.0
 40
0.0
 40
0.0
 40
0.0
 40
1.0
 40
1.0
 40
1.0
 40
1.0
 10
2.749682596834342
 20
-4.187826294636971
 30
0.0
 10
2.749682596834342
 20
-4.198625092650432
 30
0.0
 10
2.758436752286987
 20
-4.207379248103064
 30
0.0
 10
2.769235550300461
 20
-4.207379248103064
 30
0.0
  0
SPLINE
  5
E4
330
70
100
AcDbEntity
  8
Layer 1
 62
    18
420
        0
370
     5
100
AcDbSpline
210
0.0
220
0.0
230
1.0
 70
     8
 71
     3
 72
     8
 73
     4
 74
     0
 42
0.0000000001
 43
0.0000000001
 40
0.0
 40
0.0
 40
0.0
 40
0.0
 40
1.0
 40
1.0
 40
1.0
 40
1.0
 10
4.63165436794841
 20
-4.261149870134898
 30
0.0
 10
4.642453165961884
 20
-4.261149870134898
 30
0.0
 10
4.651207321414542
 20
-4.252395714682267
 30
0.0
 10
4.651207321414542
 20
-4.241596916668805
 30
0.0
  0
SPLINE
  5
E5
330
70
100
AcDbEntity
  8
Layer 1
 62
    18
420
        0
370
     5
100
AcDbSpline
210
0.0
220
0.0
230
1.0
 70
     8
 71
     3
 72
     8
 73
     4
 74
     0
 42
0.0000000001
 43
0.0000000001
 40
0.0
 40
0.0
 40
0.0
 40
0.0
 40
1.0
 40
1.0
 40
1.0
 40
1.0
 10
2.803453218866163
 20
-4.241596916668805
 30
0.0
 10
2.803453218866163
 20
-4.252395714682267
 30
0.0
 10
2.81220737431877
 20
-4.261149870134898
 30
0.0
 10
2.823006172332283
 20
-4.261149870134898
 30
0.0
  0
SPLINE
  5
E6
330
70
100
AcDbEntity
  8
Layer 1
 62
    18
420
        0
370
     5
100
AcDbSpline
210
0.0
220
0.0
230
1.0
 70
     8
 71
     3
 72
     8
 73
     4
 74
     0
 42
0.0000000001
 43
0.0000000001
 40
0.0
 40
0.0
 40
0.0
 40
0.0
 40
1.0
 40
1.0
 40
1.0
 40
1.0
 10
2.764347311933925
 20
-3.938526137943931
 30
0.0
 10
2.756248213423822
 20
-3.938526137943931
 30
0.0
 10
2.749682596834342
 20
-3.945091754533399
 30
0.0
 10
2.749682596834342
 20
-3.953190853043502
 30
0.0
  0
SPLINE
  5
E7
330
70
100
AcDbEntity
  8
Layer 1
 62
    18
420
        0
370
     5
100
AcDbSpline
210
0.0
220
0.0
230
1.0
 70
     8
 71
     3
 72
     8
 73
     4
 74
     0
 42
0.0000000001
 43
0.0000000001
 40
0.0
 40
0.0
 40
0.0
 40
0.0
 40
1.0
 40
1.0
 40
1.0
 40
1.0
 10
4.704977943446338
 20
-3.953190853043502
 30
0.0
 10
4.704977943446338
 20
-3.945091754533399
 30
0.0
 10
4.698412326856896
 20
-3.938526137943931
 30
0.0
 10
4.690313228346767
 20
-3.938526137943931
 30
0.0
  0
SPLINE
  5
E8
330
70
100
AcDbEntity
  8
Layer 1
 62
    18
420
        0
370
     5
100
AcDbSpline
210
0.0
220
0.0
230
1.0
 70
     8
 71
     3
 72
     8
 73
     4
 74
     0
 42
0.0000000001
 43
0.0000000001
 40
0.0
 40
0.0
 40
0.0
 40
0.0
 40
1.0
 40
1.0
 40
1.0
 40
1.0
 10
3.238506433487347
 20
-5.224132828341326
 30
0.0
 10
3.238506433487347
 20
-5.232231926851441
 30
0.0
 10
3.245072050076815
 20
-5.238797543440884
 30
0.0
 10
3.253171148586918
 20
-5.238797543440884
 30
0.0
  0
SPLINE
  5
E9
330
70
100
AcDbEntity
  8
Layer 1
 62
    18
420
        0
370
     5
100
AcDbSpline
210
0.0
220
0.0
230
1.0
 70
     8
 71
     3
 72
     8
 73
     4
 74
     0
 42
0.0000000001
 43
0.0000000001
 40
0.0
 40
0.0
 40
0.0
 40
0.0
 40
1.0
 40
1.0
 40
1.0
 40
1.0
 10
4.201489391693749
 20
-5.238797543440884
 30
0.0
 10
4.209588490203878
 20
-5.238797543440884
 30
0.0
 10
4.216154106793358
 20
-5.232231926851441
 30
0.0
 10
4.216154106793358
 20
-5.224132828341326
 30
0.0
  0
SPLINE
  5
EA
330
70
100
AcDbEntity
  8
Layer 1
 62
    18
420
        0
370
     5
100
AcDbSpline
210
0.0
220
0.0
230
1.0
 70
     8
 71
     3
 72
     8
 73
     4
 74
     0
 42
0.0000000001
 43
0.0000000001
 40
0.0
 40
0.0
 40
0.0
 40
0.0
 40
1.0
 40
1.0
 40
1.0
 40
1.0
 10
0.7910701023205951
 20
-6.137007979790092
 30
0.0
 10
0.7929704628545676
 20
-6.143150180217617
 30
0.0
 10
0.7986501478161724
 20
-6.14733823566395
 30
0.0
 10
0.8050796109547869
 20
-6.14733823566395
 30
0.0
  0
SPLINE
  5
EB
330
70
100
AcDbEntity
  8
Layer 1
 62
    18
420
        0
370
     5
100
AcDbSpline
210
0.0
220
0.0
230
1.0
 70
     8
 71
     3
 72
     8
 73
     4
 74
     0
 42
0.0000000001
 43
0.0000000001
 40
0.0
 40
0.0
 40
0.0
 40
0.0
 40
1.0
 40
1.0
 40
1.0
 40
1.0
 10
0.8050796109547869
 20
-5.678067352477063
 30
0.0
 10
0.7986501478161724
 20
-5.678067352477063
 30
0.0
 10
0.7929704628545676
 20
-5.682255407923346
 30
0.0
 10
0.7910701023205951
 20
-5.688397608350921
 30
0.0
  0
SPLINE
  5
EC
330
70
100
AcDbEntity
  8
Layer 1
 62
    18
420
        0
370
     5
100
AcDbSpline
210
0.0
220
0.0
230
1.0
 70
     8
 71
     3
 72
     8
 73
     4
 74
     0
 42
0.0000000001
 43
0.0000000001
 40
0.0
 40
0.0
 40
0.0
 40
0.0
 40
1.0
 40
1.0
 40
1.0
 40
1.0
 10
6.660273290058385
 20
-4.432238212963473
 30
0.0
 10
6.660273290058385
 20
-4.440337311473588
 30
0.0
 10
6.666838906647853
 20
-4.446902928063056
 30
0.0
 10
6.674938005157955
 20
-4.446902928063056
 30
0.0
  0
SPLINE
  5
ED
330
70
100
AcDbEntity
  8
Layer 1
 62
    18
420
        0
370
     5
100
AcDbSpline
210
0.0
220
0.0
230
1.0
 70
     8
 71
     3
 72
     8
 73
     4
 74
     0
 42
0.0000000001
 43
0.0000000001
 40
0.0
 40
0.0
 40
0.0
 40
0.0
 40
1.0
 40
1.0
 40
1.0
 40
1.0
 10
6.718932150456743
 20
-4.461567643162664
 30
0.0
 10
6.718932150456743
 20
-4.453468544652574
 30
0.0
 10
6.712366533867325
 20
-4.446902928063132
 30
0.0
 10
6.704267435357248
 20
-4.446902928063056
 30
0.0
  0
SPLINE
  5
EE
330
70
100
AcDbEntity
  8
Layer 1
 62
    18
420
        0
370
     5
100
AcDbSpline
210
0.0
220
0.0
230
1.0
 70
     8
 71
     3
 72
     8
 73
     4
 74
     0
 42
0.0000000001
 43
0.0000000001
 40
0.0
 40
0.0
 40
0.0
 40
0.0
 40
1.0
 40
1.0
 40
1.0
 40
1.0
 10
6.718932150456743
 20
-4.486008834995307
 30
0.0
 10
6.718932150456743
 20
-4.494107933505435
 30
0.0
 10
6.725497767046198
 20
-4.500673550094902
 30
0.0
 10
6.733596865556326
 20
-4.500673550094902
 30
0.0
  0
SPLINE
  5
EF
330
70
100
AcDbEntity
  8
Layer 1
 62
    18
420
        0
370
     5
100
AcDbSpline
210
0.0
220
0.0
230
1.0
 70
     8
 71
     3
 72
     8
 73
     4
 74
     0
 42
0.0000000001
 43
0.0000000001
 40
0.0
 40
0.0
 40
0.0
 40
0.0
 40
1.0
 40
1.0
 40
1.0
 40
1.0
 10
6.674938005157955
 20
-3.938526137943931
 30
0.0
 10
6.666838906647853
 20
-3.938526137943931
 30
0.0
 10
6.660273290058385
 20
-3.945091754533399
 30
0.0
 10
6.660273290058385
 20
-3.953190853043502
 30
0.0
  0
SPLINE
  5
F0
330
70
100
AcDbEntity
  8
Layer 1
 62
    18
420
        0
370
     5
100
AcDbSpline
210
0.0
220
0.0
230
1.0
 70
     8
 71
     3
 72
     8
 73
     4
 74
     0
 42
0.0000000001
 43
0.0000000001
 40
0.0
 40
0.0
 40
0.0
 40
0.0
 40
1.0
 40
1.0
 40
1.0
 40
1.0
 10
11.313876214995
 20
-5.47276134108285
 30
0.0
 10
11.313876214995
 20
-5.845319872548164
 30
0.0
 10
11.61589457811075
 20
-6.14733823566395
 30
0.0
 10
11.98845310957611
 20
-6.14733823566395
 30
0.0
  0
SPLINE
  5
F1
330
70
100
AcDbEntity
  8
Layer 1
 62
    18
420
        0
370
     5
100
AcDbSpline
210
0.0
220
0.0
230
1.0
 70
     8
 71
     3
 72
     8
 73
     4
 74
     0
 42
0.0000000001
 43
0.0000000001
 40
0.0
 40
0.0
 40
0.0
 40
0.0
 40
1.0
 40
1.0
 40
1.0
 40
1.0
 10
11.05968781993542
 20
-4.826224885980764
 30
0.0
 10
11.05968781993542
 20
-4.603911002967239
 30
0.0
 10
10.94107822056599
 20
-4.398486484334764
 30
0.0
 10
10.74854250229489
 20
-4.287340365327483
 30
0.0
  0
SPLINE
  5
F2
330
70
100
AcDbEntity
  8
Layer 1
 62
    18
420
        0
370
     5
100
AcDbSpline
210
0.0
220
0.0
230
1.0
 70
     8
 71
     3
 72
     8
 73
     4
 74
     0
 42
0.0000000001
 43
0.0000000001
 40
0.0
 40
0.0
 40
0.0
 40
0.0
 40
1.0
 40
1.0
 40
1.0
 40
1.0
 10
12.34848081088198
 20
-4.287340365327483
 30
0.0
 10
12.15594509261089
 20
-4.398486484334764
 30
0.0
 10
12.03733549324144
 20
-4.603911002967239
 30
0.0
 10
12.03733549324144
 20
-4.826224885980764
 30
0.0
  0
SPLINE
  5
F3
330
70
100
AcDbEntity
  8
Layer 1
 62
    18
420
        0
370
     5
100
AcDbSpline
210
0.0
220
0.0
230
1.0
 70
     8
 71
     3
 72
     8
 73
     4
 74
     0
 42
0.0000000001
 43
0.0000000001
 40
0.0
 40
0.0
 40
0.0
 40
0.0
 40
1.0
 40
1.0
 40
1.0
 40
1.0
 10
8.517803869339799
 20
-4.500673550094902
 30
0.0
 10
8.301827909070008
 20
-4.500673550094902
 30
0.0
 10
8.126744800017426
 20
-4.675756659147483
 30
0.0
 10
8.126744800017426
 20
-4.891732619417274
 30
0.0
  0
SPLINE
  5
F4
330
70
100
AcDbEntity
  8
Layer 1
 62
    18
420
        0
370
     5
100
AcDbSpline
210
0.0
220
0.0
230
1.0
 70
     8
 71
     3
 72
     8
 73
     4
 74
     0
 42
0.0000000001
 43
0.0000000001
 40
0.0
 40
0.0
 40
0.0
 40
0.0
 40
1.0
 40
1.0
 40
1.0
 40
1.0
 10
11.78314709818187
 20
-5.47276134108285
 30
0.0
 10
11.78314709818187
 20
-5.586148720224451
 30
0.0
 10
11.87506573043449
 20
-5.678067352477063
 30
0.0
 10
11.98845310957611
 20
-5.678067352477063
 30
0.0
  0
SPLINE
  5
F5
330
70
100
AcDbEntity
  8
Layer 1
 62
    18
420
        0
370
     5
100
AcDbSpline
210
0.0
220
0.0
230
1.0
 70
     8
 71
     3
 72
     8
 73
     4
 74
     0
 42
0.0000000001
 43
0.0000000001
 40
0.0
 40
0.0
 40
0.0
 40
0.0
 40
1.0
 40
1.0
 40
1.0
 40
1.0
 10
12.44363773019768
 20
-4.261167135081058
 30
0.0
 10
12.41020257002676
 20
-4.26161148345856
 30
0.0
 10
12.37744000568669
 20
-4.270622936831133
 30
0.0
 10
12.34848081087794
 20
-4.287340365376242
 30
0.0
  0
SPLINE
  5
F6
330
70
100
AcDbEntity
  8
Layer 1
 62
    18
420
        0
370
     5
100
AcDbSpline
210
0.0
220
0.0
230
1.0
 70
     8
 71
     3
 72
     8
 73
     4
 74
     0
 42
0.0000000001
 43
0.0000000001
 40
0.0
 40
0.0
 40
0.0
 40
0.0
 40
1.0
 40
1.0
 40
1.0
 40
1.0
 10
10.74854250229895
 20
-4.287340365376242
 30
0.0
 10
10.71958330749011
 20
-4.270622936831133
 30
0.0
 10
10.68682074315014
 20
-4.26161148345856
 30
0.0
 10
10.65338558297923
 20
-4.261167135081058
 30
0.0
  0
SPLINE
  5
F7
330
70
100
AcDbEntity
  8
Layer 1
 62
    18
420
        0
370
     5
100
AcDbSpline
210
0.0
220
0.0
230
1.0
 70
     8
 71
     3
 72
     8
 73
     4
 74
     0
 42
0.0000000001
 43
0.0000000001
 40
0.0
 40
0.0
 40
0.0
 40
0.0
 40
1.0
 40
1.0
 40
1.0
 40
1.0
 10
10.62463460531424
 20
-4.226932201569196
 30
0.0
 10
10.62463460531424
 20
-4.216133403555734
 30
0.0
 10
10.61588044986163
 20
-4.207379248103064
 30
0.0
 10
10.60508165184814
 20
-4.207379248103064
 30
0.0
  0
SPLINE
  5
F8
330
70
100
AcDbEntity
  8
Layer 1
 62
    18
420
        0
370
     5
100
AcDbSpline
210
0.0
220
0.0
230
1.0
 70
     8
 71
     3
 72
     8
 73
     4
 74
     0
 42
0.0000000001
 43
0.0000000001
 40
0.0
 40
0.0
 40
0.0
 40
0.0
 40
1.0
 40
1.0
 40
1.0
 40
1.0
 10
12.49194166132874
 20
-4.207379248103064
 30
0.0
 10
12.4811428633153
 20
-4.207379248103064
 30
0.0
 10
12.47238870786259
 20
-4.216133403555734
 30
0.0
 10
12.47238870786259
 20
-4.226932201569196
 30
0.0
  0
SPLINE
  5
F9
330
70
100
AcDbEntity
  8
Layer 1
 62
    18
420
        0
370
     5
100
AcDbSpline
210
0.0
220
0.0
230
1.0
 70
     8
 71
     3
 72
     8
 73
     4
 74
     0
 42
0.0000000001
 43
0.0000000001
 40
0.0
 40
0.0
 40
0.0
 40
0.0
 40
1.0
 40
1.0
 40
1.0
 40
1.0
 10
10.57086398328241
 20
-4.187826294636971
 30
0.0
 10
10.57086398328241
 20
-4.198625092650432
 30
0.0
 10
10.57961813873506
 20
-4.207379248103064
 30
0.0
 10
10.59041693674853
 20
-4.207379248103064
 30
0.0
  0
SPLINE
  5
FA
330
70
100
AcDbEntity
  8
Layer 1
 62
    18
420
        0
370
     5
100
AcDbSpline
210
0.0
220
0.0
230
1.0
 70
     8
 71
     3
 72
     8
 73
     4
 74
     0
 42
0.0000000001
 43
0.0000000001
 40
0.0
 40
0.0
 40
0.0
 40
0.0
 40
1.0
 40
1.0
 40
1.0
 40
1.0
 10
12.50660637642828
 20
-4.207379248103064
 30
0.0
 10
12.51740517444179
 20
-4.207379248103064
 30
0.0
 10
12.5261593298944
 20
-4.198625092650432
 30
0.0
 10
12.5261593298944
 20
-4.187826294636971
 30
0.0
  0
SPLINE
  5
FB
330
70
100
AcDbEntity
  8
Layer 1
 62
    18
420
        0
370
     5
100
AcDbSpline
210
0.0
220
0.0
230
1.0
 70
     8
 71
     3
 72
     8
 73
     4
 74
     0
 42
0.0000000001
 43
0.0000000001
 40
0.0
 40
0.0
 40
0.0
 40
0.0
 40
1.0
 40
1.0
 40
1.0
 40
1.0
 10
10.62463460531424
 20
-4.241596916668805
 30
0.0
 10
10.62463460531424
 20
-4.252395714682267
 30
0.0
 10
10.63338876076689
 20
-4.261149870134898
 30
0.0
 10
10.64418755878036
 20
-4.261149870134898
 30
0.0
  0
SPLINE
  5
FC
330
70
100
AcDbEntity
  8
Layer 1
 62
    18
420
        0
370
     5
100
AcDbSpline
210
0.0
220
0.0
230
1.0
 70
     8
 71
     3
 72
     8
 73
     4
 74
     0
 42
0.0000000001
 43
0.0000000001
 40
0.0
 40
0.0
 40
0.0
 40
0.0
 40
1.0
 40
1.0
 40
1.0
 40
1.0
 10
12.45283575439657
 20
-4.261149870134898
 30
0.0
 10
12.46363455240998
 20
-4.261149870134898
 30
0.0
 10
12.47238870786259
 20
-4.252395714682267
 30
0.0
 10
12.47238870786259
 20
-4.241596916668805
 30
0.0
  0
SPLINE
  5
FD
330
70
100
AcDbEntity
  8
Layer 1
 62
    18
420
        0
370
     5
100
AcDbSpline
210
0.0
220
0.0
230
1.0
 70
     8
 71
     3
 72
     8
 73
     4
 74
     0
 42
0.0000000001
 43
0.0000000001
 40
0.0
 40
0.0
 40
0.0
 40
0.0
 40
1.0
 40
1.0
 40
1.0
 40
1.0
 10
12.5261593298944
 20
-3.953190853043502
 30
0.0
 10
12.5261593298944
 20
-3.945091754533399
 30
0.0
 10
12.51959371330498
 20
-3.938526137943931
 30
0.0
 10
12.51149461479488
 20
-3.938526137943931
 30
0.0
  0
SPLINE
  5
FE
330
70
100
AcDbEntity
  8
Layer 1
 62
    18
420
        0
370
     5
100
AcDbSpline
210
0.0
220
0.0
230
1.0
 70
     8
 71
     3
 72
     8
 73
     4
 74
     0
 42
0.0000000001
 43
0.0000000001
 40
0.0
 40
0.0
 40
0.0
 40
0.0
 40
1.0
 40
1.0
 40
1.0
 40
1.0
 10
10.58552869838201
 20
-3.938526137943931
 30
0.0
 10
10.57742959987189
 20
-3.938526137943931
 30
0.0
 10
10.57086398328241
 20
-3.945091754533399
 30
0.0
 10
10.57086398328241
 20
-3.953190853043502
 30
0.0
  0
SPLINE
  5
FF
330
70
100
AcDbEntity
  8
Layer 1
 62
    18
420
        0
370
     5
100
AcDbSpline
210
0.0
220
0.0
230
1.0
 70
     8
 71
     3
 72
     8
 73
     4
 74
     0
 42
0.0000000001
 43
0.0000000001
 40
0.0
 40
0.0
 40
0.0
 40
0.0
 40
1.0
 40
1.0
 40
1.0
 40
1.0
 10
11.05968781993542
 20
-5.224132828341326
 30
0.0
 10
11.05968781993542
 20
-5.232231926851441
 30
0.0
 10
11.06625343652489
 20
-5.238797543440884
 30
0.0
 10
11.074352535035
 20
-5.238797543440884
 30
0.0
  0
SPLINE
  5
100
330
70
100
AcDbEntity
  8
Layer 1
 62
    18
420
        0
370
     5
100
AcDbSpline
210
0.0
220
0.0
230
1.0
 70
     8
 71
     3
 72
     8
 73
     4
 74
     0
 42
0.0000000001
 43
0.0000000001
 40
0.0
 40
0.0
 40
0.0
 40
0.0
 40
1.0
 40
1.0
 40
1.0
 40
1.0
 10
12.02267077814187
 20
-5.238797543440884
 30
0.0
 10
12.03076987665195
 20
-5.238797543440884
 30
0.0
 10
12.03733549324144
 20
-5.232231926851441
 30
0.0
 10
12.03733549324144
 20
-5.224132828341326
 30
0.0
  0
SPLINE
  5
101
330
70
100
AcDbEntity
  8
Layer 1
 62
    18
420
        0
370
     5
100
AcDbSpline
210
0.0
220
0.0
230
1.0
 70
     8
 71
     3
 72
     8
 73
     4
 74
     0
 42
0.0000000001
 43
0.0000000001
 40
0.0
 40
0.0
 40
0.0
 40
0.0
 40
1.0
 40
1.0
 40
1.0
 40
1.0
 10
14.47076231577398
 20
-6.14733823566395
 30
0.0
 10
14.47719177891266
 20
-6.14733823566395
 30
0.0
 10
14.48287146387421
 20
-6.143150180217617
 30
0.0
 10
14.4847718244082
 20
-6.137007979790092
 30
0.0
  0
SPLINE
  5
102
330
70
100
AcDbEntity
  8
Layer 1
 62
    18
420
        0
370
     5
100
AcDbSpline
210
0.0
220
0.0
230
1.0
 70
     8
 71
     3
 72
     8
 73
     4
 74
     0
 42
0.0000000001
 43
0.0000000001
 40
0.0
 40
0.0
 40
0.0
 40
0.0
 40
1.0
 40
1.0
 40
1.0
 40
1.0
 10
14.4847718244082
 20
-5.688397608350921
 30
0.0
 10
14.48287146387421
 20
-5.682255407923346
 30
0.0
 10
14.47719177891266
 20
-5.678067352477063
 30
0.0
 10
14.47076231577398
 20
-5.678067352477063
 30
0.0
  0
SPLINE
  5
103
330
70
100
AcDbEntity
  8
Layer 1
 62
    18
420
        0
370
     5
100
AcDbSpline
210
0.0
220
0.0
230
1.0
 70
     8
 71
     3
 72
     8
 73
     4
 74
     0
 42
0.0000000001
 43
0.0000000001
 40
0.0
 40
0.0
 40
0.0
 40
0.0
 40
1.0
 40
1.0
 40
1.0
 40
1.0
 10
8.600903921570823
 20
-4.446902928063056
 30
0.0
 10
8.609003020080939
 20
-4.446902928063056
 30
0.0
 10
8.615568636670406
 20
-4.440337311473588
 30
0.0
 10
8.615568636670406
 20
-4.432238212963473
 30
0.0
  0
SPLINE
  5
104
330
70
100
AcDbEntity
  8
Layer 1
 62
    18
420
        0
370
     5
100
AcDbSpline
210
0.0
220
0.0
230
1.0
 70
     8
 71
     3
 72
     8
 73
     4
 74
     0
 42
0.0000000001
 43
0.0000000001
 40
0.0
 40
0.0
 40
0.0
 40
0.0
 40
1.0
 40
1.0
 40
1.0
 40
1.0
 10
8.571574491371633
 20
-4.446902928063056
 30
0.0
 10
8.563475392861567
 20
-4.446902928063056
 30
0.0
 10
8.556909776272112
 20
-4.45346854465246
 30
0.0
 10
8.556909776272037
 20
-4.461567643162551
 30
0.0
  0
SPLINE
  5
105
330
70
100
AcDbEntity
  8
Layer 1
 62
    18
420
        0
370
     5
100
AcDbSpline
210
0.0
220
0.0
230
1.0
 70
     8
 71
     3
 72
     8
 73
     4
 74
     0
 42
0.0000000001
 43
0.0000000001
 40
0.0
 40
0.0
 40
0.0
 40
0.0
 40
1.0
 40
1.0
 40
1.0
 40
1.0
 10
8.542245061172428
 20
-4.500673550094902
 30
0.0
 10
8.550344159682556
 20
-4.500673550094902
 30
0.0
 10
8.556909776272037
 20
-4.494107933505435
 30
0.0
 10
8.556909776272037
 20
-4.486008834995307
 30
0.0
  0
SPLINE
  5
106
330
70
100
AcDbEntity
  8
Layer 1
 62
    18
420
        0
370
     5
100
AcDbSpline
210
0.0
220
0.0
230
1.0
 70
     8
 71
     3
 72
     8
 73
     4
 74
     0
 42
0.0000000001
 43
0.0000000001
 40
0.0
 40
0.0
 40
0.0
 40
0.0
 40
1.0
 40
1.0
 40
1.0
 40
1.0
 10
8.615568636670406
 20
-3.953190853043502
 30
0.0
 10
8.615568636670406
 20
-3.945091754533399
 30
0.0
 10
8.609003020080939
 20
-3.938526137943931
 30
0.0
 10
8.600903921570823
 20
-3.938526137943931
 30
0.0
  0
SPLINE
  5
107
330
70
100
AcDbEntity
  8
Layer 1
 62
    18
420
        0
370
     5
100
AcDbSpline
210
0.0
220
0.0
230
1.0
 70
     8
 71
     3
 72
     8
 73
     4
 74
     0
 42
0.0000000001
 43
0.0000000001
 40
0.0
 40
0.0
 40
0.0
 40
0.0
 40
1.0
 40
1.0
 40
1.0
 40
1.0
 10
22.83351901028032
 20
-15.64757427315216
 30
0.0
 10
22.66860749157619
 20
-15.08544233242123
 30
0.0
 10
22.15289095802753
 20
-14.69928600136394
 30
0.0
 10
21.56706835024311
 20
-14.69928600133767
 30
0.0
  0
SPLINE
  5
108
330
70
100
AcDbEntity
  8
Layer 1
 62
    18
420
        0
370
     5
100
AcDbSpline
210
0.0
220
0.0
230
1.0
 70
     8
 71
     3
 72
     8
 73
     4
 74
     0
 42
0.0000000001
 43
0.0000000001
 40
0.0
 40
0.0
 40
0.0
 40
0.0
 40
1.0
 40
1.0
 40
1.0
 40
1.0
 10
15.50636241533968
 20
-16.16458202906486
 30
0.0
 10
15.50510637927027
 20
-16.16434900882104
 30
0.0
 10
15.50384994687687
 20
-16.16411812994859
 30
0.0
 10
15.50259312363641
 20
-16.16388939345415
 30
0.0
  0
SPLINE
  5
109
330
70
100
AcDbEntity
  8
Layer 1
 62
    18
420
        0
370
     5
100
AcDbSpline
210
0.0
220
0.0
230
1.0
 70
     8
 71
     3
 72
     8
 73
     4
 74
     0
 42
0.0000000001
 43
0.0000000001
 40
0.0
 40
0.0
 40
0.0
 40
0.0
 40
1.0
 40
1.0
 40
1.0
 40
1.0
 10
15.92124384722537
 20
-15.6769336743902
 30
0.0
 10
15.69892996421193
 20
-15.6769336743803
 30
0.0
 10
15.49350544557407
 20
-15.7955432737405
 30
0.0
 10
15.38235932655814
 20
-15.98807899200652
 30
0.0
  0
SPLINE
  5
10A
330
70
100
AcDbEntity
  8
Layer 1
 62
    18
420
        0
370
     5
100
AcDbSpline
210
0.0
220
0.0
230
1.0
 70
     8
 71
     3
 72
     8
 73
     4
 74
     0
 42
0.0000000001
 43
0.0000000001
 40
0.0
 40
0.0
 40
0.0
 40
0.0
 40
1.0
 40
1.0
 40
1.0
 40
1.0
 10
15.38235932663002
 20
-14.38814068341945
 30
0.0
 10
15.49350544562859
 20
-14.58067640169558
 30
0.0
 10
15.69892996425579
 20
-14.69928600107416
 30
0.0
 10
15.92124384726927
 20
-14.69928600108415
 30
0.0
  0
SPLINE
  5
10B
330
70
100
AcDbEntity
  8
Layer 1
 62
    18
420
        0
370
     5
100
AcDbSpline
210
0.0
220
0.0
230
1.0
 70
     8
 71
     3
 72
     8
 73
     4
 74
     0
 42
0.0000000001
 43
0.0000000001
 40
0.0
 40
0.0
 40
0.0
 40
0.0
 40
1.0
 40
1.0
 40
1.0
 40
1.0
 10
15.98675158056413
 20
-15.67693367439316
 30
0.0
 10
15.77077562029616
 20
-15.67693367438346
 30
0.0
 10
15.59569251123654
 20
-15.85201678342527
 30
0.0
 10
15.59569251122424
 20
-16.06799274369316
 30
0.0
  0
SPLINE
  5
10C
330
70
100
AcDbEntity
  8
Layer 1
 62
    18
420
        0
370
     5
100
AcDbSpline
210
0.0
220
0.0
230
1.0
 70
     8
 71
     3
 72
     8
 73
     4
 74
     0
 42
0.0000000001
 43
0.0000000001
 40
0.0
 40
0.0
 40
0.0
 40
0.0
 40
1.0
 40
1.0
 40
1.0
 40
1.0
 10
15.59569251130324
 20
-14.30822693175201
 30
0.0
 10
15.59569251129611
 20
-14.5242028920198
 30
0.0
 10
15.77077562034007
 20
-14.69928600107742
 30
0.0
 10
15.98675158060801
 20
-14.69928600108713
 30
0.0
  0
SPLINE
  5
10D
330
70
100
AcDbEntity
  8
Layer 1
 62
    18
420
        0
370
     5
100
AcDbSpline
210
0.0
220
0.0
230
1.0
 70
     8
 71
     3
 72
     8
 73
     4
 74
     0
 42
0.0000000001
 43
0.0000000001
 40
0.0
 40
0.0
 40
0.0
 40
0.0
 40
1.0
 40
1.0
 40
1.0
 40
1.0
 10
21.89540741020884
 20
-15.92278618955856
 30
0.0
 10
21.85265257202632
 20
-15.77704827899861
 30
0.0
 10
21.71894828555075
 20
-15.67693367465057
 30
0.0
 10
21.56706835019923
 20
-15.6769336746437
 30
0.0
  0
CIRCLE
  5
10E
330
70
100
AcDbEntity
  8
Layer 1
 62
    18
420
        0
370
     5
100
AcDbCircle
 10
17.00772175523931
 20
-15.18810983778596
 30
0.0
 40
0.2346354415934652
  0
CIRCLE
  5
10F
330
70
100
AcDbEntity
  8
Layer 1
 62
    18
420
        0
370
     5
100
AcDbCircle
 10
17.00772175523931
 20
-15.18810983778595
 30
0.0
 40
0.2243051857212714
  0
SPLINE
  5
110
330
70
100
AcDbEntity
  8
Layer 1
 62
    18
420
        0
370
     5
100
AcDbSpline
210
0.0
220
0.0
230
1.0
 70
     8
 71
     3
 72
     8
 73
     4
 74
     0
 42
0.0000000001
 43
0.0000000001
 40
0.0
 40
0.0
 40
0.0
 40
0.0
 40
1.0
 40
1.0
 40
1.0
 40
1.0
 10
15.35616883134402
 20
-14.2903854346978
 30
0.0
 10
15.3561688313425
 20
-14.32470430967148
 30
0.0
 10
15.36520155977839
 20
-14.35841870135962
 30
0.0
 10
15.38235932658098
 20
-14.38814068342354
 30
0.0
  0
SPLINE
  5
111
330
70
100
AcDbEntity
  8
Layer 1
 62
    18
420
        0
370
     5
100
AcDbSpline
210
0.0
220
0.0
230
1.0
 70
     8
 71
     3
 72
     8
 73
     4
 74
     0
 42
0.0000000001
 43
0.0000000001
 40
0.0
 40
0.0
 40
0.0
 40
0.0
 40
1.0
 40
1.0
 40
1.0
 40
1.0
 10
15.38235932650913
 20
-15.98807899200245
 30
0.0
 10
15.36520155970389
 20
-16.01780097406479
 30
0.0
 10
15.35616883126497
 20
-16.05151536575209
 30
0.0
 10
15.3561688312634
 20
-16.08583424072569
 30
0.0
  0
SPLINE
  5
112
330
70
100
AcDbEntity
  8
Layer 1
 62
    18
420
        0
370
     5
100
AcDbSpline
210
0.0
220
0.0
230
1.0
 70
     8
 71
     3
 72
     8
 73
     4
 74
     0
 42
0.0000000001
 43
0.0000000001
 40
0.0
 40
0.0
 40
0.0
 40
0.0
 40
1.0
 40
1.0
 40
1.0
 40
1.0
 10
15.32195116269655
 20
-16.11198688898447
 30
0.0
 10
15.31115236468306
 20
-16.11198688898404
 30
0.0
 10
15.30239820922998
 20
-16.12074104443617
 30
0.0
 10
15.30239820922949
 20
-16.13153984244971
 30
0.0
  0
SPLINE
  5
113
330
70
100
AcDbEntity
  8
Layer 1
 62
    18
420
        0
370
     5
100
AcDbSpline
210
0.0
220
0.0
230
1.0
 70
     8
 71
     3
 72
     8
 73
     4
 74
     0
 42
0.0000000001
 43
0.0000000001
 40
0.0
 40
0.0
 40
0.0
 40
0.0
 40
1.0
 40
1.0
 40
1.0
 40
1.0
 10
15.30239820931423
 20
-14.24467983296914
 30
0.0
 10
15.30239820931378
 20
-14.25547863098258
 30
0.0
 10
15.311152364766
 20
-14.26423278643564
 30
0.0
 10
15.32195116277956
 20
-14.26423278643602
 30
0.0
  0
SPLINE
  5
114
330
70
100
AcDbEntity
  8
Layer 1
 62
    18
420
        0
370
     5
100
AcDbSpline
210
0.0
220
0.0
230
1.0
 70
     8
 71
     3
 72
     8
 73
     4
 74
     0
 42
0.0000000001
 43
0.0000000001
 40
0.0
 40
0.0
 40
0.0
 40
0.0
 40
1.0
 40
1.0
 40
1.0
 40
1.0
 10
15.30239820931491
 20
-14.23001511786952
 30
0.0
 10
15.30239820931531
 20
-14.21921631985606
 30
0.0
 10
15.29364405386316
 20
-14.21046216440297
 30
0.0
 10
15.28284525584968
 20
-14.21046216440246
 30
0.0
  0
SPLINE
  5
115
330
70
100
AcDbEntity
  8
Layer 1
 62
    18
420
        0
370
     5
100
AcDbSpline
210
0.0
220
0.0
230
1.0
 70
     8
 71
     3
 72
     8
 73
     4
 74
     0
 42
0.0000000001
 43
0.0000000001
 40
0.0
 40
0.0
 40
0.0
 40
0.0
 40
1.0
 40
1.0
 40
1.0
 40
1.0
 10
15.28284525576186
 20
-16.16575751101451
 30
0.0
 10
15.29364405377535
 20
-16.16575751101496
 30
0.0
 10
15.30239820922841
 20
-16.15700335556281
 30
0.0
 10
15.30239820922886
 20
-16.1462045575493
 30
0.0
  0
SPLINE
  5
116
330
70
100
AcDbEntity
  8
Layer 1
 62
    18
420
        0
370
     5
100
AcDbSpline
210
0.0
220
0.0
230
1.0
 70
     8
 71
     3
 72
     8
 73
     4
 74
     0
 42
0.0000000001
 43
0.0000000001
 40
0.0
 40
0.0
 40
0.0
 40
0.0
 40
1.0
 40
1.0
 40
1.0
 40
1.0
 10
15.35616883134432
 20
-14.28378573990365
 30
0.0
 10
15.35616883134483
 20
-14.27298694189022
 30
0.0
 10
15.34741467589265
 20
-14.26423278643725
 30
0.0
 10
15.33661587787911
 20
-14.26423278643675
 30
0.0
  0
SPLINE
  5
117
330
70
100
AcDbEntity
  8
Layer 1
 62
    18
420
        0
370
     5
100
AcDbSpline
210
0.0
220
0.0
230
1.0
 70
     8
 71
     3
 72
     8
 73
     4
 74
     0
 42
0.0000000001
 43
0.0000000001
 40
0.0
 40
0.0
 40
0.0
 40
0.0
 40
1.0
 40
1.0
 40
1.0
 40
1.0
 10
15.33661587779614
 20
-16.11198688898515
 30
0.0
 10
15.34741467580968
 20
-16.11198688898563
 30
0.0
 10
15.35616883126262
 20
-16.10323273353333
 30
0.0
 10
15.3561688312631
 20
-16.09243393551984
 30
0.0
  0
SPLINE
  5
118
330
70
100
AcDbEntity
  8
Layer 1
 62
    18
420
        0
370
     5
100
AcDbSpline
210
0.0
220
0.0
230
1.0
 70
     8
 71
     3
 72
     8
 73
     4
 74
     0
 42
0.0000000001
 43
0.0000000001
 40
0.0
 40
0.0
 40
0.0
 40
0.0
 40
1.0
 40
1.0
 40
1.0
 40
1.0
 10
15.04820981425622
 20
-14.21046216439201
 30
0.0
 10
15.04011071574609
 20
-14.21046216439157
 30
0.0
 10
15.0335450991563
 20
-14.21702778098071
 30
0.0
 10
15.03354509915594
 20
-14.22512687949094
 30
0.0
  0
SPLINE
  5
119
330
70
100
AcDbEntity
  8
Layer 1
 62
    18
420
        0
370
     5
100
AcDbSpline
210
0.0
220
0.0
230
1.0
 70
     8
 71
     3
 72
     8
 73
     4
 74
     0
 42
0.0000000001
 43
0.0000000001
 40
0.0
 40
0.0
 40
0.0
 40
0.0
 40
1.0
 40
1.0
 40
1.0
 40
1.0
 10
15.03354509906946
 20
-16.15109279590372
 30
0.0
 10
15.03354509906904
 20
-16.15919189441383
 30
0.0
 10
15.04011071565833
 20
-16.16575751100357
 30
0.0
 10
15.04820981416843
 20
-16.16575751100395
 30
0.0
  0
SPLINE
  5
11A
330
70
100
AcDbEntity
  8
Layer 1
 62
    18
420
        0
370
     5
100
AcDbSpline
210
0.0
220
0.0
230
1.0
 70
     8
 71
     3
 72
     8
 73
     4
 74
     0
 42
0.0000000001
 43
0.0000000001
 40
0.0
 40
0.0
 40
0.0
 40
0.0
 40
1.0
 40
1.0
 40
1.0
 40
1.0
 10
16.31915178948821
 20
-15.67693367440809
 30
0.0
 10
16.32725088799831
 20
-15.67693367440842
 30
0.0
 10
16.33381650458808
 20
-15.67036805781923
 30
0.0
 10
16.33381650458844
 20
-15.66226895930915
 30
0.0
  0
SPLINE
  5
11B
330
70
100
AcDbEntity
  8
Layer 1
 62
    18
420
        0
370
     5
100
AcDbSpline
210
0.0
220
0.0
230
1.0
 70
     8
 71
     3
 72
     8
 73
     4
 74
     0
 42
0.0000000001
 43
0.0000000001
 40
0.0
 40
0.0
 40
0.0
 40
0.0
 40
1.0
 40
1.0
 40
1.0
 40
1.0
 10
16.33381650463105
 20
-14.71395071620223
 30
0.0
 10
16.33381650463138
 20
-14.70585161769218
 30
0.0
 10
16.32725088804222
 20
-14.69928600110239
 30
0.0
 10
16.31915178953207
 20
-14.69928600110203
 30
0.0
  0
SPLINE
  5
11C
330
70
100
AcDbEntity
  8
Layer 1
 62
    18
420
        0
370
     5
100
AcDbSpline
210
0.0
220
0.0
230
1.0
 70
     8
 71
     3
 72
     8
 73
     4
 74
     0
 42
0.0000000001
 43
0.0000000001
 40
0.0
 40
0.0
 40
0.0
 40
0.0
 40
1.0
 40
1.0
 40
1.0
 40
1.0
 10
22.03447758269406
 20
-16.39683303959992
 30
0.0
 10
22.03675751286005
 20
-16.40460461055532
 30
0.0
 10
22.04490586448577
 20
-16.40905646502101
 30
0.0
 10
22.0526774354411
 20
-16.406776534855
 30
0.0
  0
SPLINE
  5
11D
330
70
100
AcDbEntity
  8
Layer 1
 62
    18
420
        0
370
     5
100
AcDbSpline
210
0.0
220
0.0
230
1.0
 70
     8
 71
     3
 72
     8
 73
     4
 74
     0
 42
0.0000000001
 43
0.0000000001
 40
0.0
 40
0.0
 40
0.0
 40
0.0
 40
1.0
 40
1.0
 40
1.0
 40
1.0
 10
22.96264568753784
 20
-16.13982097600774
 30
0.0
 10
22.9704172584932
 20
-16.13754104584167
 30
0.0
 10
22.97486911295884
 20
-16.12939269421599
 30
0.0
 10
22.97258918279274
 20
-16.12162112326061
 30
0.0
  0
SPLINE
  5
11E
330
70
100
AcDbEntity
  8
Layer 1
 62
    18
420
        0
370
     5
100
AcDbSpline
210
0.0
220
0.0
230
1.0
 70
     8
 71
     3
 72
     8
 73
     4
 74
     0
 42
0.0000000001
 43
0.0000000001
 40
0.0
 40
0.0
 40
0.0
 40
0.0
 40
1.0
 40
1.0
 40
1.0
 40
1.0
 10
15.58102779612282
 20
-16.10709865062962
 30
0.0
 10
15.58912689463295
 20
-16.10709865062995
 30
0.0
 10
15.59569251122277
 20
-16.10053303404073
 30
0.0
 10
15.5956925112231
 20
-16.09243393553058
 30
0.0
  0
SPLINE
  5
11F
330
70
100
AcDbEntity
  8
Layer 1
 62
    18
420
        0
370
     5
100
AcDbSpline
210
0.0
220
0.0
230
1.0
 70
     8
 71
     3
 72
     8
 73
     4
 74
     0
 42
0.0000000001
 43
0.0000000001
 40
0.0
 40
0.0
 40
0.0
 40
0.0
 40
1.0
 40
1.0
 40
1.0
 40
1.0
 10
15.5956925113043
 20
-14.28378573991444
 30
0.0
 10
15.5956925113047
 20
-14.27568664140441
 30
0.0
 10
15.58912689471544
 20
-14.26912102481457
 30
0.0
 10
15.58102779620531
 20
-14.26912102481426
 30
0.0
  0
SPLINE
  5
120
330
70
100
AcDbEntity
  8
Layer 1
 62
    18
420
        0
370
     5
100
AcDbSpline
210
0.0
220
0.0
230
1.0
 70
     8
 71
     3
 72
     8
 73
     4
 74
     0
 42
0.0000000001
 43
0.0000000001
 40
0.0
 40
0.0
 40
0.0
 40
0.0
 40
1.0
 40
1.0
 40
1.0
 40
1.0
 10
15.55658660429021
 20
-16.10709865062851
 30
0.0
 10
15.5484875057801
 20
-16.10709865062813
 30
0.0
 10
15.54192188919033
 20
-16.11366426721724
 30
0.0
 10
15.54192188918995
 20
-16.12176336572747
 30
0.0
  0
SPLINE
  5
121
330
70
100
AcDbEntity
  8
Layer 1
 62
    18
420
        0
370
     5
100
AcDbSpline
210
0.0
220
0.0
230
1.0
 70
     8
 71
     3
 72
     8
 73
     4
 74
     0
 42
0.0000000001
 43
0.0000000001
 40
0.0
 40
0.0
 40
0.0
 40
0.0
 40
1.0
 40
1.0
 40
1.0
 40
1.0
 10
15.54192188927383
 20
-14.25445630971295
 30
0.0
 10
15.54192188927348
 20
-14.26255540822302
 30
0.0
 10
15.54848750586257
 20
-14.26912102481277
 30
0.0
 10
15.55658660437264
 20
-14.26912102481307
 30
0.0
  0
SPLINE
  5
122
330
70
100
AcDbEntity
  8
Layer 1
 62
    18
420
        0
370
     5
100
AcDbSpline
210
0.0
220
0.0
230
1.0
 70
     8
 71
     3
 72
     8
 73
     4
 74
     0
 42
0.0000000001
 43
0.0000000001
 40
0.0
 40
0.0
 40
0.0
 40
0.0
 40
1.0
 40
1.0
 40
1.0
 40
1.0
 10
15.52725717408836
 20
-16.16575751102548
 30
0.0
 10
15.53535627259844
 20
-16.16575751102585
 30
0.0
 10
15.54192188918821
 20
-16.15919189443669
 30
0.0
 10
15.54192188918864
 20
-16.15109279592659
 30
0.0
  0
SPLINE
  5
123
330
70
100
AcDbEntity
  8
Layer 1
 62
    18
420
        0
370
     5
100
AcDbSpline
210
0.0
220
0.0
230
1.0
 70
     8
 71
     3
 72
     8
 73
     4
 74
     0
 42
0.0000000001
 43
0.0000000001
 40
0.0
 40
0.0
 40
0.0
 40
0.0
 40
1.0
 40
1.0
 40
1.0
 40
1.0
 10
15.54192188927507
 20
-14.22512687951376
 30
0.0
 10
15.54192188927545
 20
-14.21702778100361
 30
0.0
 10
15.53535627268626
 20
-14.21046216441386
 30
0.0
 10
15.52725717417615
 20
-14.2104621644134
 30
0.0
  0
SPLINE
  5
124
330
70
100
AcDbEntity
  8
Layer 1
 62
    18
420
        0
370
     5
100
AcDbSpline
210
0.0
220
0.0
230
1.0
 70
     8
 71
     3
 72
    38
 73
    34
 74
     0
 42
0.0000000001
 43
0.0000000001
 40
0.0
 40
0.0
 40
0.0
 40
0.0
 40
1.0
 40
1.0
 40
1.0
 40
2.0
 40
2.0
 40
2.0
 40
3.0
 40
3.0
 40
3.0
 40
4.0
 40
4.0
 40
4.0
 40
5.0
 40
5.0
 40
5.0
 40
6.0
 40
6.0
 40
6.0
 40
7.0
 40
7.0
 40
7.0
 40
8.0
 40
8.0
 40
8.0
 40
9.0
 40
9.0
 40
9.0
 40
10.0
 40
10.0
 40
10.0
 40
11.0
 40
11.0
 40
11.0
 40
11.0
 10
7.637920963364396
 20
-16.17705043296079
 30
0.0
 10
7.653752514062564
 20
-16.17705043237419
 30
0.0
 10
7.669585845171063
 20
-16.17735997795787
 30
0.0
 10
7.685406427699692
 20
-16.17798459232992
 30
0.0
 10
7.70096035912584
 20
-16.17859867901691
 30
0.0
 10
7.716501968097341
 20
-16.17951730322038
 30
0.0
 10
7.732017598430375
 20
-16.18076701306369
 30
0.0
 10
7.746966478772352
 20
-16.18197107390473
 30
0.0
 10
7.761891243692174
 20
-16.18348247456283
 30
0.0
 10
7.776772623277413
 20
-16.18534459669781
 30
0.0
 10
7.79084000144961
 20
-16.18710486200954
 30
0.0
 10
7.804868610774595
 20
-16.18917852970669
 30
0.0
 10
7.818833397933176
 20
-16.19162904490961
 30
0.0
 10
7.831755878323898
 20
-16.19389665803515
 30
0.0
 10
7.844623708148648
 20
-16.19648696358285
 30
0.0
 10
7.857392343490573
 20
-16.19949698285199
 30
0.0
 10
7.863324104197986
 20
-16.200895308793
 30
0.0
 10
7.869234457413186
 20
-16.20238421455224
 30
0.0
 10
7.875116331185836
 20
-16.20397913283707
 30
0.0
 10
7.880669334449887
 20
-16.20548487518797
 30
0.0
 10
7.886196953954645
 20
-16.20708510662285
 30
0.0
 10
7.891689905730812
 20
-16.20879739762636
 30
0.0
 10
7.896838246597313
 20
-16.21040226475578
 30
0.0
 10
7.901956133179232
 20
-16.2121055719658
 30
0.0
 10
7.907031447528424
 20
-16.2139286849571
 30
0.0
 10
7.911750983680702
 20
-16.21562399820868
 30
0.0
 10
7.916433707006009
 20
-16.21742290925668
 30
0.0
 10
7.921063970970887
 20
-16.21934883539971
 30
0.0
 10
7.925335070585459
 20
-16.22112536962537
 30
0.0
 10
7.929561533622075
 20
-16.22300997835186
 30
0.0
 10
7.933723413983013
 20
-16.22503071340697
 30
0.0
 10
7.93752899477695
 20
-16.22687845285372
 30
0.0
 10
7.941280577437989
 20
-16.22884000869961
 30
0.0
 10
7.944947949822903
 20
-16.23094666883596
 30
0.0
  0
SPLINE
  5
125
330
70
100
AcDbEntity
  8
Layer 1
 62
    18
420
        0
370
     5
100
AcDbSpline
210
0.0
220
0.0
230
1.0
 70
     8
 71
     3
 72
    11
 73
     7
 74
     0
 42
0.0000000001
 43
0.0000000001
 40
0.0
 40
0.0
 40
0.0
 40
0.0
 40
1.0
 40
1.0
 40
1.0
 40
2.0
 40
2.0
 40
2.0
 40
2.0
 10
7.944947949822903
 20
-16.23094666883596
 30
0.0
 10
7.948685689865605
 20
-16.23309375040212
 30
0.0
 10
7.952339623461536
 20
-16.23539283929941
 30
0.0
 10
7.955854544476285
 20
-16.23789448365255
 30
0.0
 10
7.958966629782442
 20
-16.2401094212285
 30
0.0
 10
7.961969740320581
 20
-16.2424831461143
 30
0.0
 10
7.964782484100965
 20
-16.24506272483515
 30
0.0
  0
SPLINE
  5
126
330
70
100
AcDbEntity
  8
Layer 1
 62
    18
420
        0
370
     5
100
AcDbSpline
210
0.0
220
0.0
230
1.0
 70
     8
 71
     3
 72
    11
 73
     7
 74
     0
 42
0.0000000001
 43
0.0000000001
 40
0.0
 40
0.0
 40
0.0
 40
0.0
 40
1.0
 40
1.0
 40
1.0
 40
2.0
 40
2.0
 40
2.0
 40
2.0
 10
7.311059442823356
 20
-16.24506272483515
 30
0.0
 10
7.313872172134526
 20
-16.24248315931249
 30
0.0
 10
7.316875266251106
 20
-16.24010944546939
 30
0.0
 10
7.319987334398963
 20
-16.23789451760197
 30
0.0
 10
7.323502234178741
 20
-16.23539288553492
 30
0.0
 10
7.327156145453121
 20
-16.23309380700794
 30
0.0
 10
7.330893862521078
 20
-16.23094673453399
 30
0.0
  0
SPLINE
  5
127
330
70
100
AcDbEntity
  8
Layer 1
 62
    18
420
        0
370
     5
100
AcDbSpline
210
0.0
220
0.0
230
1.0
 70
     8
 71
     3
 72
    38
 73
    34
 74
     0
 42
0.0000000001
 43
0.0000000001
 40
0.0
 40
0.0
 40
0.0
 40
0.0
 40
1.0
 40
1.0
 40
1.0
 40
2.0
 40
2.0
 40
2.0
 40
3.0
 40
3.0
 40
3.0
 40
4.0
 40
4.0
 40
4.0
 40
5.0
 40
5.0
 40
5.0
 40
6.0
 40
6.0
 40
6.0
 40
7.0
 40
7.0
 40
7.0
 40
8.0
 40
8.0
 40
8.0
 40
9.0
 40
9.0
 40
9.0
 40
10.0
 40
10.0
 40
10.0
 40
11.0
 40
11.0
 40
11.0
 40
11.0
 10
7.330893862521078
 20
-16.23094673453399
 30
0.0
 10
7.334561231973098
 20
-16.22884007224671
 30
0.0
 10
7.338312811910011
 20
-16.2268785143364
 30
0.0
 10
7.342118390148205
 20
-16.22503077302276
 30
0.0
 10
7.346280268243263
 20
-16.223010035669
 30
0.0
 10
7.35050672923166
 20
-16.22112542491487
 30
0.0
 10
7.354777826965964
 20
-16.21934888889227
 30
0.0
 10
7.359408089568646
 20
-16.21742296051994
 30
0.0
 10
7.364090811744453
 20
-16.21562404755104
 30
0.0
 10
7.368810346848071
 20
-16.21392873254083
 30
0.0
 10
7.373885660729873
 20
-16.21210561742118
 30
0.0
 10
7.37900354697207
 20
-16.21040230830183
 30
0.0
 10
7.384151887565646
 20
-16.20879743935084
 30
0.0
 10
7.389644839517422
 20
-16.20708514625807
 30
0.0
 10
7.395172459279718
 20
-16.20548491285292
 30
0.0
 10
7.400725462879891
 20
-16.20397916873798
 30
0.0
 10
7.406607337657747
 20
-16.20238424840855
 30
0.0
 10
7.412517691972563
 20
-16.20089534085951
 30
0.0
 10
7.418449453839419
 20
-16.19949701326537
 30
0.0
 10
7.431218093464861
 20
-16.1964869900163
 30
0.0
 10
7.444085927877861
 20
-16.19389668123899
 30
0.0
 10
7.45700841296299
 20
-16.19162906529901
 30
0.0
 10
7.470973206972593
 20
-16.18917854674274
 30
0.0
 10
7.485001823288724
 20
-16.18710487627289
 30
0.0
 10
7.499069208509681
 20
-16.18534460860281
 30
0.0
 10
7.513950597470574
 20
-16.18348248373291
 30
0.0
 10
7.528875371841725
 20
-16.18197108089399
 30
0.0
 10
7.543824261728016
 20
-16.18076701840558
 30
0.0
 10
7.559339903260756
 20
-16.17951730674819
 30
0.0
 10
7.574881523536443
 20
-16.17859868136065
 30
0.0
 10
7.59043546625849
 20
-16.17798459386313
 30
0.0
 10
7.606256059702369
 20
-16.17735997868923
 30
0.0
 10
7.622089401716607
 20
-16.17705043266751
 30
0.0
 10
7.637920963364396
 20
-16.17705043296079
 30
0.0
  0
SPLINE
  5
128
330
70
100
AcDbEntity
  8
Layer 1
 62
    18
420
        0
370
     5
100
AcDbSpline
210
0.0
220
0.0
230
1.0
 70
     8
 71
     3
 72
    68
 73
    64
 74
     0
 42
0.0000000001
 43
0.0000000001
 40
0.0
 40
0.0
 40
0.0
 40
0.0
 40
1.0
 40
1.0
 40
1.0
 40
2.0
 40
2.0
 40
2.0
 40
3.0
 40
3.0
 40
3.0
 40
4.0
 40
4.0
 40
4.0
 40
5.0
 40
5.0
 40
5.0
 40
6.0
 40
6.0
 40
6.0
 40
7.0
 40
7.0
 40
7.0
 40
8.0
 40
8.0
 40
8.0
 40
9.0
 40
9.0
 40
9.0
 40
10.0
 40
10.0
 40
10.0
 40
11.0
 40
11.0
 40
11.0
 40
12.0
 40
12.0
 40
12.0
 40
13.0
 40
13.0
 40
13.0
 40
14.0
 40
14.0
 40
14.0
 40
15.0
 40
15.0
 40
15.0
 40
16.0
 40
16.0
 40
16.0
 40
17.0
 40
17.0
 40
17.0
 40
18.0
 40
18.0
 40
18.0
 40
19.0
 40
19.0
 40
19.0
 40
20.0
 40
20.0
 40
20.0
 40
21.0
 40
21.0
 40
21.0
 40
21.0
 10
7.149097126711378
 20
-16.25922708122428
 30
0.0
 10
7.149097126711378
 20
-16.26224343020238
 30
0.0
 10
7.149357212333976
 20
-16.26526633698672
 30
0.0
 10
7.149871222844555
 20
-16.26824295744624
 30
0.0
 10
7.150379730789735
 20
-16.27118771270362
 30
0.0
 10
7.15113675610904
 20
-16.27408716733692
 30
0.0
 10
7.15211197383241
 20
-16.27691016447412
 30
0.0
 10
7.1530981909186
 20
-16.27976500185496
 30
0.0
 10
7.154307550097263
 20
-16.28254164730371
 30
0.0
 10
7.155697073512795
 20
-16.28522319696541
 30
0.0
 10
7.157123728975445
 20
-16.28797640531755
 30
0.0
 10
7.158740306341542
 20
-16.29062936750973
 30
0.0
 10
7.16050626068991
 20
-16.29317744605512
 30
0.0
 10
7.162341191032219
 20
-16.29582504939875
 30
0.0
 10
7.1643373952049
 20
-16.29835941583517
 30
0.0
 10
7.166456762027778
 20
-16.30078474041523
 30
0.0
 10
7.168680384614023
 20
-16.30332937141396
 30
0.0
 10
7.171039585104343
 20
-16.30575396873104
 30
0.0
 10
7.173498650292003
 20
-16.30807131121828
 30
0.0
 10
7.176092583615488
 20
-16.31051574901923
 30
0.0
 10
7.178797636245816
 20
-16.31284084452338
 30
0.0
 10
7.181583109600524
 20
-16.31506387675937
 30
0.0
 10
7.184527515017331
 20
-16.31741374959029
 30
0.0
 10
7.18756178017875
 20
-16.31964957993685
 30
0.0
 10
7.190662965598877
 20
-16.32178851590333
 30
0.0
 10
7.197414077209562
 20
-16.32644486290701
 30
0.0
 10
7.204482330060259
 20
-16.33064201856276
 30
0.0
 10
7.211721481278155
 20
-16.33449886422133
 30
0.0
 10
7.215660225077372
 20
-16.33659733218608
 30
0.0
 10
7.219649560437737
 20
-16.3385950571517
 30
0.0
 10
7.223679499952393
 20
-16.34050801772555
 30
0.0
 10
7.227936915652712
 20
-16.34252895832567
 30
0.0
 10
7.232239648809732
 20
-16.34445529514149
 30
0.0
 10
7.236576256972019
 20
-16.34630181435091
 30
0.0
 10
7.245947407754164
 20
-16.35029203188641
 30
0.0
 10
7.255476743375298
 20
-16.35390952814514
 30
0.0
 10
7.265101430883482
 20
-16.35724502800463
 30
0.0
 10
7.275657359047221
 20
-16.3609032555446
 30
0.0
 10
7.2863279833685
 20
-16.36422227738616
 30
0.0
 10
7.297073149913785
 20
-16.36727587060325
 30
0.0
 10
7.308716185519251
 20
-16.37058462290603
 30
0.0
 10
7.320446741363613
 20
-16.37358173469965
 30
0.0
 10
7.332234824858018
 20
-16.37632846341797
 30
0.0
 10
7.344856342769806
 20
-16.37926938979783
 30
0.0
 10
7.3575438104694
 20
-16.38192327662889
 30
0.0
 10
7.370276247613256
 20
-16.38433740236726
 30
0.0
 10
7.383759689371951
 20
-16.38689392186347
 30
0.0
 10
7.397293561943229
 20
-16.38918156219241
 30
0.0
 10
7.410861988545156
 20
-16.39123895113387
 30
0.0
 10
7.425075992778538
 20
-16.39339422941205
 30
0.0
 10
7.439327917386233
 20
-16.39529682461302
 30
0.0
 10
7.453606042205832
 20
-16.39697434419258
 30
0.0
 10
7.468415602887969
 20
-16.39871430152761
 30
0.0
 10
7.483253350437141
 20
-16.40021211667562
 30
0.0
 10
7.498109869524101
 20
-16.40148993347631
 30
0.0
 10
7.51337789474164
 20
-16.40280314412972
 30
0.0
 10
7.528665745792927
 20
-16.40388400031659
 30
0.0
 10
7.543965741673773
 20
-16.40474638638099
 30
0.0
 10
7.559547179439227
 20
-16.40562463595024
 30
0.0
 10
7.575141212949599
 20
-16.40627630400094
 30
0.0
 10
7.590741467183079
 20
-16.40671168335305
 30
0.0
 10
7.606464042151578
 20
-16.40715047649069
 30
0.0
 10
7.622192935778368
 20
-16.40736957581677
 30
0.0
 10
7.637920963462154
 20
-16.40736957581677
 30
0.0
  0
SPLINE
  5
129
330
70
100
AcDbEntity
  8
Layer 1
 62
    18
420
        0
370
     5
100
AcDbSpline
210
0.0
220
0.0
230
1.0
 70
     8
 71
     3
 72
    68
 73
    64
 74
     0
 42
0.0000000001
 43
0.0000000001
 40
0.0
 40
0.0
 40
0.0
 40
0.0
 40
1.0
 40
1.0
 40
1.0
 40
2.0
 40
2.0
 40
2.0
 40
3.0
 40
3.0
 40
3.0
 40
4.0
 40
4.0
 40
4.0
 40
5.0
 40
5.0
 40
5.0
 40
6.0
 40
6.0
 40
6.0
 40
7.0
 40
7.0
 40
7.0
 40
8.0
 40
8.0
 40
8.0
 40
9.0
 40
9.0
 40
9.0
 40
10.0
 40
10.0
 40
10.0
 40
11.0
 40
11.0
 40
11.0
 40
12.0
 40
12.0
 40
12.0
 40
13.0
 40
13.0
 40
13.0
 40
14.0
 40
14.0
 40
14.0
 40
15.0
 40
15.0
 40
15.0
 40
16.0
 40
16.0
 40
16.0
 40
17.0
 40
17.0
 40
17.0
 40
18.0
 40
18.0
 40
18.0
 40
19.0
 40
19.0
 40
19.0
 40
20.0
 40
20.0
 40
20.0
 40
21.0
 40
21.0
 40
21.0
 40
21.0
 10
7.637920963462154
 20
-16.40736957581677
 30
0.0
 10
7.653649004833002
 20
-16.40736957581677
 30
0.0
 10
7.669377912031954
 20
-16.40715047373462
 30
0.0
 10
7.685100500579172
 20
-16.40671167915232
 30
0.0
 10
7.700700795202275
 20
-16.40627629761568
 30
0.0
 10
7.716294869087264
 20
-16.40562462792521
 30
0.0
 10
7.731876347171692
 20
-16.40474637543287
 30
0.0
 10
7.747176383684315
 20
-16.40388398643952
 30
0.0
 10
7.762464275312039
 20
-16.40280312605657
 30
0.0
 10
7.777732340918001
 20
-16.40148990969502
 30
0.0
 10
7.792588880486353
 20
-16.40021208895844
 30
0.0
 10
7.807426648386454
 20
-16.39871426900014
 30
0.0
 10
7.822236229233137
 20
-16.39697430529112
 30
0.0
 10
7.836514361750005
 20
-16.39529678094603
 30
0.0
 10
7.85076629392477
 20
-16.39339417989635
 30
0.0
 10
7.864980305302183
 20
-16.39123889428869
 30
0.0
 10
7.878548741947787
 20
-16.38918149786175
 30
0.0
 10
7.892082624160821
 20
-16.38689384858867
 30
0.0
 10
7.905566075980345
 20
-16.38433732239665
 30
0.0
 10
7.918298517500867
 20
-16.38192319130684
 30
0.0
 10
7.930985989986967
 20
-16.37926930132216
 30
0.0
 10
7.943607511746019
 20
-16.37632836874736
 30
0.0
 10
7.955395586692348
 20
-16.37358163707229
 30
0.0
 10
7.967126133287883
 20
-16.37058452018482
 30
0.0
 10
7.978769160693357
 20
-16.36727576616127
 30
0.0
 10
7.989514315195947
 20
-16.36422217262773
 30
0.0
 10
8.000184928429916
 20
-16.36090315356361
 30
0.0
 10
8.010740841040348
 20
-16.35724491690747
 30
0.0
 10
8.020365517407981
 20
-16.35390940768224
 30
0.0
 10
8.029894838115499
 20
-16.35029189199182
 30
0.0
 10
8.039265973054813
 20
-16.34630165607341
 30
0.0
 10
8.043602587077947
 20
-16.34445512273979
 30
0.0
 10
8.047905325690761
 20
-16.34252877153888
 30
0.0
 10
8.052162750956943
 20
-16.34050782590227
 30
0.0
 10
8.056192676222735
 20
-16.33859487162297
 30
0.0
 10
8.060182001486484
 20
-16.33659716230836
 30
0.0
 10
8.064120737421388
 20
-16.33449871159046
 30
0.0
 10
8.071359831512406
 20
-16.33064192036507
 30
0.0
 10
8.078428036791731
 20
-16.32644482854466
 30
0.0
 10
8.085179063015036
 20
-16.32178849414001
 30
0.0
 10
8.088280214158581
 20
-16.31964956054889
 30
0.0
 10
8.091314436850362
 20
-16.31741372145724
 30
0.0
 10
8.09425880629308
 20
-16.31506385023602
 30
0.0
 10
8.097044272731384
 20
-16.31284079788201
 30
0.0
 10
8.099749322692861
 20
-16.31051568954005
 30
0.0
 10
8.102343259814498
 20
-16.3080712458463
 30
0.0
 10
8.104802341704422
 20
-16.30575388542623
 30
0.0
 10
8.107161563644922
 20
-16.30332927527514
 30
0.0
 10
8.109385209867911
 20
-16.30078463190019
 30
0.0
 10
8.111504595409744
 20
-16.29835929988361
 30
0.0
 10
8.113500820730539
 20
-16.29582492681859
 30
0.0
 10
8.115335760506354
 20
-16.29317730860288
 30
0.0
 10
8.117101711894671
 20
-16.29062923311539
 30
0.0
 10
8.118718277487118
 20
-16.28797626777587
 30
0.0
 10
8.120144920447716
 20
-16.28522305739205
 30
0.0
 10
8.121534430886502
 20
-16.28254150729554
 30
0.0
 10
8.122743776604945
 20
-16.27976486257997
 30
0.0
 10
8.123729984025505
 20
-16.27691002799022
 30
0.0
 10
8.124705189788818
 20
-16.27408704056658
 30
0.0
 10
8.125462207933498
 20
-16.27118759803597
 30
0.0
 10
8.125970711995098
 20
-16.26824285534535
 30
0.0
 10
8.126484715000666
 20
-16.26526626831691
 30
0.0
 10
8.126744800017426
 20
-16.26224339608244
 30
0.0
 10
8.126744800017426
 20
-16.25922708122428
 30
0.0
  0
SPLINE
  5
12A
330
70
100
AcDbEntity
  8
Layer 1
 62
    18
420
        0
370
     5
100
AcDbSpline
210
0.0
220
0.0
230
1.0
 70
     8
 71
     3
 72
   131
 73
   127
 74
     0
 42
0.0000000001
 43
0.0000000001
 40
0.0
 40
0.0
 40
0.0
 40
0.0
 40
1.0
 40
1.0
 40
1.0
 40
2.0
 40
2.0
 40
2.0
 40
3.0
 40
3.0
 40
3.0
 40
4.0
 40
4.0
 40
4.0
 40
5.0
 40
5.0
 40
5.0
 40
6.0
 40
6.0
 40
6.0
 40
7.0
 40
7.0
 40
7.0
 40
8.0
 40
8.0
 40
8.0
 40
9.0
 40
9.0
 40
9.0
 40
10.0
 40
10.0
 40
10.0
 40
11.0
 40
11.0
 40
11.0
 40
12.0
 40
12.0
 40
12.0
 40
13.0
 40
13.0
 40
13.0
 40
14.0
 40
14.0
 40
14.0
 40
15.0
 40
15.0
 40
15.0
 40
16.0
 40
16.0
 40
16.0
 40
17.0
 40
17.0
 40
17.0
 40
18.0
 40
18.0
 40
18.0
 40
19.0
 40
19.0
 40
19.0
 40
20.0
 40
20.0
 40
20.0
 40
21.0
 40
21.0
 40
21.0
 40
22.0
 40
22.0
 40
22.0
 40
23.0
 40
23.0
 40
23.0
 40
24.0
 40
24.0
 40
24.0
 40
25.0
 40
25.0
 40
25.0
 40
26.0
 40
26.0
 40
26.0
 40
27.0
 40
27.0
 40
27.0
 40
28.0
 40
28.0
 40
28.0
 40
29.0
 40
29.0
 40
29.0
 40
30.0
 40
30.0
 40
30.0
 40
31.0
 40
31.0
 40
31.0
 40
32.0
 40
32.0
 40
32.0
 40
33.0
 40
33.0
 40
33.0
 40
34.0
 40
34.0
 40
34.0
 40
35.0
 40
35.0
 40
35.0
 40
36.0
 40
36.0
 40
36.0
 40
37.0
 40
37.0
 40
37.0
 40
38.0
 40
38.0
 40
38.0
 40
39.0
 40
39.0
 40
39.0
 40
40.0
 40
40.0
 40
40.0
 40
41.0
 40
41.0
 40
41.0
 40
42.0
 40
42.0
 40
42.0
 40
42.0
 10
7.637920963364396
 20
-16.13982097575229
 30
0.0
 10
7.622437726144097
 20
-16.13982097575229
 30
0.0
 10
7.60695365064675
 20
-16.14003531692747
 30
0.0
 10
7.591475706744959
 20
-16.14046429732795
 30
0.0
 10
7.576116534578797
 20
-16.14088998589934
 30
0.0
 10
7.560763400266219
 20
-16.14152703221887
 30
0.0
 10
7.54542249204015
 20
-16.14238559599776
 30
0.0
 10
7.530359079127593
 20
-16.14322862957329
 30
0.0
 10
7.515307453996633
 20
-16.14428523921343
 30
0.0
 10
7.500275066157895
 20
-16.1455688990383
 30
0.0
 10
7.485651604195608
 20
-16.14681763947952
 30
0.0
 10
7.471046347137517
 20
-16.14828124523584
 30
0.0
 10
7.456468401598511
 20
-16.14998126588615
 30
0.0
 10
7.442419355423996
 20
-16.15161960844605
 30
0.0
 10
7.428395674951628
 20
-16.15347752245412
 30
0.0
 10
7.414408738421646
 20
-16.15558207845866
 30
0.0
 10
7.401065606678533
 20
-16.15758976384205
 30
0.0
 10
7.387755914151688
 20
-16.15982190840284
 30
0.0
 10
7.374494909473987
 20
-16.16231596608375
 30
0.0
 10
7.361986315331186
 20
-16.16466851448081
 30
0.0
 10
7.34952104081809
 20
-16.16725409801061
 30
0.0
 10
7.337119546231469
 20
-16.1701190539171
 30
0.0
 10
7.325562107506938
 20
-16.17278901858195
 30
0.0
 10
7.314060062327143
 20
-16.17570162112853
 30
0.0
 10
7.302641454233657
 20
-16.17891570983983
 30
0.0
 10
7.292141124586173
 20
-16.1818713232306
 30
0.0
 10
7.281711351703935
 20
-16.18508188186807
 30
0.0
 10
7.271392939649406
 20
-16.18862123838734
 30
0.0
 10
7.262043466650879
 20
-16.19182823555272
 30
0.0
 10
7.252785422022914
 20
-16.1953051791184
 30
0.0
 10
7.243674155023439
 20
-16.19914252230991
 30
0.0
 10
7.235551955135368
 20
-16.20256330543947
 30
0.0
 10
7.227546395826088
 20
-16.206270489306
 30
0.0
 10
7.219751037256539
 20
-16.2103775907279
 30
0.0
 10
7.216215264807955
 20
-16.21224046540146
 30
0.0
 10
7.212722736837664
 20
-16.21418561488561
 30
0.0
 10
7.209288542285851
 20
-16.21622967690915
 30
0.0
 10
7.206087973120247
 20
-16.21813468310102
 30
0.0
 10
7.202938070590865
 20
-16.22012560172132
 30
0.0
 10
7.199857222449685
 20
-16.22221908157507
 30
0.0
 10
7.196997618641717
 20
-16.22416222277757
 30
0.0
 10
7.194197507362812
 20
-16.226193723711
 30
0.0
 10
7.191479942846727
 20
-16.22833135815701
 30
0.0
 10
7.188966449009171
 20
-16.23030847074248
 30
0.0
 10
7.186523570009979
 20
-16.23237637551144
 30
0.0
 10
7.184179442890719
 20
-16.23455204848101
 30
0.0
 10
7.182015717008956
 20
-16.23656028424415
 30
0.0
 10
7.179936128226105
 20
-16.23866033905685
 30
0.0
 10
7.177973779107484
 20
-16.24086626529237
 30
0.0
 10
7.176161379441484
 20
-16.24290362955879
 30
0.0
 10
7.174448986675125
 20
-16.24503130347264
 30
0.0
 10
7.172875037272988
 20
-16.24725857378262
 30
0.0
 10
7.171415303116051
 20
-16.24932421994877
 30
0.0
 10
7.170074648774035
 20
-16.25147553234013
 30
0.0
 10
7.168894914942748
 20
-16.25371350356004
 30
0.0
 10
7.167790504518241
 20
-16.25580858524656
 30
0.0
 10
7.1668271217632
 20
-16.25797961307926
 30
0.0
 10
7.166045104848244
 20
-16.26021558420633
 30
0.0
 10
7.165301122891301
 20
-16.26234280440199
 30
0.0
 10
7.164721293624514
 20
-16.26452880422491
 30
0.0
 10
7.16433446349932
 20
-16.26674926127523
 30
0.0
 10
7.163957922017882
 20
-16.26891066012371
 30
0.0
 10
7.163764249689986
 20
-16.27110470763561
 30
0.0
 10
7.16376424967383
 20
-16.2732987551475
 30
0.0
 10
7.163764249657699
 20
-16.27549280265937
 30
0.0
 10
7.163957921953295
 20
-16.27768685017124
 30
0.0
 10
7.164334463416935
 20
-16.27984824901434
 30
0.0
 10
7.164721293523888
 20
-16.28206870605934
 30
0.0
 10
7.165301122787758
 20
-16.28425470587113
 30
0.0
 10
7.166045104737715
 20
-16.2863819260668
 30
0.0
 10
7.166827121656612
 20
-16.28861789722656
 30
0.0
 10
7.167790504416378
 20
-16.29078892510225
 30
0.0
 10
7.168894914861412
 20
-16.29288400681642
 30
0.0
 10
7.170074648713542
 20
-16.29512197806361
 30
0.0
 10
7.171415303094097
 20
-16.29727329046482
 30
0.0
 10
7.172875037279115
 20
-16.29933893664441
 30
0.0
 10
7.174448986690056
 20
-16.30156620693853
 30
0.0
 10
7.17616137944924
 20
-16.30369388084353
 30
0.0
 10
7.17797377910065
 20
-16.30573124512332
 30
0.0
 10
7.179936128203494
 20
-16.30793717137335
 30
0.0
 10
7.182015716961877
 20
-16.31003722622669
 30
0.0
 10
7.184179442828634
 20
-16.31204546202035
 30
0.0
 10
7.186523569906411
 20
-16.31422113499947
 30
0.0
 10
7.188966448872974
 20
-16.31628903976851
 30
0.0
 10
7.191479942686694
 20
-16.3182661523443
 30
0.0
 10
7.194197507152213
 20
-16.32040378676015
 30
0.0
 10
7.196997618389205
 20
-16.32243528765421
 30
0.0
 10
7.199857222145914
 20
-16.3243784288415
 30
0.0
 10
7.202938070236187
 20
-16.32647190868179
 30
0.0
 10
7.206087972703926
 20
-16.32846282731639
 30
0.0
 10
7.209288541812825
 20
-16.33036783349151
 30
0.0
 10
7.212722736396774
 20
-16.33241189555254
 30
0.0
 10
7.216215264408055
 20
-16.3343570450331
 30
0.0
 10
7.21975103689158
 20
-16.33621991969858
 30
0.0
 10
7.227546395653663
 20
-16.34032702116327
 30
0.0
 10
7.235551955132386
 20
-16.34403420503791
 30
0.0
 10
7.243674155219789
 20
-16.34745498820628
 30
0.0
 10
7.252785422451349
 20
-16.35129233144491
 30
0.0
 10
7.262043467349244
 20
-16.35476927509555
 30
0.0
 10
7.271392940582282
 20
-16.35797627236348
 30
0.0
 10
7.281711352481983
 20
-16.36151562885422
 30
0.0
 10
7.292141125157386
 20
-16.36472618751099
 30
0.0
 10
7.302641454615745
 20
-16.3676818008884
 30
0.0
 10
7.314060062253461
 20
-16.37089588951481
 30
0.0
 10
7.325562106994816
 20
-16.37380849195117
 30
0.0
 10
7.337119545286655
 20
-16.37647845649624
 30
0.0
 10
7.349521039708646
 20
-16.37934341234343
 30
0.0
 10
7.36198631406685
 20
-16.38192899578926
 30
0.0
 10
7.374494908033132
 20
-16.38428154415679
 30
0.0
 10
7.387755913074291
 20
-16.38677560190985
 30
0.0
 10
7.401065605944254
 20
-16.38900774658219
 30
0.0
 10
7.414408738053199
 20
-16.39101543204747
 30
0.0
 10
7.428395675832196
 20
-16.39311998826795
 30
0.0
 10
7.442419357582921
 20
-16.39497790242894
 30
0.0
 10
7.456468405044081
 20
-16.39661624502471
 30
0.0
 10
7.471046352246124
 20
-16.39831626575038
 30
0.0
 10
7.48565161097733
 20
-16.39977987144551
 30
0.0
 10
7.500275074590881
 20
-16.40102861197973
 30
0.0
 10
7.515307462369086
 20
-16.40231227175016
 30
0.0
 10
7.53035908741194
 20
-16.40336888155212
 30
0.0
 10
7.545422500259455
 20
-16.4042119151676
 30
0.0
 10
7.560763406773553
 20
-16.40507047889514
 30
0.0
 10
7.576116539395368
 20
-16.40570752508438
 30
0.0
 10
7.591475709835624
 20
-16.40613321349575
 30
0.0
 10
7.606953652698494
 20
-16.4065621937545
 30
0.0
 10
7.622437727121741
 20
-16.40677653473813
 30
0.0
 10
7.637920963364396
 20
-16.40677653473813
 30
0.0
  0
SPLINE
  5
12B
330
70
100
AcDbEntity
  8
Layer 1
 62
    18
420
        0
370
     5
100
AcDbSpline
210
0.0
220
0.0
230
1.0
 70
     8
 71
     3
 72
   131
 73
   127
 74
     0
 42
0.0000000001
 43
0.0000000001
 40
0.0
 40
0.0
 40
0.0
 40
0.0
 40
1.0
 40
1.0
 40
1.0
 40
2.0
 40
2.0
 40
2.0
 40
3.0
 40
3.0
 40
3.0
 40
4.0
 40
4.0
 40
4.0
 40
5.0
 40
5.0
 40
5.0
 40
6.0
 40
6.0
 40
6.0
 40
7.0
 40
7.0
 40
7.0
 40
8.0
 40
8.0
 40
8.0
 40
9.0
 40
9.0
 40
9.0
 40
10.0
 40
10.0
 40
10.0
 40
11.0
 40
11.0
 40
11.0
 40
12.0
 40
12.0
 40
12.0
 40
13.0
 40
13.0
 40
13.0
 40
14.0
 40
14.0
 40
14.0
 40
15.0
 40
15.0
 40
15.0
 40
16.0
 40
16.0
 40
16.0
 40
17.0
 40
17.0
 40
17.0
 40
18.0
 40
18.0
 40
18.0
 40
19.0
 40
19.0
 40
19.0
 40
20.0
 40
20.0
 40
20.0
 40
21.0
 40
21.0
 40
21.0
 40
22.0
 40
22.0
 40
22.0
 40
23.0
 40
23.0
 40
23.0
 40
24.0
 40
24.0
 40
24.0
 40
25.0
 40
25.0
 40
25.0
 40
26.0
 40
26.0
 40
26.0
 40
27.0
 40
27.0
 40
27.0
 40
28.0
 40
28.0
 40
28.0
 40
29.0
 40
29.0
 40
29.0
 40
30.0
 40
30.0
 40
30.0
 40
31.0
 40
31.0
 40
31.0
 40
32.0
 40
32.0
 40
32.0
 40
33.0
 40
33.0
 40
33.0
 40
34.0
 40
34.0
 40
34.0
 40
35.0
 40
35.0
 40
35.0
 40
36.0
 40
36.0
 40
36.0
 40
37.0
 40
37.0
 40
37.0
 40
38.0
 40
38.0
 40
38.0
 40
39.0
 40
39.0
 40
39.0
 40
40.0
 40
40.0
 40
40.0
 40
41.0
 40
41.0
 40
41.0
 40
42.0
 40
42.0
 40
42.0
 40
42.0
 10
7.637920963364396
 20
-16.40677653473813
 30
0.0
 10
7.653404200584695
 20
-16.40677653473813
 30
0.0
 10
7.66888827608203
 20
-16.40656219356308
 30
0.0
 10
7.684366219983795
 20
-16.4061332131625
 30
0.0
 10
7.699725392150007
 20
-16.40570752459105
 30
0.0
 10
7.71507852646256
 20
-16.40507047827155
 30
0.0
 10
7.730419434688605
 20
-16.40421191450946
 30
0.0
 10
7.745482847601199
 20
-16.40336888095044
 30
0.0
 10
7.760534472732147
 20
-16.40231227134296
 30
0.0
 10
7.775566860570872
 20
-16.4010286115172
 30
0.0
 10
7.790190322533147
 20
-16.39977987107515
 30
0.0
 10
7.804795579591225
 20
-16.39831626528603
 30
0.0
 10
7.819373525147561
 20
-16.39661624461976
 30
0.0
 10
7.833422571338713
 20
-16.3949779020443
 30
0.0
 10
7.847446251843721
 20
-16.39311998803631
 30
0.0
 10
7.861433188372138
 20
-16.39101543203178
 30
0.0
 10
7.874776320113735
 20
-16.3890077466484
 30
0.0
 10
7.888086012607926
 20
-16.3867756020876
 30
0.0
 10
7.901347017269762
 20
-16.38428154442456
 30
0.0
 10
7.91385561139758
 20
-16.38192899604425
 30
0.0
 10
7.92632088591069
 20
-16.37934341254721
 30
0.0
 10
7.938722380497311
 20
-16.37647845663827
 30
0.0
 10
7.950279819221842
 20
-16.37380849197123
 30
0.0
 10
7.96178186440165
 20
-16.370895889392
 30
0.0
 10
7.973200472495136
 20
-16.36768180066507
 30
0.0
 10
7.983700802142619
 20
-16.36472618725992
 30
0.0
 10
7.994130575024857
 20
-16.3615156286224
 30
0.0
 10
8.004448987079387
 20
-16.35797627210306
 30
0.0
 10
8.01379846007785
 20
-16.35476927493775
 30
0.0
 10
8.023056504705827
 20
-16.35129233137207
 30
0.0
 10
8.03216777170534
 20
-16.34745498820297
 30
0.0
 10
8.040289971593425
 20
-16.34403420509354
 30
0.0
 10
8.048295530902692
 20
-16.34032702126503
 30
0.0
 10
8.056090889472253
 20
-16.33621991985488
 30
0.0
 10
8.059626661920825
 20
-16.33435704518668
 30
0.0
 10
8.063119189891128
 20
-16.33241189570251
 30
0.0
 10
8.066553384442967
 20
-16.33036783366095
 30
0.0
 10
8.069753953608508
 20
-16.32846282745226
 30
0.0
 10
8.072903856137916
 20
-16.3264719087993
 30
0.0
 10
8.075984704279083
 20
-16.3243784289298
 30
0.0
 10
8.078844308087051
 20
-16.3224352877128
 30
0.0
 10
8.08164441936598
 20
-16.32040378677938
 30
0.0
 10
8.084361983900356
 20
-16.31826615233351
 30
0.0
 10
8.086875477754789
 20
-16.31628903974792
 30
0.0
 10
8.089318356786533
 20
-16.3142211349789
 30
0.0
 10
8.091662483903064
 20
-16.31204546200951
 30
0.0
 10
8.09382620978239
 20
-16.31003722624624
 30
0.0
 10
8.095905798532701
 20
-16.30793717143357
 30
0.0
 10
8.097868147654025
 20
-16.30573124519808
 30
0.0
 10
8.099680547322464
 20
-16.30369388093176
 30
0.0
 10
8.101392940121311
 20
-16.30156620701783
 30
0.0
 10
8.102966889539036
 20
-16.29933893670775
 30
0.0
 10
8.104426623710512
 20
-16.29727329054165
 30
0.0
 10
8.105767278052502
 20
-16.29512197815029
 30
0.0
 10
8.106947011865941
 20
-16.29288400693041
 30
0.0
 10
8.10805142227371
 20
-16.29078892524386
 30
0.0
 10
8.109014804996364
 20
-16.28861789741113
 30
0.0
 10
8.109796821912974
 20
-16.28638192628404
 30
0.0
 10
8.110540803871446
 20
-16.28425470608838
 30
0.0
 10
8.111120633170584
 20
-16.28206870626551
 30
0.0
 10
8.11150746329493
 20
-16.27984824921509
 30
0.0
 10
8.111884004775472
 20
-16.27768685036671
 30
0.0
 10
8.112077677071093
 20
-16.27549280285486
 30
0.0
 10
8.112077677071093
 20
-16.27329875534299
 30
0.0
 10
8.112077677071093
 20
-16.27110470783107
 30
0.0
 10
8.111884004775472
 20
-16.26891066031918
 30
0.0
 10
8.111507463311845
 20
-16.26674926147608
 30
0.0
 10
8.111120633204892
 20
-16.26452880443121
 30
0.0
 10
8.110540803941022
 20
-16.26234280461934
 30
0.0
 10
8.109796821991089
 20
-16.26021558442358
 30
0.0
 10
8.109014805072142
 20
-16.25797961326389
 30
0.0
 10
8.108051422312364
 20
-16.25580858538812
 30
0.0
 10
8.106947011867342
 20
-16.25371350367401
 30
0.0
 10
8.105767278015251
 20
-16.25147553242676
 30
0.0
 10
8.104426623634669
 20
-16.2493242200256
 30
0.0
 10
8.102966889449678
 20
-16.24725857384601
 30
0.0
 10
8.101392940038724
 20
-16.24503130355184
 30
0.0
 10
8.09968054727954
 20
-16.24290362964684
 30
0.0
 10
8.097868147628117
 20
-16.2408662653815
 30
0.0
 10
8.095905798525297
 20
-16.23866033914709
 30
0.0
 10
8.093826209766877
 20
-16.23656028432631
 30
0.0
 10
8.091662483900158
 20
-16.23455204854948
 30
0.0
 10
8.089318356822381
 20
-16.2323763755887
 30
0.0
 10
8.086875477855818
 20
-16.23030847081978
 30
0.0
 10
8.084361984042111
 20
-16.22833135822947
 30
0.0
 10
8.081644419576566
 20
-16.2261937237979
 30
0.0
 10
8.078844308339537
 20
-16.22416222287127
 30
0.0
 10
8.075984704597431
 20
-16.22221908168163
 30
0.0
 10
8.07290385652282
 20
-16.22012560183889
 30
0.0
 10
8.06975395408766
 20
-16.21813468323686
 30
0.0
 10
8.066553384995636
 20
-16.21622967707852
 30
0.0
 10
8.063119190429814
 20
-16.2141856150357
 30
0.0
 10
8.05962666241847
 20
-16.21224046555504
 30
0.0
 10
8.056090889929578
 20
-16.21037759088964
 30
0.0
 10
8.04829553115567
 20
-16.20627048942495
 30
0.0
 10
8.040289971638962
 20
-16.2025633055503
 30
0.0
 10
8.032167771545244
 20
-16.19914252238186
 30
0.0
 10
8.023056504306534
 20
-16.19530517914331
 30
0.0
 10
8.013798459441305
 20
-16.1918282354927
 30
0.0
 10
8.004448986211286
 20
-16.18862123821059
 30
0.0
 10
7.994130574314946
 20
-16.18508188170436
 30
0.0
 10
7.983700801606901
 20
-16.18187132301498
 30
0.0
 10
7.973200472131502
 20
-16.17891570962054
 30
0.0
 10
7.961781864475319
 20
-16.17570162097561
 30
0.0
 10
7.950279819733964
 20
-16.17278901853936
 30
0.0
 10
7.938722381442137
 20
-16.17011905399416
 30
0.0
 10
7.926320887020109
 20
-16.16725409814701
 30
0.0
 10
7.913855612661891
 20
-16.16466851470118
 30
0.0
 10
7.901347018695648
 20
-16.16231596634866
 30
0.0
 10
7.888086013654501
 20
-16.15982190861139
 30
0.0
 10
7.874776320784538
 20
-16.15758976397175
 30
0.0
 10
7.861433188675593
 20
-16.15558207852321
 30
0.0
 10
7.847446250896609
 20
-16.15347752232024
 30
0.0
 10
7.833422569145858
 20
-16.15161960815926
 30
0.0
 10
7.819373521684686
 20
-16.14998126554802
 30
0.0
 10
7.804795574482656
 20
-16.14828124480628
 30
0.0
 10
7.790190315751449
 20
-16.14681763907856
 30
0.0
 10
7.775566852137899
 20
-16.14556889854346
 30
0.0
 10
7.760534464359706
 20
-16.14428523877207
 30
0.0
 10
7.74548283931684
 20
-16.1432286290027
 30
0.0
 10
7.730419426469337
 20
-16.14238559538785
 30
0.0
 10
7.715078519955239
 20
-16.14152703166097
 30
0.0
 10
7.699725387333412
 20
-16.14088998543901
 30
0.0
 10
7.684366216893193
 20
-16.1404642970112
 30
0.0
 10
7.668888274030273
 20
-16.14003531673595
 30
0.0
 10
7.653404199607014
 20
-16.13982097575229
 30
0.0
 10
7.637920963364396
 20
-16.13982097575229
 30
0.0
  0
SPLINE
  5
12C
330
70
100
AcDbEntity
  8
Layer 1
 62
    18
420
        0
370
     5
100
AcDbSpline
210
0.0
220
0.0
230
1.0
 70
     8
 71
     3
 72
    77
 73
    73
 74
     0
 42
0.0000000001
 43
0.0000000001
 40
0.0
 40
0.0
 40
0.0
 40
0.0
 40
1.0
 40
1.0
 40
1.0
 40
2.0
 40
2.0
 40
2.0
 40
3.0
 40
3.0
 40
3.0
 40
4.0
 40
4.0
 40
4.0
 40
5.0
 40
5.0
 40
5.0
 40
6.0
 40
6.0
 40
6.0
 40
7.0
 40
7.0
 40
7.0
 40
8.0
 40
8.0
 40
8.0
 40
9.0
 40
9.0
 40
9.0
 40
10.0
 40
10.0
 40
10.0
 40
11.0
 40
11.0
 40
11.0
 40
12.0
 40
12.0
 40
12.0
 40
13.0
 40
13.0
 40
13.0
 40
14.0
 40
14.0
 40
14.0
 40
15.0
 40
15.0
 40
15.0
 40
16.0
 40
16.0
 40
16.0
 40
17.0
 40
17.0
 40
17.0
 40
18.0
 40
18.0
 40
18.0
 40
19.0
 40
19.0
 40
19.0
 40
20.0
 40
20.0
 40
20.0
 40
21.0
 40
21.0
 40
21.0
 40
22.0
 40
22.0
 40
22.0
 40
23.0
 40
23.0
 40
23.0
 40
24.0
 40
24.0
 40
24.0
 40
24.0
 10
7.637920963364396
 20
-16.3695470776274
 30
0.0
 10
7.624855723559183
 20
-16.36954707801843
 30
0.0
 10
7.611789514336249
 20
-16.36933548183813
 30
0.0
 10
7.598730401540187
 20
-16.36891125100417
 30
0.0
 10
7.585812887086754
 20
-16.36849162005266
 30
0.0
 10
7.572902316003149
 20
-16.36786394059084
 30
0.0
 10
7.560006091165695
 20
-16.36701470105764
 30
0.0
 10
7.547431187416034
 20
-16.36618662109428
 30
0.0
 10
7.534869923919371
 20
-16.36514788425299
 30
0.0
 10
7.522331562995367
 20
-16.36387996312189
 30
0.0
 10
7.510260331093073
 20
-16.36265927964483
 30
0.0
 10
7.498210327036467
 20
-16.36122617074251
 30
0.0
 10
7.486193678764366
 20
-16.35955082334521
 30
0.0
 10
7.474778483387113
 20
-16.3579593298246
 30
0.0
 10
7.463393388333062
 20
-16.35614923982684
 30
0.0
 10
7.452054339079697
 20
-16.35408213378751
 30
0.0
 10
7.441442339332966
 20
-16.35214756870391
 30
0.0
 10
7.430870669863464
 20
-16.34998789018848
 30
0.0
 10
7.420363213973031
 20
-16.34754820601847
 30
0.0
 10
7.410692994897961
 20
-16.34530291651711
 30
0.0
 10
7.401077163981072
 20
-16.34282046546766
 30
0.0
 10
7.391547589008432
 20
-16.34003333695386
 30
0.0
 10
7.382936698981741
 20
-16.33751489754917
 30
0.0
 10
7.374396235771503
 20
-16.33474769309959
 30
0.0
 10
7.365982040818392
 20
-16.3316384563366
 30
0.0
 10
7.362134535175085
 20
-16.33021671533121
 30
0.0
 10
7.358313430969448
 20
-16.32872345876841
 30
0.0
 10
7.354527777224284
 20
-16.32714446560701
 30
0.0
 10
7.350986386219497
 20
-16.32566735423991
 30
0.0
 10
7.347476018505491
 20
-16.32411521334183
 30
0.0
 10
7.344008021848063
 20
-16.32247284775831
 30
0.0
 10
7.340782945533393
 20
-16.32094552381118
 30
0.0
 10
7.337594512296542
 20
-16.31934017230363
 30
0.0
 10
7.334457445069333
 20
-16.31763910814311
 30
0.0
 10
7.331558352220895
 20
-16.31606708478969
 30
0.0
 10
7.32870312783632
 20
-16.31441331930593
 30
0.0
 10
7.325910475836179
 20
-16.31265878460767
 30
0.0
 10
7.32334480287256
 20
-16.31104685364062
 30
0.0
 10
7.320831944224941
 20
-16.30934986826535
 30
0.0
 10
7.31839539473276
 20
-16.30754824347769
 30
0.0
 10
7.316167804221095
 20
-16.30590112639861
 30
0.0
 10
7.314003995527021
 20
-16.30416654809859
 30
0.0
 10
7.311933982536528
 20
-16.30232472721523
 30
0.0
 10
7.310047997624362
 20
-16.30064664769932
 30
0.0
 10
7.308239872502895
 20
-16.2988795461413
 30
0.0
 10
7.306547708434183
 20
-16.29700552020186
 30
0.0
 10
7.305006477266058
 20
-16.29529864836768
 30
0.0
 10
7.303561443374708
 20
-16.29350307576661
 30
0.0
 10
7.302257593709428
 20
-16.29160793583082
 30
0.0
 10
7.301062991052579
 20
-16.28987158595656
 30
0.0
 10
7.299986904697346
 20
-16.28805165484507
 30
0.0
 10
7.29907722818023
 20
-16.28614976568506
 30
0.0
 10
7.298231255468029
 20
-16.2843810640633
 30
0.0
 10
7.29752920162563
 20
-16.28254148135743
 30
0.0
 10
7.29701408380601
 20
-16.28064919515282
 30
0.0
 10
7.296522712494606
 20
-16.27884414178712
 30
0.0
 10
7.29620143927597
 20
-16.27699113209665
 30
0.0
 10
7.296075450145785
 20
-16.27512442143524
 30
0.0
 10
7.295951030608344
 20
-16.27328096655497
 30
0.0
 10
7.296017059707486
 20
-16.27142414995493
 30
0.0
 10
7.296267886120782
 20
-16.26959364171236
 30
0.0
 10
7.296525081485494
 20
-16.26771665344477
 30
0.0
 10
7.296976578010141
 20
-16.26586732653355
 30
0.0
 10
7.2975895569319
 20
-16.26407505308571
 30
0.0
 10
7.298238508426909
 20
-16.26217760034754
 30
0.0
 10
7.2990684515891
 20
-16.2603440939073
 30
0.0
 10
7.300033260562776
 20
-16.25858685289502
 30
0.0
 10
7.301077161028906
 20
-16.2566855597253
 30
0.0
 10
7.302278945227397
 20
-16.25487354841493
 30
0.0
 10
7.303591707872897
 20
-16.25314723826222
 30
0.0
 10
7.305028723947493
 20
-16.25125753226873
 30
0.0
 10
7.306598720985536
 20
-16.24947051848994
 30
0.0
 10
7.30825654913657
 20
-16.24777433810059
 30
0.0
  0
SPLINE
  5
12D
330
70
100
AcDbEntity
  8
Layer 1
 62
    18
420
        0
370
     5
100
AcDbSpline
210
0.0
220
0.0
230
1.0
 70
     8
 71
     3
 72
    77
 73
    73
 74
     0
 42
0.0000000001
 43
0.0000000001
 40
0.0
 40
0.0
 40
0.0
 40
0.0
 40
1.0
 40
1.0
 40
1.0
 40
2.0
 40
2.0
 40
2.0
 40
3.0
 40
3.0
 40
3.0
 40
4.0
 40
4.0
 40
4.0
 40
5.0
 40
5.0
 40
5.0
 40
6.0
 40
6.0
 40
6.0
 40
7.0
 40
7.0
 40
7.0
 40
8.0
 40
8.0
 40
8.0
 40
9.0
 40
9.0
 40
9.0
 40
10.0
 40
10.0
 40
10.0
 40
11.0
 40
11.0
 40
11.0
 40
12.0
 40
12.0
 40
12.0
 40
13.0
 40
13.0
 40
13.0
 40
14.0
 40
14.0
 40
14.0
 40
15.0
 40
15.0
 40
15.0
 40
16.0
 40
16.0
 40
16.0
 40
17.0
 40
17.0
 40
17.0
 40
18.0
 40
18.0
 40
18.0
 40
19.0
 40
19.0
 40
19.0
 40
20.0
 40
20.0
 40
20.0
 40
21.0
 40
21.0
 40
21.0
 40
22.0
 40
22.0
 40
22.0
 40
23.0
 40
23.0
 40
23.0
 40
24.0
 40
24.0
 40
24.0
 40
24.0
 10
7.967585319226612
 20
-16.24777427807299
 30
0.0
 10
7.969243151679329
 20
-16.2494704586579
 30
0.0
 10
7.970813153123849
 20
-16.25125747276466
 30
0.0
 10
7.972250173851925
 20
-16.25314717919526
 30
0.0
 10
7.973562940636914
 20
-16.25487348960056
 30
0.0
 10
7.974764729199868
 20
-16.25668550124012
 30
0.0
 10
7.975808634243662
 20
-16.25858679497022
 30
0.0
 10
7.976773447285583
 20
-16.26034403620418
 30
0.0
 10
7.977603394743608
 20
-16.26217754303795
 30
0.0
 10
7.978252350604861
 20
-16.26407499654727
 30
0.0
 10
7.978865333456901
 20
-16.26586727015673
 30
0.0
 10
7.979316834076749
 20
-16.26771659753058
 30
0.0
 10
7.979574033311816
 20
-16.26959358670804
 30
0.0
 10
7.97982486340873
 20
-16.27142409517453
 30
0.0
 10
7.979890896111631
 20
-16.27328091240472
 30
0.0
 10
7.979766480024636
 20
-16.27512436827869
 30
0.0
 10
7.979640494431968
 20
-16.27699107930127
 30
0.0
 10
7.979319224728643
 20
-16.278844089735
 30
0.0
 10
7.978827856630434
 20
-16.28064914407352
 30
0.0
 10
7.978312742323169
 20
-16.28254143076982
 30
0.0
 10
7.977610691765549
 20
-16.28438101424912
 30
0.0
 10
7.976764721983108
 20
-16.28614971677416
 30
0.0
 10
7.975855048750164
 20
-16.28805160662573
 30
0.0
 10
7.974778965317568
 20
-16.28987153860311
 30
0.0
 10
7.973584365226315
 20
-16.29160788929645
 30
0.0
 10
7.97228051838086
 20
-16.29350303009778
 30
0.0
 10
7.970835486888189
 20
-16.29529860351158
 30
0.0
 10
7.969294257947037
 20
-16.29700547615243
 30
0.0
 10
7.967602096349499
 20
-16.29887950294854
 30
0.0
 10
7.965793973495679
 20
-16.30064660535928
 30
0.0
 10
7.963907990687427
 20
-16.30232468568596
 30
0.0
 10
7.961837979952987
 20
-16.30416650750665
 30
0.0
 10
7.959674173312931
 20
-16.30590108668816
 30
0.0
 10
7.957446584688113
 20
-16.30754820457044
 30
0.0
 10
7.955010037093832
 20
-16.3093498303594
 30
0.0
 10
7.95249718013368
 20
-16.31104681662807
 30
0.0
 10
7.949931508742754
 20
-16.3126587483714
 30
0.0
 10
7.947138858211928
 20
-16.31441328406701
 30
0.0
 10
7.944283635149733
 20
-16.31606705039187
 30
0.0
 10
7.941384543563609
 20
-16.31763907454739
 30
0.0
 10
7.938247477610805
 20
-16.31934013962533
 30
0.0
 10
7.935059045575004
 20
-16.3209454919989
 30
0.0
 10
7.931833970415431
 20
-16.32247281673524
 30
0.0
 10
7.928365974829476
 20
-16.32411518324822
 30
0.0
 10
7.924855608129733
 20
-16.32566732497796
 30
0.0
 10
7.921314218067979
 20
-16.32714443709649
 30
0.0
 10
7.917528565059304
 20
-16.32872343117464
 30
0.0
 10
7.913707461503703
 20
-16.33021668855036
 30
0.0
 10
7.909859956469467
 20
-16.33163843031105
 30
0.0
 10
7.901445762155945
 20
-16.33474766898199
 30
0.0
 10
7.892905299368597
 20
-16.33751487500833
 30
0.0
 10
7.884294409674995
 20
-16.34003331584995
 30
0.0
 10
7.874764834245246
 20
-16.34282044619542
 30
0.0
 10
7.865149002746293
 20
-16.34530289885267
 30
0.0
 10
7.855478783019862
 20
-16.3475481897109
 30
0.0
 10
7.84497132535009
 20
-16.34998787560405
 30
0.0
 10
7.834399654006321
 20
-16.35214755548941
 30
0.0
 10
7.823787652357863
 20
-16.35408212188625
 30
0.0
 10
7.812448600498391
 20
-16.35614922943354
 30
0.0
 10
7.801063502802271
 20
-16.35795932084862
 30
0.0
 10
7.789648304722908
 20
-16.35955081552222
 30
0.0
 10
7.777631652650281
 20
-16.3612261642666
 30
0.0
 10
7.7655816447213
 20
-16.36265927418453
 30
0.0
 10
7.753510408926179
 20
-16.36387995857717
 30
0.0
 10
7.740972043083438
 20
-16.36514788074787
 30
0.0
 10
7.728410774642851
 20
-16.36618661848911
 30
0.0
 10
7.715835865937075
 20
-16.36701469906893
 30
0.0
 10
7.702939635770576
 20
-16.36786393925065
 30
0.0
 10
7.690029059344611
 20
-16.36849161905441
 30
0.0
 10
7.677111539528507
 20
-16.3689112502962
 30
0.0
 10
7.664052421967716
 20
-16.36933548140221
 30
0.0
 10
7.65098620796007
 20
-16.36954707782287
 30
0.0
 10
7.637920963364396
 20
-16.3695470776274
 30
0.0
  0
SPLINE
  5
12E
330
70
100
AcDbEntity
  8
Layer 1
 62
    18
420
        0
370
     5
100
AcDbSpline
210
0.0
220
0.0
230
1.0
 70
     8
 71
     3
 72
    68
 73
    64
 74
     0
 42
0.0000000001
 43
0.0000000001
 40
0.0
 40
0.0
 40
0.0
 40
0.0
 40
1.0
 40
1.0
 40
1.0
 40
2.0
 40
2.0
 40
2.0
 40
3.0
 40
3.0
 40
3.0
 40
4.0
 40
4.0
 40
4.0
 40
5.0
 40
5.0
 40
5.0
 40
6.0
 40
6.0
 40
6.0
 40
7.0
 40
7.0
 40
7.0
 40
8.0
 40
8.0
 40
8.0
 40
9.0
 40
9.0
 40
9.0
 40
10.0
 40
10.0
 40
10.0
 40
11.0
 40
11.0
 40
11.0
 40
12.0
 40
12.0
 40
12.0
 40
13.0
 40
13.0
 40
13.0
 40
14.0
 40
14.0
 40
14.0
 40
15.0
 40
15.0
 40
15.0
 40
16.0
 40
16.0
 40
16.0
 40
17.0
 40
17.0
 40
17.0
 40
18.0
 40
18.0
 40
18.0
 40
19.0
 40
19.0
 40
19.0
 40
20.0
 40
20.0
 40
20.0
 40
21.0
 40
21.0
 40
21.0
 40
21.0
 10
7.637920963364396
 20
-16.1216211230346
 30
0.0
 10
7.621958620907435
 20
-16.1216211230346
 30
0.0
 10
7.605995414586547
 20
-16.12184214182512
 30
0.0
 10
7.590038529874984
 20
-16.12228442085191
 30
0.0
 10
7.574203849567285
 20
-16.12272331272351
 30
0.0
 10
7.558375394412703
 20
-16.12338008880417
 30
0.0
 10
7.542559542164806
 20
-16.12426522407966
 30
0.0
 10
7.527030049285144
 20
-16.12513433323311
 30
0.0
 10
7.511512707071156
 20
-16.12622360717003
 30
0.0
 10
7.496015201744575
 20
-16.12754700335302
 30
0.0
 10
7.480939665683763
 20
-16.12883436583218
 30
0.0
 10
7.465882900971248
 20
-16.13034327467231
 30
0.0
 10
7.450854290756865
 20
-16.13209588895589
 30
0.0
 10
7.436370907194322
 20
-16.13378491971406
 30
0.0
 10
7.421913672338405
 20
-16.13570029377713
 30
0.0
 10
7.407494319519249
 20
-16.1378699438513
 30
0.0
 10
7.393738565811808
 20
-16.13993974354508
 30
0.0
 10
7.380017287603815
 20
-16.14224095351232
 30
0.0
 10
7.366346197284428
 20
-16.14481214741441
 30
0.0
 10
7.353450767339697
 20
-16.14723745878781
 30
0.0
 10
7.340599991796478
 20
-16.14990298690221
 30
0.0
 10
7.327814977018634
 20
-16.15285656135741
 30
0.0
 10
7.315900199112711
 20
-16.15560909502856
 30
0.0
 10
7.304042534380451
 20
-16.1586117967228
 30
0.0
 10
7.29227088101201
 20
-16.16192528425959
 30
0.0
 10
7.281445881085523
 20
-16.16497230758071
 30
0.0
 10
7.270693615031063
 20
-16.16828214103167
 30
0.0
 10
7.260056160159542
 20
-16.17193095717789
 30
0.0
 10
7.250417609068512
 20
-16.17523713344579
 30
0.0
 10
7.24087331901982
 20
-16.17882161763982
 30
0.0
 10
7.231480338388159
 20
-16.18277762706182
 30
0.0
 10
7.223106984874624
 20
-16.18630420362913
 30
0.0
 10
7.214853873850377
 20
-16.19012602367262
 30
0.0
 10
7.206817468990745
 20
-16.1943601382981
 30
0.0
 10
7.203172369898437
 20
-16.19628061986264
 30
0.0
 10
7.199571853502257
 20
-16.19828592229103
 30
0.0
 10
7.196031475979843
 20
-16.20039319812448
 30
0.0
 10
7.192731951142427
 20
-16.20235711550552
 30
0.0
 10
7.189484660985739
 20
-16.20440960368811
 30
0.0
 10
7.186308561020571
 20
-16.20656782386332
 30
0.0
 10
7.183360543520215
 20
-16.20857105767709
 30
0.0
 10
7.180473858700944
 20
-16.2106653830646
 30
0.0
 10
7.177672269284293
 20
-16.21286911951766
 30
0.0
 10
7.175081054541439
 20
-16.21490737478532
 30
0.0
 10
7.172562635197916
 20
-16.21703922643971
 30
0.0
 10
7.1701460232643
 20
-16.2192821777576
 30
0.0
 10
7.167915392188547
 20
-16.22135251302393
 30
0.0
 10
7.165771501439469
 20
-16.22351750565472
 30
0.0
 10
7.163748477439222
 20
-16.22579165460386
 30
0.0
 10
7.161880040219746
 20
-16.22789202738186
 30
0.0
 10
7.160114703742035
 20
-16.23008551176831
 30
0.0
 10
7.15849209229768
 20
-16.23238163862063
 30
0.0
 10
7.156987226561922
 20
-16.23451114574153
 30
0.0
 10
7.155605123571312
 20
-16.23672893920282
 30
0.0
 10
7.154388914430366
 20
-16.23903618034122
 30
0.0
 10
7.153250356271288
 20
-16.24119611166773
 30
0.0
 10
7.152257184651337
 20
-16.24343443341212
 30
0.0
 10
7.151450985731078
 20
-16.24573933025916
 30
0.0
 10
7.150683997623294
 20
-16.24793212465124
 30
0.0
 10
7.150086237052997
 20
-16.25018517565129
 30
0.0
 10
7.149687444359705
 20
-16.2524750528881
 30
0.0
 10
7.149299258497308
 20
-16.25470402544685
 30
0.0
 10
7.149099597227063
 20
-16.25696789133298
 30
0.0
 10
7.149099597227063
 20
-16.25922708122428
 30
0.0
  0
SPLINE
  5
12F
330
70
100
AcDbEntity
  8
Layer 1
 62
    18
420
        0
370
     5
100
AcDbSpline
210
0.0
220
0.0
230
1.0
 70
     8
 71
     3
 72
    68
 73
    64
 74
     0
 42
0.0000000001
 43
0.0000000001
 40
0.0
 40
0.0
 40
0.0
 40
0.0
 40
1.0
 40
1.0
 40
1.0
 40
2.0
 40
2.0
 40
2.0
 40
3.0
 40
3.0
 40
3.0
 40
4.0
 40
4.0
 40
4.0
 40
5.0
 40
5.0
 40
5.0
 40
6.0
 40
6.0
 40
6.0
 40
7.0
 40
7.0
 40
7.0
 40
8.0
 40
8.0
 40
8.0
 40
9.0
 40
9.0
 40
9.0
 40
10.0
 40
10.0
 40
10.0
 40
11.0
 40
11.0
 40
11.0
 40
12.0
 40
12.0
 40
12.0
 40
13.0
 40
13.0
 40
13.0
 40
14.0
 40
14.0
 40
14.0
 40
15.0
 40
15.0
 40
15.0
 40
16.0
 40
16.0
 40
16.0
 40
17.0
 40
17.0
 40
17.0
 40
18.0
 40
18.0
 40
18.0
 40
19.0
 40
19.0
 40
19.0
 40
20.0
 40
20.0
 40
20.0
 40
21.0
 40
21.0
 40
21.0
 40
21.0
 10
8.126742329501716
 20
-16.25922708122428
 30
0.0
 10
8.126742329501716
 20
-16.25696789133298
 30
0.0
 10
8.126542668231484
 20
-16.25470402544685
 30
0.0
 10
8.126154482369075
 20
-16.2524750528881
 30
0.0
 10
8.12575568967577
 20
-16.25018517565129
 30
0.0
 10
8.125157929105499
 20
-16.24793212465124
 30
0.0
 10
8.124390940997727
 20
-16.24573933025916
 30
0.0
 10
8.123584742077417
 20
-16.24343443341212
 30
0.0
 10
8.12259157045749
 20
-16.24119611166773
 30
0.0
 10
8.121453012298438
 20
-16.23903618032651
 30
0.0
 10
8.120236803157428
 20
-16.23672893917243
 30
0.0
 10
8.118854700166883
 20
-16.23451114567875
 30
0.0
 10
8.117349834432742
 20
-16.2323816385576
 30
0.0
 10
8.115727222990168
 20
-16.23008551170492
 30
0.0
 10
8.113961886516158
 20
-16.22789202735553
 30
0.0
 10
8.112093449300761
 20
-16.22579165459842
 30
0.0
 10
8.11007042529315
 20
-16.22351750565856
 30
0.0
 10
8.107926534535774
 20
-16.22135251301941
 30
0.0
 10
8.105695903448905
 20
-16.21928217774345
 30
0.0
 10
8.103279291517347
 20
-16.21703922642826
 30
0.0
 10
8.100760872173799
 20
-16.21490737477385
 30
0.0
 10
8.098169657416304
 20
-16.2128691195064
 30
0.0
 10
8.095368067997709
 20
-16.2106653830646
 30
0.0
 10
8.092481383160222
 20
-16.20857105768747
 30
0.0
 10
8.089533365672512
 20
-16.20656782388328
 30
0.0
 10
8.086357265690505
 20
-16.20440960369761
 30
0.0
 10
8.083109975551412
 20
-16.20235711550552
 30
0.0
 10
8.079810450706569
 20
-16.20039319811654
 30
0.0
 10
8.076270073192493
 20
-16.19828592228436
 30
0.0
 10
8.072669556776467
 20
-16.19628061985807
 30
0.0
 10
8.069024457671325
 20
-16.19436013829537
 30
0.0
 10
8.0609880527835
 20
-16.19012602367386
 30
0.0
 10
8.052734941765454
 20
-16.18630420363332
 30
0.0
 10
8.044361588257718
 20
-16.18277762706811
 30
0.0
 10
8.034968607616139
 20
-16.17882161764158
 30
0.0
 10
8.025424317556408
 20
-16.17523713344349
 30
0.0
 10
8.015785766453847
 20
-16.1719309571719
 30
0.0
 10
8.005148311588135
 20
-16.168282141028
 30
0.0
 10
7.994396045539335
 20
-16.16497230757891
 30
0.0
 10
7.983571045615765
 20
-16.16192528425863
 30
0.0
 10
7.971799392250595
 20
-16.1586117967228
 30
0.0
 10
7.959941727518285
 20
-16.15560909502856
 30
0.0
 10
7.948026949620257
 20
-16.152856561359
 30
0.0
 10
7.935241934850737
 20
-16.14990298690557
 30
0.0
 10
7.922391159324913
 20
-16.14723745879483
 30
0.0
 10
7.909495729382278
 20
-16.14481214740918
 30
0.0
 10
7.895824639012882
 20
-16.14224095348433
 30
0.0
 10
7.882103360737333
 20
-16.13993974347845
 30
0.0
 10
7.86834760696249
 20
-16.13786994376306
 30
0.0
 10
7.853928254127784
 20
-16.13570029367464
 30
0.0
 10
7.83947101925681
 20
-16.13378491961394
 30
0.0
 10
7.824987635693711
 20
-16.13209588887144
 30
0.0
 10
7.80995902547867
 20
-16.13034327460438
 30
0.0
 10
7.794902260781175
 20
-16.12883436579507
 30
0.0
 10
7.779826724729483
 20
-16.12754700331531
 30
0.0
 10
7.764329219465164
 20
-16.12622360713622
 30
0.0
 10
7.748811877307351
 20
-16.12513433316826
 30
0.0
 10
7.733282384483837
 20
-16.12426522401539
 30
0.0
 10
7.717466532274492
 20
-16.12338008873957
 30
0.0
 10
7.701638077158374
 20
-16.12272331269178
 30
0.0
 10
7.685803396903123
 20
-16.12228442083662
 30
0.0
 10
7.669846512208727
 20
-16.12184214182545
 30
0.0
 10
7.653883305919116
 20
-16.1216211230346
 30
0.0
 10
7.637920963364396
 20
-16.1216211230346
 30
0.0
  0
SPLINE
  5
130
330
70
100
AcDbEntity
  8
Layer 1
 62
    18
420
        0
370
     5
100
AcDbSpline
210
0.0
220
0.0
230
1.0
 70
     8
 71
     3
 72
    29
 73
    25
 74
     0
 42
0.0000000001
 43
0.0000000001
 40
0.0
 40
0.0
 40
0.0
 40
0.0
 40
1.0
 40
1.0
 40
1.0
 40
2.0
 40
2.0
 40
2.0
 40
3.0
 40
3.0
 40
3.0
 40
4.0
 40
4.0
 40
4.0
 40
5.0
 40
5.0
 40
5.0
 40
6.0
 40
6.0
 40
6.0
 40
7.0
 40
7.0
 40
7.0
 40
8.0
 40
8.0
 40
8.0
 40
8.0
 10
14.51542183624961
 20
-5.912702794070481
 30
0.0
 10
14.51542183624961
 20
-5.922749671823289
 30
0.0
 10
14.51525542551823
 20
-5.932797334236308
 30
0.0
 10
14.51492296920878
 20
-5.942839298587765
 30
0.0
 10
14.51459239687935
 20
-5.952824356637379
 30
0.0
 10
14.51409765555056
 20
-5.96280378102262
 30
0.0
 10
14.51343536673445
 20
-5.972772186870138
 30
0.0
 10
14.51278059349329
 20
-5.982627472432037
 30
0.0
 10
14.51196205380696
 20
-5.992471988111471
 30
0.0
 10
14.51097252698992
 20
-6.002299389924574
 30
0.0
 10
14.50999997316649
 20
-6.01195822588953
 30
0.0
 10
14.50886224766557
 20
-6.021600530048923
 30
0.0
 10
14.50754794798225
 20
-6.031218838854353
 30
0.0
 10
14.50626392632598
 20
-6.040615566982902
 30
0.0
 10
14.50481137239025
 20
-6.049989392603101
 30
0.0
 10
14.50317934069262
 20
-6.059332062589368
 30
0.0
 10
14.50159428558615
 20
-6.06840581207128
 30
0.0
 10
14.49983993623363
 20
-6.077450173680795
 30
0.0
 10
14.49790126752732
 20
-6.086454981760021
 30
0.0
 10
14.4960300310706
 20
-6.095146577754816
 30
0.0
 10
14.49398707453515
 20
-6.103801323927793
 30
0.0
 10
14.4917525037026
 20
-6.112407114624425
 30
0.0
 10
14.48960996878976
 20
-6.120658456112929
 30
0.0
 10
14.48729127867447
 20
-6.128864791764347
 30
0.0
 10
14.48477182440567
 20
-6.137007979791784
 30
0.0
  0
SPLINE
  5
131
330
70
100
AcDbEntity
  8
Layer 1
 62
    18
420
        0
370
     5
100
AcDbSpline
210
0.0
220
0.0
230
1.0
 70
     8
 71
     3
 72
    29
 73
    25
 74
     0
 42
0.0000000001
 43
0.0000000001
 40
0.0
 40
0.0
 40
0.0
 40
0.0
 40
1.0
 40
1.0
 40
1.0
 40
2.0
 40
2.0
 40
2.0
 40
3.0
 40
3.0
 40
3.0
 40
4.0
 40
4.0
 40
4.0
 40
5.0
 40
5.0
 40
5.0
 40
6.0
 40
6.0
 40
6.0
 40
7.0
 40
7.0
 40
7.0
 40
8.0
 40
8.0
 40
8.0
 40
8.0
 10
14.51542183624961
 20
-5.912702794070481
 30
0.0
 10
14.51542183624961
 20
-5.902655916219954
 30
0.0
 10
14.51525542551823
 20
-5.892608253806959
 30
0.0
 10
14.51492296920878
 20
-5.882566289455477
 30
0.0
 10
14.51459239687935
 20
-5.872581231405875
 30
0.0
 10
14.51409765555056
 20
-5.862601807020622
 30
0.0
 10
14.51343536673445
 20
-5.852633401173116
 30
0.0
 10
14.51278059349329
 20
-5.842778115611192
 30
0.0
 10
14.51196205380696
 20
-5.832933599931796
 30
0.0
 10
14.51097252698992
 20
-5.823106198118668
 30
0.0
 10
14.50999997316649
 20
-5.813447362153712
 30
0.0
 10
14.50886224766557
 20
-5.803805057994395
 30
0.0
 10
14.50754794798225
 20
-5.794186749188889
 30
0.0
 10
14.50626392632598
 20
-5.784790021060353
 30
0.0
 10
14.50481137239025
 20
-5.775416195440154
 30
0.0
 10
14.50317934069262
 20
-5.766073525470927
 30
0.0
 10
14.50159428558615
 20
-5.756999776005588
 30
0.0
 10
14.49983993623363
 20
-5.747955414428714
 30
0.0
 10
14.49790126752732
 20
-5.738950606348288
 30
0.0
 10
14.4960300310706
 20
-5.730259010352407
 30
0.0
 10
14.49398707453515
 20
-5.72160426414675
 30
0.0
 10
14.4917525037026
 20
-5.712998473434177
 30
0.0
 10
14.48960996878976
 20
-5.7047471319303
 30
0.0
 10
14.48729127867447
 20
-5.696540796278908
 30
0.0
 10
14.48477182440567
 20
-5.688397608349254
 30
0.0
  0
SPLINE
  5
132
330
70
100
AcDbEntity
  8
Layer 1
 62
    18
420
        0
370
     5
100
AcDbSpline
210
0.0
220
0.0
230
1.0
 70
     8
 71
     3
 72
    29
 73
    25
 74
     0
 42
0.0000000001
 43
0.0000000001
 40
0.0
 40
0.0
 40
0.0
 40
0.0
 40
1.0
 40
1.0
 40
1.0
 40
2.0
 40
2.0
 40
2.0
 40
3.0
 40
3.0
 40
3.0
 40
4.0
 40
4.0
 40
4.0
 40
5.0
 40
5.0
 40
5.0
 40
6.0
 40
6.0
 40
6.0
 40
7.0
 40
7.0
 40
7.0
 40
8.0
 40
8.0
 40
8.0
 40
8.0
 10
0.760420090479114
 20
-5.912702794070481
 30
0.0
 10
0.760420090479114
 20
-5.922749671823289
 30
0.0
 10
0.7605865012106076
 20
-5.932797334236308
 30
0.0
 10
0.76091895751991
 20
-5.942839298587765
 30
0.0
 10
0.7612495298493639
 20
-5.952824356637379
 30
0.0
 10
0.7617442711782207
 20
-5.96280378102262
 30
0.0
 10
0.7624065600108957
 20
-5.972772186870138
 30
0.0
 10
0.7630613332685496
 20
-5.982627472432037
 30
0.0
 10
0.7638798729874199
 20
-5.992471988111471
 30
0.0
 10
0.7648693998039057
 20
-6.002299389924574
 30
0.0
 10
0.7658419536268816
 20
-6.01195822588953
 30
0.0
 10
0.766979679095079
 20
-6.021600530048923
 30
0.0
 10
0.768293978762257
 20
-6.031218838854353
 30
0.0
 10
0.7695780004027786
 20
-6.040615566982902
 30
0.0
 10
0.771030554338558
 20
-6.049989392603101
 30
0.0
 10
0.7726625860361259
 20
-6.059332062589368
 30
0.0
 10
0.7742476411426398
 20
-6.06840581207128
 30
0.0
 10
0.7760019904951605
 20
-6.077450173680795
 30
0.0
 10
0.7779406592186686
 20
-6.086454981760021
 30
0.0
 10
0.77981189569194
 20
-6.095146577754816
 30
0.0
 10
0.7818548522601406
 20
-6.103801323927793
 30
0.0
 10
0.7840894230831989
 20
-6.112407114624425
 30
0.0
 10
0.7862319579868679
 20
-6.120658456112929
 30
0.0
 10
0.7885506480543098
 20
-6.128864791764347
 30
0.0
 10
0.7910701023231593
 20
-6.137007979791784
 30
0.0
  0
SPLINE
  5
133
330
70
100
AcDbEntity
  8
Layer 1
 62
    18
420
        0
370
     5
100
AcDbSpline
210
0.0
220
0.0
230
1.0
 70
     8
 71
     3
 72
    29
 73
    25
 74
     0
 42
0.0000000001
 43
0.0000000001
 40
0.0
 40
0.0
 40
0.0
 40
0.0
 40
1.0
 40
1.0
 40
1.0
 40
2.0
 40
2.0
 40
2.0
 40
3.0
 40
3.0
 40
3.0
 40
4.0
 40
4.0
 40
4.0
 40
5.0
 40
5.0
 40
5.0
 40
6.0
 40
6.0
 40
6.0
 40
7.0
 40
7.0
 40
7.0
 40
8.0
 40
8.0
 40
8.0
 40
8.0
 10
0.760420090479114
 20
-5.912702794070481
 30
0.0
 10
0.760420090479114
 20
-5.902655916219954
 30
0.0
 10
0.7605865012106076
 20
-5.892608253806959
 30
0.0
 10
0.76091895751991
 20
-5.882566289455477
 30
0.0
 10
0.7612495298493639
 20
-5.872581231405875
 30
0.0
 10
0.7617442711782207
 20
-5.862601807020622
 30
0.0
 10
0.7624065600108957
 20
-5.852633401173116
 30
0.0
 10
0.7630613332685496
 20
-5.842778115611192
 30
0.0
 10
0.7638798729874199
 20
-5.832933599931796
 30
0.0
 10
0.7648693998039057
 20
-5.823106198118668
 30
0.0
 10
0.7658419536268816
 20
-5.813447362153712
 30
0.0
 10
0.766979679095079
 20
-5.803805057994395
 30
0.0
 10
0.768293978762257
 20
-5.794186749188889
 30
0.0
 10
0.7695780004027786
 20
-5.784790021060353
 30
0.0
 10
0.771030554338558
 20
-5.775416195440154
 30
0.0
 10
0.7726625860361259
 20
-5.766073525470927
 30
0.0
 10
0.7742476411426398
 20
-5.756999776005588
 30
0.0
 10
0.7760019904951605
 20
-5.747955414428714
 30
0.0
 10
0.7779406592186686
 20
-5.738950606348288
 30
0.0
 10
0.77981189569194
 20
-5.730259010352407
 30
0.0
 10
0.7818548522601406
 20
-5.72160426414675
 30
0.0
 10
0.7840894230831989
 20
-5.712998473434177
 30
0.0
 10
0.7862319579868679
 20
-5.7047471319303
 30
0.0
 10
0.7885506480543098
 20
-5.696540796278908
 30
0.0
 10
0.7910701023231593
 20
-5.688397608349254
 30
0.0
  0
SPLINE
  5
134
330
70
100
AcDbEntity
  8
Layer 1
 62
    18
420
        0
370
     5
100
AcDbSpline
210
0.0
220
0.0
230
1.0
 70
     8
 71
     3
 72
    29
 73
    25
 74
     0
 42
0.0000000001
 43
0.0000000001
 40
0.0
 40
0.0
 40
0.0
 40
0.0
 40
1.0
 40
1.0
 40
1.0
 40
2.0
 40
2.0
 40
2.0
 40
3.0
 40
3.0
 40
3.0
 40
4.0
 40
4.0
 40
4.0
 40
5.0
 40
5.0
 40
5.0
 40
6.0
 40
6.0
 40
6.0
 40
7.0
 40
7.0
 40
7.0
 40
8.0
 40
8.0
 40
8.0
 40
8.0
 10
7.637920963364396
 20
-11.8781632626669
 30
0.0
 10
7.606009333859749
 20
-11.8781632626669
 30
0.0
 10
7.574015757579773
 20
-11.87514553397527
 30
0.0
 10
7.542611305350937
 20
-11.86915005177247
 30
0.0
 10
7.511294712223186
 20
-11.8631713429135
 30
0.0
 10
7.480563951415483
 20
-11.85423151874311
 30
0.0
 10
7.450952966144363
 20
-11.84245347222112
 30
0.0
 10
7.421496084575942
 20
-11.83073672188925
 30
0.0
 10
7.393147353633493
 20
-11.81621121411151
 30
0.0
 10
7.366460493496775
 20
-11.79909030437339
 30
0.0
 10
7.339956891451087
 20
-11.78208696355199
 30
0.0
 10
7.315092414515548
 20
-11.76252374352106
 30
0.0
 10
7.292378464730113
 20
-11.74071437326685
 30
0.0
 10
7.269835521941141
 20
-11.719069199682
 30
0.0
 10
7.249410846758778
 20
-11.69521156983617
 30
0.0
 10
7.231558680881713
 20
-11.6695567665422
 30
0.0
 10
7.213832358236875
 20
-11.64408280872041
 30
0.0
 10
7.198642404536307
 20
-11.61683692536596
 30
0.0
 10
7.186349371197908
 20
-11.58834427647131
 30
0.0
 10
7.174123487333227
 20
-11.56000726584175
 30
0.0
 10
7.16476296198895
 20
-11.53043707313713
 30
0.0
 10
7.15850165256116
 20
-11.50019820800253
 30
0.0
 10
7.152259005280395
 20
-11.47004947132324
 30
0.0
 10
7.149097126711378
 20
-11.43923604229702
 30
0.0
 10
7.149097126711378
 20
-11.40851442157385
 30
0.0
  0
SPLINE
  5
135
330
70
100
AcDbEntity
  8
Layer 1
 62
    18
420
        0
370
     5
100
AcDbSpline
210
0.0
220
0.0
230
1.0
 70
     8
 71
     3
 72
    29
 73
    25
 74
     0
 42
0.0000000001
 43
0.0000000001
 40
0.0
 40
0.0
 40
0.0
 40
0.0
 40
1.0
 40
1.0
 40
1.0
 40
2.0
 40
2.0
 40
2.0
 40
3.0
 40
3.0
 40
3.0
 40
4.0
 40
4.0
 40
4.0
 40
5.0
 40
5.0
 40
5.0
 40
6.0
 40
6.0
 40
6.0
 40
7.0
 40
7.0
 40
7.0
 40
8.0
 40
8.0
 40
8.0
 40
8.0
 10
8.126744800017426
 20
-11.40851442157385
 30
0.0
 10
8.126744800017426
 20
-11.43923603349819
 30
0.0
 10
8.123582924138796
 20
-11.47004945375586
 30
0.0
 10
8.117340280383562
 20
-11.50019818205126
 30
0.0
 10
8.111078973310428
 20
-11.53043704448229
 30
0.0
 10
8.101718449991393
 20
-11.56000723461779
 30
0.0
 10
8.089492569304436
 20
-11.5883442434017
 30
0.0
 10
8.077199535814303
 20
-11.61683689819746
 30
0.0
 10
8.06200958154981
 20
-11.64408278750554
 30
0.0
 10
8.044283257021522
 20
-11.66955675057771
 30
0.0
 10
8.026431087678336
 20
-11.6952115614146
 30
0.0
 10
8.006006407239345
 20
-11.71906919777411
 30
0.0
 10
7.983463458265999
 20
-11.74071437686502
 30
0.0
 10
7.960749502583767
 20
-11.76252375234597
 30
0.0
 10
7.935885018872871
 20
-11.78208697664647
 30
0.0
 10
7.909381409192658
 20
-11.79909031995066
 30
0.0
 10
7.882694544138567
 20
-11.81621123041168
 30
0.0
 10
7.854345807752704
 20
-11.8307367376392
 30
0.0
 10
7.824888920991421
 20
-11.84245348736774
 30
0.0
 10
7.795277938915356
 20
-11.85423152993588
 30
0.0
 10
7.764547182192422
 20
-11.86317135171174
 30
0.0
 10
7.733230593220367
 20
-11.86915005803831
 30
0.0
 10
7.701826150102546
 20
-11.8751455367578
 30
0.0
 10
7.669832583190314
 20
-11.8781632627646
 30
0.0
 10
7.637920963168855
 20
-11.8781632626669
 30
0.0
  0
SPLINE
  5
136
330
70
100
AcDbEntity
  8
Layer 1
 62
    18
420
        0
370
     5
100
AcDbSpline
210
0.0
220
0.0
230
1.0
 70
     8
 71
     3
 72
    47
 73
    43
 74
     0
 42
0.0000000001
 43
0.0000000001
 40
0.0
 40
0.0
 40
0.0
 40
0.0
 40
1.0
 40
1.0
 40
1.0
 40
2.0
 40
2.0
 40
2.0
 40
3.0
 40
3.0
 40
3.0
 40
4.0
 40
4.0
 40
4.0
 40
5.0
 40
5.0
 40
5.0
 40
6.0
 40
6.0
 40
6.0
 40
7.0
 40
7.0
 40
7.0
 40
8.0
 40
8.0
 40
8.0
 40
9.0
 40
9.0
 40
9.0
 40
10.0
 40
10.0
 40
10.0
 40
11.0
 40
11.0
 40
11.0
 40
12.0
 40
12.0
 40
12.0
 40
13.0
 40
13.0
 40
13.0
 40
14.0
 40
14.0
 40
14.0
 40
14.0
 10
8.126742329501716
 20
-11.40851442157385
 30
0.0
 10
8.126742329501716
 20
-11.42181491449835
 30
0.0
 10
8.126153783878546
 20
-11.43512304546965
 30
0.0
 10
8.124976093966438
 20
-11.44837678995574
 30
0.0
 10
8.123797683017844
 20
-11.461638649
 30
0.0
 10
8.122029406156469
 20
-11.47484605494292
 30
0.0
 10
8.119682147363821
 20
-11.48795016831582
 30
0.0
 10
8.117332002525282
 20
-11.50107039370507
 30
0.0
 10
8.114401451118624
 20
-11.51408707236373
 30
0.0
 10
8.110904120951671
 20
-11.5269494858498
 30
0.0
 10
8.10740061708557
 20
-11.53983460484775
 30
0.0
 10
8.103328331668597
 20
-11.55256491355594
 30
0.0
 10
8.098704916682612
 20
-11.5650916762572
 30
0.0
 10
8.094070898798159
 20
-11.57764716664001
 30
0.0
 10
8.088883220630338
 20
-11.58999817635928
 30
0.0
 10
8.083168725029988
 20
-11.60210029362623
 30
0.0
 10
8.077438753449566
 20
-11.61423518581134
 30
0.0
 10
8.071179107121919
 20
-11.62611983561876
 30
0.0
 10
8.064414860065147
 20
-11.63770986037335
 30
0.0
 10
8.057629916500546
 20
-11.64933534702567
 30
0.0
 10
8.050337279638004
 20
-11.66066440294359
 30
0.0
 10
8.042571500160141
 20
-11.67165898916295
 30
0.0
 10
8.034779942510706
 20
-11.68269007143926
 30
0.0
 10
8.02651209587931
 20
-11.69338445981596
 30
0.0
 10
8.017802274141267
 20
-11.70370580489963
 30
0.0
 10
8.009062436911563
 20
-11.71406271905193
 30
0.0
 10
7.999877573087069
 20
-11.72404401434273
 30
0.0
 10
7.990285180291063
 20
-11.73361648770613
 30
0.0
 10
7.980658958988442
 20
-11.74322271932844
 30
0.0
 10
7.970622329264718
 20
-11.75241724043841
 30
0.0
 10
7.96021667314537
 20
-11.76117362042083
 30
0.0
 10
7.949774887703496
 20
-11.76996040329883
 30
0.0
 10
7.938961508835164
 20
-11.77830599724075
 30
0.0
 10
7.927818116659509
 20
-11.7861819386271
 30
0.0
 10
7.916637476331755
 20
-11.7940842063112
 30
0.0
 10
7.905124612789651
 20
-11.80151367644981
 30
0.0
 10
7.893318158741723
 20
-11.80845417242269
 30
0.0
 10
7.869622736433345
 20
-11.82238367085137
 30
0.0
 10
7.844744730253978
 20
-11.83434357915328
 30
0.0
 10
7.81904867467996
 20
-11.844181831765
 30
0.0
 10
7.793229903035554
 20
-11.85406706869692
 30
0.0
 10
7.766585249859253
 20
-11.86181033686393
 30
0.0
 10
7.73953813072329
 20
-11.86732328935631
 30
0.0
  0
SPLINE
  5
137
330
70
100
AcDbEntity
  8
Layer 1
 62
    18
420
        0
370
     5
100
AcDbSpline
210
0.0
220
0.0
230
1.0
 70
     8
 71
     3
 72
    53
 73
    49
 74
     0
 42
0.0000000001
 43
0.0000000001
 40
0.0
 40
0.0
 40
0.0
 40
0.0
 40
1.0
 40
1.0
 40
1.0
 40
2.0
 40
2.0
 40
2.0
 40
3.0
 40
3.0
 40
3.0
 40
4.0
 40
4.0
 40
4.0
 40
5.0
 40
5.0
 40
5.0
 40
6.0
 40
6.0
 40
6.0
 40
7.0
 40
7.0
 40
7.0
 40
8.0
 40
8.0
 40
8.0
 40
9.0
 40
9.0
 40
9.0
 40
10.0
 40
10.0
 40
10.0
 40
11.0
 40
11.0
 40
11.0
 40
12.0
 40
12.0
 40
12.0
 40
13.0
 40
13.0
 40
13.0
 40
14.0
 40
14.0
 40
14.0
 40
15.0
 40
15.0
 40
15.0
 40
16.0
 40
16.0
 40
16.0
 40
16.0
 10
7.637920963364396
 20
-11.8775702215882
 30
0.0
 10
7.62194236849253
 20
-11.8775702215882
 30
0.0
 10
7.605953855254129
 20
-11.8768128348388
 30
0.0
 10
7.590038529836154
 20
-11.87530924622837
 30
0.0
 10
7.574116267516122
 20
-11.87380500225926
 30
0.0
 10
7.558267256830175
 20
-11.87155390580389
 30
0.0
 10
7.542559542136435
 20
-11.86855730578026
 30
0.0
 10
7.52688029358065
 20
-11.86556613631299
 30
0.0
 10
7.511341829356801
 20
-11.86183216289093
 30
0.0
 10
7.496015201796138
 20
-11.85737074353144
 30
0.0
 10
7.480727346494467
 20
-11.85292061036698
 30
0.0
 10
7.465650257431686
 20
-11.84774670709622
 30
0.0
 10
7.450854290759783
 20
-11.84186501115083
 30
0.0
 10
7.436098840094523
 20
-11.8359994211372
 30
0.0
 10
7.421622974325221
 20
-11.82942990945912
 30
0.0
 10
7.40749431954215
 20
-11.82218305861892
 30
0.0
 10
7.393410357788082
 20
-11.81495913166761
 30
0.0
 10
7.379671413836667
 20
-11.80706214401658
 30
0.0
 10
7.366346197234229
 20
-11.79851925142459
 30
0.0
 10
7.353070107981288
 20
-11.79000785473103
 30
0.0
 10
7.340204701044664
 20
-11.78085530695577
 30
0.0
 10
7.327814977011067
 20
-11.77109835301515
 30
0.0
 10
7.315474093541031
 20
-11.76137986120072
 30
0.0
 10
7.303605150061141
 20
-11.75106171899331
 30
0.0
 10
7.29227088107882
 20
-11.74018590469389
 30
0.0
 10
7.280982522625549
 20
-11.7293541439092
 30
0.0
 10
7.270224515943128
 20
-11.71796921968977
 30
0.0
 10
7.260056160232402
 20
-11.70607968595045
 30
0.0
 10
7.249928188930716
 20
-11.6942373724113
 30
0.0
 10
7.240385194212876
 20
-11.68189444958405
 30
0.0
 10
7.231480338435087
 20
-11.6691067706928
 30
0.0
 10
7.222609301832195
 20
-11.65636765729889
 30
0.0
 10
7.21437156628052
 20
-11.64318715964663
 30
0.0
 10
7.206817468970282
 20
-11.62962560170227
 30
0.0
 10
7.199289264108933
 20
-11.61611052739873
 30
0.0
 10
7.192440019039344
 20
-11.60221700057339
 30
0.0
 10
7.186308560996482
 20
-11.58801340852816
 30
0.0
 10
7.180195177903656
 20
-11.57385168730979
 30
0.0
 10
7.17479535614071
 20
-11.55938172626222
 30
0.0
 10
7.17014602325374
 20
-11.5446741410521
 30
0.0
 10
7.165507466709792
 20
-11.53000064546007
 30
0.0
 10
7.161615924068958
 20
-11.5150906259716
 30
0.0
 10
7.15849209226562
 20
-11.50002216399912
 30
0.0
 10
7.155373291620953
 20
-11.48497797088251
 30
0.0
 10
7.153019730896643
 20
-11.46977584523718
 30
0.0
 10
7.151450985761053
 20
-11.45448995883554
 30
0.0
 10
7.149883526972757
 20
-11.43921660662956
 30
0.0
 10
7.149099597227063
 20
-11.42385963097601
 30
0.0
 10
7.149099597227063
 20
-11.40851442157385
 30
0.0
  0
SPLINE
  5
138
330
70
100
AcDbEntity
  8
Layer 1
 62
    18
420
        0
370
     5
100
AcDbSpline
210
0.0
220
0.0
230
1.0
 70
     8
 71
     3
 72
    17
 73
    13
 74
     0
 42
0.0000000001
 43
0.0000000001
 40
0.0
 40
0.0
 40
0.0
 40
0.0
 40
1.0
 40
1.0
 40
1.0
 40
2.0
 40
2.0
 40
2.0
 40
3.0
 40
3.0
 40
3.0
 40
4.0
 40
4.0
 40
4.0
 40
4.0
 10
15.30222761127404
 20
-16.14852311607316
 30
0.0
 10
15.32360278473857
 20
-16.14792017377095
 30
0.0
 10
15.34500592743454
 20
-16.14804501252363
 30
0.0
 10
15.36637754560183
 20
-16.14889748555621
 30
0.0
 10
15.38617665276408
 20
-16.14968723412807
 30
0.0
 10
15.40594870383863
 20
-16.15110147854148
 30
0.0
 10
15.42565814768257
 20
-16.15312052021328
 30
0.0
 10
15.44140708727953
 20
-16.15473384657515
 30
0.0
 10
15.45711605280464
 20
-16.15673332975676
 30
0.0
 10
15.47276866451678
 20
-16.15910048886695
 30
0.0
 10
15.48261937535315
 20
-16.16059022108071
 30
0.0
 10
15.49244776667089
 20
-16.16222557520192
 30
0.0
 10
15.50224969391918
 20
-16.16400446644244
 30
0.0
  0
SPLINE
  5
139
330
70
100
AcDbEntity
  8
Layer 1
 62
    18
420
        0
370
     5
100
AcDbSpline
210
0.0
220
0.0
230
1.0
 70
     8
 71
     3
 72
    20
 73
    16
 74
     0
 42
0.0000000001
 43
0.0000000001
 40
0.0
 40
0.0
 40
0.0
 40
0.0
 40
1.0
 40
1.0
 40
1.0
 40
2.0
 40
2.0
 40
2.0
 40
3.0
 40
3.0
 40
3.0
 40
4.0
 40
4.0
 40
4.0
 40
5.0
 40
5.0
 40
5.0
 40
5.0
 10
15.30225640280251
 20
-16.14834351281014
 30
0.0
 10
15.31288459670541
 20
-16.14804487527302
 30
0.0
 10
15.32351880791844
 20
-16.14792301333851
 30
0.0
 10
15.33415153318244
 20
-16.14798313183789
 30
0.0
 10
15.34472926252781
 20
-16.14804293938477
 30
0.0
 10
15.35530552125596
 20
-16.14828284971011
 30
0.0
 10
15.36587562381027
 20
-16.14869976428554
 30
0.0
 10
15.38557362069681
 20
-16.14947670868746
 30
0.0
 10
15.40525023812918
 20
-16.15086836187705
 30
0.0
 10
15.42486381853203
 20
-16.15286059299448
 30
0.0
 10
15.44068928283693
 20
-16.154468049756
 30
0.0
 10
15.4564737083184
 20
-16.1564664991088
 30
0.0
 10
15.47220175810985
 20
-16.15883632755721
 30
0.0
 10
15.48235732444141
 20
-16.16036652044969
 30
0.0
 10
15.49248938630558
 20
-16.16205155078756
 30
0.0
 10
15.50259312365587
 20
-16.16388939349849
 30
0.0
  0
SPLINE
  5
13A
330
70
100
AcDbEntity
  8
Layer 1
 62
    18
420
        0
370
     5
100
AcDbSpline
210
0.0
220
0.0
230
1.0
 70
     8
 71
     3
 72
     8
 73
     4
 74
     0
 42
0.0000000001
 43
0.0000000001
 40
0.0
 40
0.0
 40
0.0
 40
0.0
 40
1.0
 40
1.0
 40
1.0
 40
1.0
 10
0.7910701023725247
 20
-14.96380465214573
 30
0.0
 10
0.7712004553637826
 20
-15.02802581026586
 30
0.0
 10
0.7604200904789372
 20
-15.10691947452152
 30
0.0
 10
0.760420090479114
 20
-15.18810983787744
 30
0.0
  0
SPLINE
  5
13B
330
70
100
AcDbEntity
  8
Layer 1
 62
    18
420
        0
370
     5
100
AcDbSpline
210
0.0
220
0.0
230
1.0
 70
     8
 71
     3
 72
     8
 73
     4
 74
     0
 42
0.0000000001
 43
0.0000000001
 40
0.0
 40
0.0
 40
0.0
 40
0.0
 40
1.0
 40
1.0
 40
1.0
 40
1.0
 10
0.760420090479114
 20
-15.18810983787368
 30
0.0
 10
0.7604200904789372
 20
-15.2693002012296
 30
0.0
 10
0.7712004553637826
 20
-15.34819386548517
 30
0.0
 10
0.7910701023725247
 20
-15.41241502360539
 30
0.0
  0
SPLINE
  5
13C
330
70
100
AcDbEntity
  8
Layer 1
 62
    18
420
        0
370
     5
100
AcDbSpline
210
0.0
220
0.0
230
1.0
 70
     8
 71
     3
 72
     8
 73
     4
 74
     0
 42
0.0000000001
 43
0.0000000001
 40
0.0
 40
0.0
 40
0.0
 40
0.0
 40
1.0
 40
1.0
 40
1.0
 40
1.0
 10
14.48477182435719
 20
-15.41241502360243
 30
0.0
 10
14.52563850687814
 20
-15.28032884819478
 30
0.0
 10
14.52563850688074
 20
-15.09589082758349
 30
0.0
 10
14.48477182436343
 20
-14.96380465216877
 30
0.0
  0
ENDSEC
  0
SECTION
  2
OBJECTS
  0
DICTIONARY
  5
C
330
0
100
AcDbDictionary
281
     1
  3
ACAD_COLOR
350
63
  3
ACAD_DETAILVIEWSTYLE
350
6A
  3
ACAD_GROUP
350
D
  3
ACAD_LAYOUT
350
62
  3
ACAD_MATERIAL
350
10
  3
ACAD_MLEADERSTYLE
350
66
  3
ACAD_MLINESTYLE
350
5F
  3
ACAD_PLOTSETTINGS
350
61
  3
ACAD_PLOTSTYLENAME
350
E
  3
ACAD_SCALELIST
350
42
  3
ACAD_SECTIONVIEWSTYLE
350
68
  3
ACAD_TABLESTYLE
350
64
  3
ACAD_VISUALSTYLE
350
29
  3
ACDB_RECOMPOSE_DATA
350
145
  3
AcDbVariableDictionary
350
13D
  0
DICTIONARY
  5
63
102
{ACAD_REACTORS
330
C
102
}
330
C
100
AcDbDictionary
281
     1
  0
DICTIONARY
  5
6A
102
{ACAD_REACTORS
330
C
102
}
330
C
100
AcDbDictionary
281
     1
  3
Imperial24
350
6B
  0
DICTIONARY
  5
D
102
{ACAD_REACTORS
330
C
102
}
330
C
100
AcDbDictionary
281
     1
  0
DICTIONARY
  5
62
102
{ACAD_REACTORS
330
C
102
}
330
C
100
AcDbDictionary
281
     1
  3
Layout1
350
6F
  3
Layout2
350
77
  3
Model
350
73
  0
DICTIONARY
  5
10
102
{ACAD_REACTORS
330
C
102
}
330
C
100
AcDbDictionary
281
     1
  3
ByBlock
350
19
  3
ByLayer
350
11
  3
Global
350
21
  0
DICTIONARY
  5
66
102
{ACAD_REACTORS
330
C
102
}
330
C
100
AcDbDictionary
281
     1
  3
Standard
350
67
  0
DICTIONARY
  5
5F
102
{ACAD_REACTORS
330
C
102
}
330
C
100
AcDbDictionary
281
     1
  3
Standard
350
60
  0
DICTIONARY
  5
61
102
{ACAD_REACTORS
330
C
102
}
330
C
100
AcDbDictionary
281
     1
  0
ACDBDICTIONARYWDFLT
  5
E
102
{ACAD_REACTORS
330
C
102
}
330
C
100
AcDbDictionary
281
     1
  3
Normal
350
F
100
AcDbDictionaryWithDefault
340
F
  0
DICTIONARY
  5
42
102
{ACAD_REACTORS
330
C
102
}
330
C
100
AcDbDictionary
281
     1
  3
A0
350
43
  3
A1
350
44
  3
A2
350
45
  3
A3
350
46
  3
A4
350
47
  3
A5
350
48
  3
A6
350
49
  3
A7
350
4A
  3
A8
350
4B
  3
A9
350
4C
  3
B0
350
4D
  3
B1
350
4E
  3
B2
350
4F
  3
B3
350
50
  3
B4
350
51
  3
B5
350
52
  3
B6
350
53
  0
DICTIONARY
  5
68
102
{ACAD_REACTORS
330
C
102
}
330
C
100
AcDbDictionary
281
     1
  3
Imperial24
350
69
  0
DICTIONARY
  5
64
102
{ACAD_REACTORS
330
C
102
}
330
C
100
AcDbDictionary
281
     1
  3
Standard
350
65
  0
DICTIONARY
  5
29
102
{ACAD_REACTORS
330
C
102
}
330
C
100
AcDbDictionary
281
     1
  3
2dWireframe
350
2F
  3
Basic
350
2E
  3
Brighten
350
35
  3
ColorChange
350
39
  3
Conceptual
350
32
  3
Dim
350
34
  3
EdgeColorOff
350
41
  3
Facepattern
350
38
  3
Flat
350
2A
  3
FlatWithEdges
350
2B
  3
Gouraud
350
2C
  3
GouraudWithEdges
350
2D
  3
Hidden
350
31
  3
JitterOff
350
3F
  3
Linepattern
350
37
  3
OverhangOff
350
40
  3
Realistic
350
33
  3
Shaded
350
3E
  3
Shaded with edges
350
3D
  3
Shades of Gray
350
3A
  3
Sketchy
350
3B
  3
Thicken
350
36
  3
Wireframe
350
30
  3
X-Ray
350
3C
  0
XRECORD
  5
145
102
{ACAD_REACTORS
330
C
102
}
330
C
100
AcDbXrecord
280
     1
 90
        1
330
65
  0
DICTIONARY
  5
13D
102
{ACAD_REACTORS
330
C
102
}
330
C
100
AcDbDictionary
281
     1
  3
CANNOSCALE
350
142
  3
CMLEADERSTYLE
350
13F
  3
CTABLESTYLE
350
13E
  3
CVIEWDETAILSTYLE
350
140
  3
CVIEWSECTIONSTYLE
350
141
  0
ACDBDETAILVIEWSTYLE
  5
6B
102
{ACAD_REACTORS
330
6A
102
}
330
6A
100
AcDbModelDocViewStyle
 70
     0
  3
Imperial24
290
     1
300
Imperial24
 90
        0
100
AcDbDetailViewStyle
 70
     0
 71
     0
 90
        3
 71
     1
340
55
 62
   256
 40
0.24
340
0
 62
   256
 40
0.24
300

 40
0.36
280
     3
 71
     2
340
5D
 90
       25
 62
   256
 71
     3
340
55
 62
   256
 40
0.24
 90
        1
 40
0.75
 90
        1
300
%<\AcVar ViewType \f "%tc1">% %<\AcVar ViewDetailId>%\PSCALE %<\AcVar ViewScale \f "%sn">%
 71
     4
340
5D
 90
       25
 62
   256
340
5D
 90
       25
 62
   256
280
     0
  0
LAYOUT
  5
6F
102
{ACAD_REACTORS
330
62
102
}
330
62
100
AcDbPlotSettings
  1

  2

  4

  6

 40
0.0
 41
0.0
 42
0.0
 43
0.0
 44
0.0
 45
0.0
 46
0.0
 47
0.0
 48
0.0
 49
0.0
140
0.0
141
0.0
142
1.0
143
1.0
 70
   688
 72
     0
 73
     0
 74
     5
  7

 75
    16
147
1.0
 76
     0
 77
     2
 78
   300
148
0.0
149
0.0
100
AcDbLayout
  1
Layout1
 70
     1
 71
     1
 10
0.0
 20
0.0
 11
12.0
 21
9.0
 12
0.0
 22
0.0
 32
0.0
 14
0.0
 24
0.0
 34
0.0
 15
0.0
 25
0.0
 35
0.0
146
0.0
 13
0.0
 23
0.0
 33
0.0
 16
1.0
 26
0.0
 36
0.0
 17
0.0
 27
1.0
 37
0.0
 76
     0
330
6C
  0
LAYOUT
  5
77
102
{ACAD_REACTORS
330
62
102
}
330
62
100
AcDbPlotSettings
  1

  2

  4

  6

 40
0.0
 41
0.0
 42
0.0
 43
0.0
 44
0.0
 45
0.0
 46
0.0
 47
0.0
 48
0.0
 49
0.0
140
0.0
141
0.0
142
1.0
143
1.0
 70
   688
 72
     0
 73
     0
 74
     5
  7

 75
    16
147
1.0
 76
     0
 77
     2
 78
   300
148
0.0
149
0.0
100
AcDbLayout
  1
Layout2
 70
     1
 71
     2
 10
0.0
 20
0.0
 11
12.0
 21
9.0
 12
0.0
 22
0.0
 32
0.0
 14
0.0
 24
0.0
 34
0.0
 15
0.0
 25
0.0
 35
0.0
146
0.0
 13
0.0
 23
0.0
 33
0.0
 16
1.0
 26
0.0
 36
0.0
 17
0.0
 27
1.0
 37
0.0
 76
     0
330
74
  0
LAYOUT
  5
73
102
{ACAD_REACTORS
330
62
102
}
330
62
100
AcDbPlotSettings
  1

  2

  4

  6

 40
0.0
 41
0.0
 42
0.0
 43
0.0
 44
0.0
 45
0.0
 46
0.0
 47
0.0
 48
0.0
 49
0.0
140
0.0
141
0.0
142
1.0
143
1.0
 70
  1712
 72
     0
 73
     0
 74
     0
  7

 75
     0
147
1.0
 76
     0
 77
     2
 78
   300
148
0.0
149
0.0
100
AcDbLayout
  1
Model
 70
     1
 71
     0
 10
0.0
 20
0.0
 11
12.0
 21
9.0
 12
0.0
 22
0.0
 32
0.0
 14
0.0
 24
0.0
 34
0.0
 15
0.0
 25
0.0
 35
0.0
146
0.0
 13
0.0
 23
0.0
 33
0.0
 16
1.0
 26
0.0
 36
0.0
 17
0.0
 27
1.0
 37
0.0
 76
     0
330
70
  0
MATERIAL
  5
19
102
{ACAD_XDICTIONARY
360
1A
102
}
102
{ACAD_REACTORS
330
10
102
}
330
10
100
AcDbMaterial
  1
ByBlock
 72
     0
 43
0.0208333333333333
 43
0.0
 43
0.0
 43
0.0
 43
0.0
 43
0.0208333333333333
 43
0.0
 43
0.0
 43
0.0
 43
0.0
 43
1.0
 43
0.0
 43
0.0
 43
0.0
 43
0.0
 43
1.0
 77
     0
 47
0.0208333333333333
 47
0.0
 47
0.0
 47
0.0
 47
0.0
 47
0.0208333333333333
 47
0.0
 47
0.0
 47
0.0
 47
0.0
 47
1.0
 47
0.0
 47
0.0
 47
0.0
 47
0.0
 47
1.0
171
     0
 49
0.0208333333333333
 49
0.0
 49
0.0
 49
0.0
 49
0.0
 49
0.0208333333333333
 49
0.0
 49
0.0
 49
0.0
 49
0.0
 49
1.0
 49
0.0
 49
0.0
 49
0.0
 49
0.0
 49
1.0
175
     0
142
0.0208333333333333
142
0.0
142
0.0
142
0.0
142
0.0
142
0.0208333333333333
142
0.0
142
0.0
142
0.0
142
0.0
142
1.0
142
0.0
142
0.0
142
0.0
142
0.0
142
1.0
179
     0
144
0.0208333333333333
144
0.0
144
0.0
144
0.0
144
0.0
144
0.0208333333333333
144
0.0
144
0.0
144
0.0
144
0.0
144
1.0
144
0.0
144
0.0
144
0.0
144
0.0
144
1.0
147
0.0208333333333333
147
0.0
147
0.0
147
0.0
147
0.0
147
0.0208333333333333
147
0.0
147
0.0
147
0.0
147
0.0
147
1.0
147
0.0
147
0.0
147
0.0
147
0.0
147
1.0
  0
MATERIAL
  5
11
102
{ACAD_XDICTIONARY
360
12
102
}
102
{ACAD_REACTORS
330
10
102
}
330
10
100
AcDbMaterial
  1
ByLayer
 72
     0
 43
0.0208333333333333
 43
0.0
 43
0.0
 43
0.0
 43
0.0
 43
0.0208333333333333
 43
0.0
 43
0.0
 43
0.0
 43
0.0
 43
1.0
 43
0.0
 43
0.0
 43
0.0
 43
0.0
 43
1.0
 77
     0
 47
0.0208333333333333
 47
0.0
 47
0.0
 47
0.0
 47
0.0
 47
0.0208333333333333
 47
0.0
 47
0.0
 47
0.0
 47
0.0
 47
1.0
 47
0.0
 47
0.0
 47
0.0
 47
0.0
 47
1.0
171
     0
 49
0.0208333333333333
 49
0.0
 49
0.0
 49
0.0
 49
0.0
 49
0.0208333333333333
 49
0.0
 49
0.0
 49
0.0
 49
0.0
 49
1.0
 49
0.0
 49
0.0
 49
0.0
 49
0.0
 49
1.0
175
     0
142
0.0208333333333333
142
0.0
142
0.0
142
0.0
142
0.0
142
0.0208333333333333
142
0.0
142
0.0
142
0.0
142
0.0
142
1.0
142
0.0
142
0.0
142
0.0
142
0.0
142
1.0
179
     0
144
0.0208333333333333
144
0.0
144
0.0
144
0.0
144
0.0
144
0.0208333333333333
144
0.0
144
0.0
144
0.0
144
0.0
144
1.0
144
0.0
144
0.0
144
0.0
144
0.0
144
1.0
147
0.0208333333333333
147
0.0
147
0.0
147
0.0
147
0.0
147
0.0208333333333333
147
0.0
147
0.0
147
0.0
147
0.0
147
1.0
147
0.0
147
0.0
147
0.0
147
0.0
147
1.0
  0
MATERIAL
  5
21
102
{ACAD_XDICTIONARY
360
22
102
}
102
{ACAD_REACTORS
330
10
102
}
330
10
100
AcDbMaterial
  1
Global
 72
     0
 43
0.0208333333333333
 43
0.0
 43
0.0
 43
0.0
 43
0.0
 43
0.0208333333333333
 43
0.0
 43
0.0
 43
0.0
 43
0.0
 43
1.0
 43
0.0
 43
0.0
 43
0.0
 43
0.0
 43
1.0
 77
     0
 47
0.0208333333333333
 47
0.0
 47
0.0
 47
0.0
 47
0.0
 47
0.0208333333333333
 47
0.0
 47
0.0
 47
0.0
 47
0.0
 47
1.0
 47
0.0
 47
0.0
 47
0.0
 47
0.0
 47
1.0
171
     0
 49
0.0208333333333333
 49
0.0
 49
0.0
 49
0.0
 49
0.0
 49
0.0208333333333333
 49
0.0
 49
0.0
 49
0.0
 49
0.0
 49
1.0
 49
0.0
 49
0.0
 49
0.0
 49
0.0
 49
1.0
175
     0
142
0.0208333333333333
142
0.0
142
0.0
142
0.0
142
0.0
142
0.0208333333333333
142
0.0
142
0.0
142
0.0
142
0.0
142
1.0
142
0.0
142
0.0
142
0.0
142
0.0
142
1.0
179
     0
144
0.0208333333333333
144
0.0
144
0.0
144
0.0
144
0.0
144
0.0208333333333333
144
0.0
144
0.0
144
0.0
144
0.0
144
1.0
144
0.0
144
0.0
144
0.0
144
0.0
144
1.0
147
0.0208333333333333
147
0.0
147
0.0
147
0.0
147
0.0
147
0.0208333333333333
147
0.0
147
0.0
147
0.0
147
0.0
147
1.0
147
0.0
147
0.0
147
0.0
147
0.0
147
1.0
  0
MLEADERSTYLE
  5
67
102
{ACAD_REACTORS
330
66
102
}
330
66
100
AcDbMLeaderStyle
179
     2
170
     2
171
     1
172
     0
 90
        2
 40
0.0
 41
0.0
173
     1
 91
-1056964608
340
5B
 92
       -2
290
     1
 42
0.09
291
     1
 43
0.36
  3
Standard
 44
0.18
300

342
55
174
     1
178
     6
175
     1
176
     0
 93
-1056964608
 45
0.18
292
     0
297
     0
 46
0.18
 94
-1056964608
 47
1.0
 49
1.0
140
1.0
293
     1
141
0.0
294
     1
177
     0
142
1.0
295
     1
296
     0
143
0.125
271
     0
272
     9
273
     9
298
     1
  0
MLINESTYLE
  5
60
102
{ACAD_REACTORS
330
5F
102
}
330
5F
100
AcDbMlineStyle
  2
STANDARD
 70
     0
  3

 62
   256
 51
90.0
 52
90.0
 71
     2
 49
0.5
 62
   256
  6
BYLAYER
 49
-0.5
 62
   256
  6
BYLAYER
  0
ACDBPLACEHOLDER
  5
F
102
{ACAD_REACTORS
330
E
102
}
330
E
  0
SCALE
  5
43
102
{ACAD_REACTORS
330
42
102
}
330
42
100
AcDbScale
 70
     0
300
1:1
140
1.0
141
1.0
290
     1
  0
SCALE
  5
44
102
{ACAD_REACTORS
330
42
102
}
330
42
100
AcDbScale
 70
     0
300
1/128" = 1'-0"
140
0.0078125
141
12.0
290
     0
  0
SCALE
  5
45
102
{ACAD_REACTORS
330
42
102
}
330
42
100
AcDbScale
 70
     0
300
1/64" = 1'-0"
140
0.015625
141
12.0
290
     0
  0
SCALE
  5
46
102
{ACAD_REACTORS
330
42
102
}
330
42
100
AcDbScale
 70
     0
300
1/32" = 1'-0"
140
0.03125
141
12.0
290
     0
  0
SCALE
  5
47
102
{ACAD_REACTORS
330
42
102
}
330
42
100
AcDbScale
 70
     0
300
1/16" = 1'-0"
140
0.0625
141
12.0
290
     0
  0
SCALE
  5
48
102
{ACAD_REACTORS
330
42
102
}
330
42
100
AcDbScale
 70
     0
300
3/32" = 1'-0"
140
0.09375
141
12.0
290
     0
  0
SCALE
  5
49
102
{ACAD_REACTORS
330
42
102
}
330
42
100
AcDbScale
 70
     0
300
1/8" = 1'-0"
140
0.125
141
12.0
290
     0
  0
SCALE
  5
4A
102
{ACAD_REACTORS
330
42
102
}
330
42
100
AcDbScale
 70
     0
300
3/16" = 1'-0"
140
0.1875
141
12.0
290
     0
  0
SCALE
  5
4B
102
{ACAD_REACTORS
330
42
102
}
330
42
100
AcDbScale
 70
     0
300
1/4" = 1'-0"
140
0.25
141
12.0
290
     0
  0
SCALE
  5
4C
102
{ACAD_REACTORS
330
42
102
}
330
42
100
AcDbScale
 70
     0
300
3/8" = 1'-0"
140
0.375
141
12.0
290
     0
  0
SCALE
  5
4D
102
{ACAD_REACTORS
330
42
102
}
330
42
100
AcDbScale
 70
     0
300
1/2" = 1'-0"
140
0.5
141
12.0
290
     0
  0
SCALE
  5
4E
102
{ACAD_REACTORS
330
42
102
}
330
42
100
AcDbScale
 70
     0
300
3/4" = 1'-0"
140
0.75
141
12.0
290
     0
  0
SCALE
  5
4F
102
{ACAD_REACTORS
330
42
102
}
330
42
100
AcDbScale
 70
     0
300
1" = 1'-0"
140
1.0
141
12.0
290
     0
  0
SCALE
  5
50
102
{ACAD_REACTORS
330
42
102
}
330
42
100
AcDbScale
 70
     0
300
1-1/2" = 1'-0"
140
1.5
141
12.0
290
     0
  0
SCALE
  5
51
102
{ACAD_REACTORS
330
42
102
}
330
42
100
AcDbScale
 70
     0
300
3" = 1'-0"
140
3.0
141
12.0
290
     0
  0
SCALE
  5
52
102
{ACAD_REACTORS
330
42
102
}
330
42
100
AcDbScale
 70
     0
300
6" = 1'-0"
140
6.0
141
12.0
290
     0
  0
SCALE
  5
53
102
{ACAD_REACTORS
330
42
102
}
330
42
100
AcDbScale
 70
     0
300
1'-0" = 1'-0"
140
12.0
141
12.0
290
     0
  0
ACDBSECTIONVIEWSTYLE
  5
69
102
{ACAD_REACTORS
330
68
102
}
330
68
100
AcDbModelDocViewStyle
 70
     0
  3
Imperial24
290
     1
300
Imperial24
 90
        0
100
AcDbSectionViewStyle
 70
     0
 71
     0
 90
       78
 71
     1
340
55
 62
   256
 40
0.24
340
0
340
0
 62
   256
 40
0.24
300
I, O, Q, S, X, Z
 40
0.48
 90
        3
 40
0.18
 90
        1
 71
     2
340
5D
 90
       25
 62
   256
340
5D
 90
       50
 62
   256
 40
0.24
 40
0.0
 40
0.24
 71
     3
340
55
 62
   256
 40
0.24
 90
        1
 40
0.75
 90
        1
300
%<\AcVar ViewType \f "%tc1">% %<\AcVar ViewSectionStartId>%-%<\AcVar ViewSectionEndId>%\PSCALE %<\AcVar ViewScale \f "%sn">%
 71
     4
 62
   256
 62
   257
300
ANSI31
 40
1.0
 90
        0
290
     0
290
     0
 90
        6
 40
0.0
 40
1.570796326794896
 40
0.2617993877991494
 40
1.308996938995747
 40
-0.2617993877991494
 40
1.832595714594046
  0
TABLESTYLE
  5
65
102
{ACAD_XDICTIONARY
360
143
102
}
102
{ACAD_REACTORS
330
64
102
}
330
64
100
AcDbTableStyle
280
     0
  3
Standard
 70
     0
 71
     0
 40
0.06
 41
0.06
280
     0
281
     0
  7
Standard
140
0.18
170
     2
 62
     0
 63
     7
283
     0
 90
      512
 91
        0
  1

274
    -2
284
     1
 64
     0
275
    -2
285
     1
 65
     0
276
    -2
286
     1
 66
     0
277
    -2
287
     1
 67
     0
278
    -2
288
     1
 68
     0
279
    -2
289
     1
 69
     0
  7
Standard
140
0.25
170
     5
 62
     0
 63
     7
283
     0
 90
      512
 91
        0
  1

274
    -2
284
     1
 64
     0
275
    -2
285
     1
 65
     0
276
    -2
286
     1
 66
     0
277
    -2
287
     1
 67
     0
278
    -2
288
     1
 68
     0
279
    -2
289
     1
 69
     0
  7
Standard
140
0.18
170
     5
 62
     0
 63
     7
283
     0
 90
      512
 91
        0
  1

274
    -2
284
     1
 64
     0
275
    -2
285
     1
 65
     0
276
    -2
286
     1
 66
     0
277
    -2
287
     1
 67
     0
278
    -2
288
     1
 68
     0
279
    -2
289
     1
 69
     0
  0
VISUALSTYLE
  5
2F
102
{ACAD_REACTORS
330
29
102
}
330
29
100
AcDbVisualStyle
  2
2dWireframe
 70
     4
177
     3
291
     0
 70
    58
 90
        0
176
     1
 90
        2
176
     1
 90
        0
176
     1
 90
        0
176
     1
 40
0.6
176
     1
 40
30.0
176
     1
 62
     7
420
 16777215
176
     1
 90
        1
176
     1
 90
        4
176
     1
 62
     7
176
     1
 62
   257
176
     1
 90
        1
176
     1
 90
        1
176
     1
 40
1.0
176
     1
 90
        0
176
     1
 62
   257
176
     1
 40
1.0
176
     1
 90
        1
176
     1
 90
        6
176
     1
 90
        2
176
     1
 62
     7
176
     1
 90
        5
176
     1
 90
        0
176
     1
 90
        0
176
     1
290
     0
176
     1
 90
        1
176
     1
 40
0.0
176
     1
 90
        0
176
     1
290
     1
176
     1
290
     1
176
     1
290
     0
176
     1
290
     0
176
     1
290
     0
176
     1
290
     0
176
     1
290
     0
176
     1
290
     0
176
     1
290
     0
176
     1
 90
       50
176
     1
 40
0.0
176
     1
 40
1.0
176
     1
 90
        0
176
     1
 62
    18
420
        0
176
     1
 90
       50
176
     1
 90
        3
176
     1
 62
     5
420
      255
176
     1
290
     0
176
     1
 90
       50
176
     1
 90
       50
176
     1
 90
       50
176
     1
290
     0
176
     1
 90
       50
176
     1
 62
   256
176
     0
 40
1.0
176
     0
 90
        2
176
     1
  1
strokes_ogs.tif
176
     1
290
     0
176
     1
 40
1.0
176
     1
 40
1.0
176
     1
  0
VISUALSTYLE
  5
2E
102
{ACAD_REACTORS
330
29
102
}
330
29
100
AcDbVisualStyle
  2
Basic
 70
     7
177
     3
291
     1
 70
    58
 90
        1
176
     1
 90
        0
176
     1
 90
        1
176
     1
 90
        0
176
     1
 40
0.6
176
     1
 40
30.0
176
     1
 62
     7
420
 16777215
176
     1
 90
        0
176
     1
 90
        4
176
     1
 62
     7
176
     1
 62
   257
176
     1
 90
        1
176
     1
 90
        1
176
     1
 40
1.0
176
     1
 90
        8
176
     1
 62
     7
176
     1
 40
1.0
176
     1
 90
        1
176
     1
 90
        6
176
     1
 90
        2
176
     1
 62
     7
176
     1
 90
        5
176
     1
 90
        0
176
     1
 90
        0
176
     1
290
     0
176
     1
 90
        1
176
     1
 40
0.0
176
     1
 90
        0
176
     1
290
     0
176
     1
290
     1
176
     1
290
     1
176
     1
290
     0
176
     1
290
     0
176
     1
290
     0
176
     1
290
     0
176
     1
290
     0
176
     1
290
     0
176
     1
 90
       50
176
     1
 40
0.0
176
     1
 40
1.0
176
     1
 90
        0
176
     1
 62
    18
420
        0
176
     1
 90
       50
176
     1
 90
        3
176
     1
 62
     5
420
      255
176
     1
290
     0
176
     1
 90
       50
176
     1
 90
       50
176
     1
 90
       50
176
     1
290
     0
176
     1
 90
       50
176
     1
 62
   256
176
     0
 40
1.0
176
     0
 90
        2
176
     1
  1
strokes_ogs.tif
176
     1
290
     0
176
     1
 40
1.0
176
     1
 40
1.0
176
     1
  0
VISUALSTYLE
  5
35
102
{ACAD_REACTORS
330
29
102
}
330
29
100
AcDbVisualStyle
  2
Brighten
 70
    12
177
     3
291
     1
 70
    58
 90
        2
176
     1
 90
        2
176
     1
 90
        0
176
     1
 90
        0
176
     1
 40
0.6
176
     1
 40
30.0
176
     1
 62
     7
420
 16777215
176
     1
 90
        1
176
     1
 90
        4
176
     1
 62
     7
176
     1
 62
   257
176
     1
 90
        1
176
     1
 90
        1
176
     1
 40
1.0
176
     1
 90
        8
176
     1
 62
     7
176
     1
 40
1.0
176
     1
 90
        1
176
     1
 90
        6
176
     1
 90
        2
176
     1
 62
     7
176
     1
 90
        5
176
     1
 90
        0
176
     1
 90
        0
176
     1
290
     0
176
     1
 90
        1
176
     1
 40
50.0
176
     1
 90
        0
176
     1
290
     0
176
     1
290
     1
176
     1
290
     1
176
     1
290
     0
176
     1
290
     0
176
     1
290
     0
176
     1
290
     0
176
     1
290
     0
176
     1
290
     0
176
     1
 90
       50
176
     1
 40
0.0
176
     1
 40
1.0
176
     1
 90
        0
176
     1
 62
    18
420
        0
176
     1
 90
       50
176
     1
 90
        3
176
     1
 62
     5
420
      255
176
     1
290
     0
176
     1
 90
       50
176
     1
 90
       50
176
     1
 90
       50
176
     1
290
     0
176
     1
 90
       50
176
     1
 62
   256
176
     0
 40
1.0
176
     0
 90
        2
176
     1
  1
strokes_ogs.tif
176
     1
290
     0
176
     1
 40
1.0
176
     1
 40
1.0
176
     1
  0
VISUALSTYLE
  5
39
102
{ACAD_REACTORS
330
29
102
}
330
29
100
AcDbVisualStyle
  2
ColorChange
 70
    16
177
     3
291
     1
 70
    58
 90
        2
176
     1
 90
        2
176
     1
 90
        3
176
     1
 90
        0
176
     1
 40
0.6
176
     1
 40
30.0
176
     1
 62
     8
420
  8421504
176
     1
 90
        1
176
     1
 90
        4
176
     1
 62
     7
176
     1
 62
   257
176
     1
 90
        1
176
     1
 90
        1
176
     1
 40
1.0
176
     1
 90
        8
176
     1
 62
     8
420
  8421504
176
     1
 40
1.0
176
     1
 90
        1
176
     1
 90
        6
176
     1
 90
        2
176
     1
 62
     7
176
     1
 90
        5
176
     1
 90
        0
176
     1
 90
        0
176
     1
290
     0
176
     1
 90
        1
176
     1
 40
0.0
176
     1
 90
        0
176
     1
290
     0
176
     1
290
     1
176
     1
290
     1
176
     1
290
     0
176
     1
290
     0
176
     1
290
     0
176
     1
290
     0
176
     1
290
     0
176
     1
290
     0
176
     1
 90
       50
176
     1
 40
0.0
176
     1
 40
1.0
176
     1
 90
        0
176
     1
 62
    18
420
        0
176
     1
 90
       50
176
     1
 90
        3
176
     1
 62
     5
420
      255
176
     1
290
     0
176
     1
 90
       50
176
     1
 90
       50
176
     1
 90
       50
176
     1
290
     0
176
     1
 90
       50
176
     1
 62
   256
176
     0
 40
1.0
176
     0
 90
        2
176
     1
  1
strokes_ogs.tif
176
     1
290
     0
176
     1
 40
1.0
176
     1
 40
1.0
176
     1
  0
VISUALSTYLE
  5
32
102
{ACAD_REACTORS
330
29
102
}
330
29
100
AcDbVisualStyle
  2
Conceptual
 70
     9
177
     3
291
     0
 70
    58
 90
        3
176
     1
 90
        2
176
     1
 90
        0
176
     1
 90
        0
176
     1
 40
0.6
176
     1
 40
30.0
176
     1
 62
     7
420
 16777215
176
     1
 90
        2
176
     1
 90
        2
176
     1
 62
     7
176
     1
 62
   257
176
     1
 90
        1
176
     1
 90
        1
176
     1
 40
179.0
176
     1
 90
        8
176
     1
 62
     7
176
     1
 40
1.0
176
     1
 90
        1
176
     1
 90
        6
176
     1
 90
        2
176
     1
 62
     7
176
     1
 90
        3
176
     1
 90
        0
176
     1
 90
        0
176
     1
290
     0
176
     1
 90
        1
176
     1
 40
0.0
176
     1
 90
        0
176
     1
290
     0
176
     1
290
     1
176
     1
290
     1
176
     1
290
     0
176
     1
290
     0
176
     1
290
     0
176
     1
290
     0
176
     1
290
     0
176
     1
290
     0
176
     1
 90
       50
176
     1
 40
0.0
176
     1
 40
1.0
176
     1
 90
        0
176
     1
 62
    18
420
        0
176
     1
 90
       50
176
     1
 90
        3
176
     1
 62
     5
420
      255
176
     1
290
     0
176
     1
 90
       50
176
     1
 90
       50
176
     1
 90
       50
176
     1
290
     0
176
     1
 90
       50
176
     1
 62
   256
176
     0
 40
1.0
176
     0
 90
        2
176
     1
  1
strokes_ogs.tif
176
     1
290
     0
176
     1
 40
1.0
176
     1
 40
1.0
176
     1
  0
VISUALSTYLE
  5
34
102
{ACAD_REACTORS
330
29
102
}
330
29
100
AcDbVisualStyle
  2
Dim
 70
    11
177
     3
291
     1
 70
    58
 90
        2
176
     1
 90
        2
176
     1
 90
        0
176
     1
 90
        0
176
     1
 40
0.6
176
     1
 40
30.0
176
     1
 62
     7
420
 16777215
176
     1
 90
        1
176
     1
 90
        4
176
     1
 62
     7
176
     1
 62
   257
176
     1
 90
        1
176
     1
 90
        1
176
     1
 40
1.0
176
     1
 90
        8
176
     1
 62
     7
176
     1
 40
1.0
176
     1
 90
        1
176
     1
 90
        6
176
     1
 90
        2
176
     1
 62
     7
176
     1
 90
        5
176
     1
 90
        0
176
     1
 90
        0
176
     1
290
     0
176
     1
 90
        1
176
     1
 40
-50.0
176
     1
 90
        0
176
     1
290
     0
176
     1
290
     1
176
     1
290
     1
176
     1
290
     0
176
     1
290
     0
176
     1
290
     0
176
     1
290
     0
176
     1
290
     0
176
     1
290
     0
176
     1
 90
       50
176
     1
 40
0.0
176
     1
 40
1.0
176
     1
 90
        0
176
     1
 62
    18
420
        0
176
     1
 90
       50
176
     1
 90
        3
176
     1
 62
     5
420
      255
176
     1
290
     0
176
     1
 90
       50
176
     1
 90
       50
176
     1
 90
       50
176
     1
290
     0
176
     1
 90
       50
176
     1
 62
   256
176
     0
 40
1.0
176
     0
 90
        2
176
     1
  1
strokes_ogs.tif
176
     1
290
     0
176
     1
 40
1.0
176
     1
 40
1.0
176
     1
  0
VISUALSTYLE
  5
41
102
{ACAD_REACTORS
330
29
102
}
330
29
100
AcDbVisualStyle
  2
EdgeColorOff
 70
    22
177
     3
291
     1
 70
    58
 90
        2
176
     0
 90
        2
176
     0
 90
        0
176
     0
 90
        0
176
     0
 40
0.6
176
     0
 40
30.0
176
     0
 62
     7
420
 16777215
176
     0
 90
        1
176
     0
 90
        4
176
     0
 62
     7
176
     0
 62
   257
176
     0
 90
        1
176
     0
 90
        1
176
     0
 40
1.0
176
     0
 90
        8
176
     2
 62
     7
176
     0
 40
1.0
176
     0
 90
        1
176
     0
 90
        6
176
     0
 90
        2
176
     0
 62
     7
176
     0
 90
        5
176
     0
 90
        0
176
     0
 90
        0
176
     0
290
     0
176
     0
 90
        1
176
     0
 40
0.0
176
     0
 90
        0
176
     0
290
     0
176
     0
290
     1
176
     0
290
     1
176
     0
290
     0
176
     0
290
     0
176
     0
290
     0
176
     0
290
     0
176
     0
290
     0
176
     0
290
     0
176
     0
 90
       50
176
     0
 40
0.0
176
     0
 40
1.0
176
     0
 90
        0
176
     0
 62
    18
420
        0
176
     0
 90
       50
176
     0
 90
        3
176
     0
 62
     5
420
      255
176
     0
290
     0
176
     0
 90
       50
176
     0
 90
       50
176
     0
 90
       50
176
     0
290
     0
176
     0
 90
       50
176
     0
 62
   256
176
     0
 40
1.0
176
     0
 90
        2
176
     0
  1
strokes_ogs.tif
176
     0
290
     0
176
     0
 40
1.0
176
     0
 40
1.0
176
     0
  0
VISUALSTYLE
  5
38
102
{ACAD_REACTORS
330
29
102
}
330
29
100
AcDbVisualStyle
  2
Facepattern
 70
    15
177
     3
291
     1
 70
    58
 90
        2
176
     1
 90
        2
176
     1
 90
        0
176
     1
 90
        0
176
     1
 40
0.6
176
     1
 40
30.0
176
     1
 62
     7
420
 16777215
176
     1
 90
        1
176
     1
 90
        4
176
     1
 62
     7
176
     1
 62
   257
176
     1
 90
        1
176
     1
 90
        1
176
     1
 40
1.0
176
     1
 90
        8
176
     1
 62
     7
176
     1
 40
1.0
176
     1
 90
        1
176
     1
 90
        6
176
     1
 90
        2
176
     1
 62
     7
176
     1
 90
        5
176
     1
 90
        0
176
     1
 90
        0
176
     1
290
     0
176
     1
 90
        1
176
     1
 40
0.0
176
     1
 90
        0
176
     1
290
     0
176
     1
290
     1
176
     1
290
     1
176
     1
290
     0
176
     1
290
     0
176
     1
290
     0
176
     1
290
     0
176
     1
290
     0
176
     1
290
     0
176
     1
 90
       50
176
     1
 40
0.0
176
     1
 40
1.0
176
     1
 90
        0
176
     1
 62
    18
420
        0
176
     1
 90
       50
176
     1
 90
        3
176
     1
 62
     5
420
      255
176
     1
290
     0
176
     1
 90
       50
176
     1
 90
       50
176
     1
 90
       50
176
     1
290
     0
176
     1
 90
       50
176
     1
 62
   256
176
     0
 40
1.0
176
     0
 90
        2
176
     1
  1
strokes_ogs.tif
176
     1
290
     0
176
     1
 40
1.0
176
     1
 40
1.0
176
     1
  0
VISUALSTYLE
  5
2A
102
{ACAD_REACTORS
330
29
102
}
330
29
100
AcDbVisualStyle
  2
Flat
 70
     0
177
     3
291
     1
 70
    58
 90
        2
176
     1
 90
        1
176
     1
 90
        1
176
     1
 90
        2
176
     1
 40
0.6
176
     1
 40
30.0
176
     1
 62
     7
420
 16777215
176
     1
 90
        0
176
     1
 90
        0
176
     1
 62
     7
176
     1
 62
   257
176
     1
 90
        1
176
     1
 90
        1
176
     1
 40
1.0
176
     1
 90
        8
176
     1
 62
     7
176
     1
 40
1.0
176
     1
 90
        1
176
     1
 90
        6
176
     1
 90
        2
176
     1
 62
     7
176
     1
 90
        5
176
     1
 90
        0
176
     1
 90
        0
176
     1
290
     0
176
     1
 90
       13
176
     1
 40
0.0
176
     1
 90
        0
176
     1
290
     0
176
     1
290
     1
176
     1
290
     1
176
     1
290
     0
176
     1
290
     0
176
     1
290
     0
176
     1
290
     0
176
     1
290
     0
176
     1
290
     0
176
     1
 90
       50
176
     1
 40
0.0
176
     1
 40
1.0
176
     1
 90
        0
176
     1
 62
    18
420
        0
176
     1
 90
       50
176
     1
 90
        3
176
     1
 62
     5
420
      255
176
     1
290
     0
176
     1
 90
       50
176
     1
 90
       50
176
     1
 90
       50
176
     1
290
     0
176
     1
 90
       50
176
     1
 62
   256
176
     0
 40
1.0
176
     0
 90
        2
176
     1
  1
strokes_ogs.tif
176
     1
290
     0
176
     1
 40
1.0
176
     1
 40
1.0
176
     1
  0
VISUALSTYLE
  5
2B
102
{ACAD_REACTORS
330
29
102
}
330
29
100
AcDbVisualStyle
  2
FlatWithEdges
 70
     1
177
     3
291
     1
 70
    58
 90
        2
176
     1
 90
        1
176
     1
 90
        1
176
     1
 90
        2
176
     1
 40
0.6
176
     1
 40
30.0
176
     1
 62
     7
420
 16777215
176
     1
 90
        1
176
     1
 90
        0
176
     1
 62
     7
176
     1
 62
   257
176
     1
 90
        1
176
     1
 90
        1
176
     1
 40
1.0
176
     1
 90
        0
176
     1
 62
   257
176
     1
 40
1.0
176
     1
 90
        1
176
     1
 90
        6
176
     1
 90
        2
176
     1
 62
     7
176
     1
 90
        5
176
     1
 90
        0
176
     1
 90
        0
176
     1
290
     0
176
     1
 90
       13
176
     1
 40
0.0
176
     1
 90
        0
176
     1
290
     0
176
     1
290
     1
176
     1
290
     1
176
     1
290
     0
176
     1
290
     0
176
     1
290
     0
176
     1
290
     0
176
     1
290
     0
176
     1
290
     0
176
     1
 90
       50
176
     1
 40
0.0
176
     1
 40
1.0
176
     1
 90
        0
176
     1
 62
    18
420
        0
176
     1
 90
       50
176
     1
 90
        3
176
     1
 62
     5
420
      255
176
     1
290
     0
176
     1
 90
       50
176
     1
 90
       50
176
     1
 90
       50
176
     1
290
     0
176
     1
 90
       50
176
     1
 62
   256
176
     0
 40
1.0
176
     0
 90
        2
176
     1
  1
strokes_ogs.tif
176
     1
290
     0
176
     1
 40
1.0
176
     1
 40
1.0
176
     1
  0
VISUALSTYLE
  5
2C
102
{ACAD_REACTORS
330
29
102
}
330
29
100
AcDbVisualStyle
  2
Gouraud
 70
     2
177
     3
291
     1
 70
    58
 90
        2
176
     1
 90
        2
176
     1
 90
        1
176
     1
 90
        2
176
     1
 40
0.6
176
     1
 40
30.0
176
     1
 62
     7
420
 16777215
176
     1
 90
        0
176
     1
 90
        0
176
     1
 62
     7
176
     1
 62
   257
176
     1
 90
        1
176
     1
 90
        1
176
     1
 40
1.0
176
     1
 90
        0
176
     1
 62
     7
176
     1
 40
1.0
176
     1
 90
        1
176
     1
 90
        6
176
     1
 90
        2
176
     1
 62
     7
176
     1
 90
        5
176
     1
 90
        0
176
     1
 90
        0
176
     1
290
     0
176
     1
 90
       13
176
     1
 40
0.0
176
     1
 90
        0
176
     1
290
     0
176
     1
290
     1
176
     1
290
     1
176
     1
290
     0
176
     1
290
     0
176
     1
290
     0
176
     1
290
     0
176
     1
290
     0
176
     1
290
     0
176
     1
 90
       50
176
     1
 40
0.0
176
     1
 40
1.0
176
     1
 90
        0
176
     1
 62
    18
420
        0
176
     1
 90
       50
176
     1
 90
        3
176
     1
 62
     5
420
      255
176
     1
290
     0
176
     1
 90
       50
176
     1
 90
       50
176
     1
 90
       50
176
     1
290
     0
176
     1
 90
       50
176
     1
 62
   256
176
     0
 40
1.0
176
     0
 90
        2
176
     1
  1
strokes_ogs.tif
176
     1
290
     0
176
     1
 40
1.0
176
     1
 40
1.0
176
     1
  0
VISUALSTYLE
  5
2D
102
{ACAD_REACTORS
330
29
102
}
330
29
100
AcDbVisualStyle
  2
GouraudWithEdges
 70
     3
177
     3
291
     1
 70
    58
 90
        2
176
     1
 90
        2
176
     1
 90
        1
176
     1
 90
        2
176
     1
 40
0.6
176
     1
 40
30.0
176
     1
 62
     7
420
 16777215
176
     1
 90
        1
176
     1
 90
        0
176
     1
 62
     7
176
     1
 62
   257
176
     1
 90
        1
176
     1
 90
        1
176
     1
 40
1.0
176
     1
 90
        0
176
     1
 62
   257
176
     1
 40
1.0
176
     1
 90
        1
176
     1
 90
        6
176
     1
 90
        2
176
     1
 62
     7
176
     1
 90
        5
176
     1
 90
        0
176
     1
 90
        0
176
     1
290
     0
176
     1
 90
       13
176
     1
 40
0.0
176
     1
 90
        0
176
     1
290
     0
176
     1
290
     1
176
     1
290
     1
176
     1
290
     0
176
     1
290
     0
176
     1
290
     0
176
     1
290
     0
176
     1
290
     0
176
     1
290
     0
176
     1
 90
       50
176
     1
 40
0.0
176
     1
 40
1.0
176
     1
 90
        0
176
     1
 62
    18
420
        0
176
     1
 90
       50
176
     1
 90
        3
176
     1
 62
     5
420
      255
176
     1
290
     0
176
     1
 90
       50
176
     1
 90
       50
176
     1
 90
       50
176
     1
290
     0
176
     1
 90
       50
176
     1
 62
   256
176
     0
 40
1.0
176
     0
 90
        2
176
     1
  1
strokes_ogs.tif
176
     1
290
     0
176
     1
 40
1.0
176
     1
 40
1.0
176
     1
  0
VISUALSTYLE
  5
31
102
{ACAD_REACTORS
330
29
102
}
330
29
100
AcDbVisualStyle
  2
Hidden
 70
     6
177
     3
291
     0
 70
    58
 90
        1
176
     1
 90
        2
176
     1
 90
        2
176
     1
 90
        0
176
     1
 40
0.6
176
     1
 40
30.0
176
     1
 62
     7
420
 16777215
176
     1
 90
        2
176
     1
 90
        2
176
     1
 62
     7
176
     1
 62
   257
176
     1
 90
        2
176
     1
 90
        1
176
     1
 40
40.0
176
     1
 90
        0
176
     1
 62
   257
176
     1
 40
1.0
176
     1
 90
        1
176
     1
 90
        6
176
     1
 90
        2
176
     1
 62
     7
176
     1
 90
        3
176
     1
 90
        0
176
     1
 90
        0
176
     1
290
     0
176
     1
 90
        1
176
     1
 40
0.0
176
     1
 90
        0
176
     1
290
     0
176
     1
290
     1
176
     1
290
     1
176
     1
290
     0
176
     1
290
     0
176
     1
290
     0
176
     1
290
     0
176
     1
290
     0
176
     1
290
     0
176
     1
 90
       50
176
     1
 40
0.0
176
     1
 40
1.0
176
     1
 90
        0
176
     1
 62
    18
420
        0
176
     1
 90
       50
176
     1
 90
        3
176
     1
 62
     5
420
      255
176
     1
290
     0
176
     1
 90
       50
176
     1
 90
       50
176
     1
 90
       50
176
     1
290
     0
176
     1
 90
       50
176
     1
 62
   256
176
     0
 40
1.0
176
     0
 90
        2
176
     1
  1
strokes_ogs.tif
176
     1
290
     0
176
     1
 40
1.0
176
     1
 40
1.0
176
     1
  0
VISUALSTYLE
  5
3F
102
{ACAD_REACTORS
330
29
102
}
330
29
100
AcDbVisualStyle
  2
JitterOff
 70
    20
177
     3
291
     1
 70
    58
 90
        2
176
     0
 90
        2
176
     0
 90
        0
176
     0
 90
        0
176
     0
 40
0.6
176
     0
 40
30.0
176
     0
 62
     7
420
 16777215
176
     0
 90
        1
176
     0
 90
        4
176
     0
 62
     7
176
     0
 62
   257
176
     0
 90
        1
176
     0
 90
        1
176
     0
 40
1.0
176
     0
 90
       10
176
     2
 62
     7
176
     0
 40
1.0
176
     0
 90
        1
176
     0
 90
        6
176
     0
 90
        2
176
     0
 62
     7
176
     0
 90
        5
176
     0
 90
        0
176
     0
 90
        0
176
     0
290
     0
176
     0
 90
        1
176
     0
 40
0.0
176
     0
 90
        0
176
     0
290
     0
176
     0
290
     1
176
     0
290
     1
176
     0
290
     0
176
     0
290
     0
176
     0
290
     0
176
     0
290
     0
176
     0
290
     0
176
     0
290
     0
176
     0
 90
       50
176
     0
 40
0.0
176
     0
 40
1.0
176
     0
 90
        0
176
     0
 62
    18
420
        0
176
     0
 90
       50
176
     0
 90
        3
176
     0
 62
     5
420
      255
176
     0
290
     0
176
     0
 90
       50
176
     0
 90
       50
176
     0
 90
       50
176
     0
290
     0
176
     0
 90
       50
176
     0
 62
   256
176
     0
 40
1.0
176
     0
 90
        2
176
     0
  1
strokes_ogs.tif
176
     0
290
     0
176
     0
 40
1.0
176
     0
 40
1.0
176
     0
  0
VISUALSTYLE
  5
37
102
{ACAD_REACTORS
330
29
102
}
330
29
100
AcDbVisualStyle
  2
Linepattern
 70
    14
177
     3
291
     1
 70
    58
 90
        2
176
     1
 90
        2
176
     1
 90
        0
176
     1
 90
        0
176
     1
 40
0.6
176
     1
 40
30.0
176
     1
 62
     7
420
 16777215
176
     1
 90
        1
176
     1
 90
        4
176
     1
 62
     7
176
     1
 62
   257
176
     1
 90
        7
176
     1
 90
        7
176
     1
 40
1.0
176
     1
 90
        8
176
     1
 62
     7
176
     1
 40
1.0
176
     1
 90
        1
176
     1
 90
        6
176
     1
 90
        2
176
     1
 62
     7
176
     1
 90
        5
176
     1
 90
        0
176
     1
 90
        0
176
     1
290
     0
176
     1
 90
        1
176
     1
 40
0.0
176
     1
 90
        0
176
     1
290
     0
176
     1
290
     1
176
     1
290
     1
176
     1
290
     0
176
     1
290
     0
176
     1
290
     0
176
     1
290
     0
176
     1
290
     0
176
     1
290
     0
176
     1
 90
       50
176
     1
 40
0.0
176
     1
 40
1.0
176
     1
 90
        0
176
     1
 62
    18
420
        0
176
     1
 90
       50
176
     1
 90
        3
176
     1
 62
     5
420
      255
176
     1
290
     0
176
     1
 90
       50
176
     1
 90
       50
176
     1
 90
       50
176
     1
290
     0
176
     1
 90
       50
176
     1
 62
   256
176
     0
 40
1.0
176
     0
 90
        2
176
     1
  1
strokes_ogs.tif
176
     1
290
     0
176
     1
 40
1.0
176
     1
 40
1.0
176
     1
  0
VISUALSTYLE
  5
40
102
{ACAD_REACTORS
330
29
102
}
330
29
100
AcDbVisualStyle
  2
OverhangOff
 70
    21
177
     3
291
     1
 70
    58
 90
        2
176
     0
 90
        2
176
     0
 90
        0
176
     0
 90
        0
176
     0
 40
0.6
176
     0
 40
30.0
176
     0
 62
     7
420
 16777215
176
     0
 90
        1
176
     0
 90
        4
176
     0
 62
     7
176
     0
 62
   257
176
     0
 90
        1
176
     0
 90
        1
176
     0
 40
1.0
176
     0
 90
        9
176
     2
 62
     7
176
     0
 40
1.0
176
     0
 90
        1
176
     0
 90
        6
176
     0
 90
        2
176
     0
 62
     7
176
     0
 90
        5
176
     0
 90
        0
176
     0
 90
        0
176
     0
290
     0
176
     0
 90
        1
176
     0
 40
0.0
176
     0
 90
        0
176
     0
290
     0
176
     0
290
     1
176
     0
290
     1
176
     0
290
     0
176
     0
290
     0
176
     0
290
     0
176
     0
290
     0
176
     0
290
     0
176
     0
290
     0
176
     0
 90
       50
176
     0
 40
0.0
176
     0
 40
1.0
176
     0
 90
        0
176
     0
 62
    18
420
        0
176
     0
 90
       50
176
     0
 90
        3
176
     0
 62
     5
420
      255
176
     0
290
     0
176
     0
 90
       50
176
     0
 90
       50
176
     0
 90
       50
176
     0
290
     0
176
     0
 90
       50
176
     0
 62
   256
176
     0
 40
1.0
176
     0
 90
        2
176
     0
  1
strokes_ogs.tif
176
     0
290
     0
176
     0
 40
1.0
176
     0
 40
1.0
176
     0
  0
VISUALSTYLE
  5
33
102
{ACAD_REACTORS
330
29
102
}
330
29
100
AcDbVisualStyle
  2
Realistic
 70
     8
177
     3
291
     0
 70
    58
 90
        2
176
     1
 90
        3
176
     1
 90
        0
176
     1
 90
        2
176
     1
 40
0.6
176
     1
 40
30.0
176
     1
 62
     7
420
 16777215
176
     1
 90
        0
176
     1
 90
        0
176
     1
 62
     7
176
     1
 62
   257
176
     1
 90
        1
176
     1
 90
        1
176
     1
 40
1.0
176
     1
 90
        8
176
     1
 62
   257
176
     1
 40
1.0
176
     1
 90
        1
176
     1
 90
        6
176
     1
 90
        2
176
     1
 62
     7
176
     1
 90
        3
176
     1
 90
        0
176
     1
 90
        0
176
     1
290
     0
176
     1
 90
       13
176
     1
 40
0.0
176
     1
 90
        0
176
     1
290
     0
176
     1
290
     1
176
     1
290
     1
176
     1
290
     0
176
     1
290
     0
176
     1
290
     0
176
     1
290
     0
176
     1
290
     0
176
     1
290
     0
176
     1
 90
       50
176
     1
 40
0.0
176
     1
 40
1.0
176
     1
 90
        0
176
     1
 62
    18
420
        0
176
     1
 90
       50
176
     1
 90
        3
176
     1
 62
     5
420
      255
176
     1
290
     0
176
     1
 90
       50
176
     1
 90
       50
176
     1
 90
       50
176
     1
290
     0
176
     1
 90
       50
176
     1
 62
   256
176
     0
 40
1.0
176
     0
 90
        2
176
     1
  1
strokes_ogs.tif
176
     1
290
     0
176
     1
 40
1.0
176
     1
 40
1.0
176
     1
  0
VISUALSTYLE
  5
3E
102
{ACAD_REACTORS
330
29
102
}
330
29
100
AcDbVisualStyle
  2
Shaded
 70
    27
177
     3
291
     0
 70
    58
 90
        2
176
     1
 90
        2
176
     1
 90
        1
176
     1
 90
        2
176
     1
 40
0.6
176
     1
 40
30.0
176
     1
 62
     7
420
 16777215
176
     1
 90
        0
176
     1
 90
        4
176
     1
 62
     7
176
     1
 62
   257
176
     1
 90
        1
176
     1
 90
        1
176
     1
 40
1.0
176
     1
 90
        8
176
     1
 62
   257
176
     1
 40
1.0
176
     1
 90
        1
176
     1
 90
        6
176
     1
 90
        2
176
     1
 62
     8
420
  7895160
176
     1
 90
        3
176
     1
 90
        0
176
     1
 90
        0
176
     1
290
     0
176
     1
 90
        5
176
     1
 40
0.0
176
     1
 90
        0
176
     1
290
     0
176
     1
290
     1
176
     1
290
     1
176
     1
290
     0
176
     1
290
     0
176
     1
290
     0
176
     1
290
     0
176
     1
290
     0
176
     1
290
     0
176
     1
 90
       50
176
     1
 40
0.0
176
     1
 40
1.0
176
     1
 90
        0
176
     1
 62
    18
420
        0
176
     1
 90
       50
176
     1
 90
        3
176
     1
 62
     5
420
      255
176
     1
290
     0
176
     1
 90
       50
176
     1
 90
       50
176
     1
 90
       50
176
     1
290
     0
176
     1
 90
       50
176
     1
 62
   256
176
     0
 40
1.0
176
     0
 90
        2
176
     1
  1
strokes_ogs.tif
176
     1
290
     0
176
     1
 40
1.0
176
     1
 40
1.0
176
     1
  0
VISUALSTYLE
  5
3D
102
{ACAD_REACTORS
330
29
102
}
330
29
100
AcDbVisualStyle
  2
Shaded with edges
 70
    26
177
     3
291
     0
 70
    58
 90
        2
176
     1
 90
        2
176
     1
 90
        1
176
     1
 90
        2
176
     1
 40
0.6
176
     1
 40
30.0
176
     1
 62
     7
420
 16777215
176
     1
 90
        1
176
     1
 90
        2
176
     1
 62
     7
176
     1
 62
   257
176
     1
 90
        2
176
     1
 90
        1
176
     1
 40
1.0
176
     1
 90
        8
176
     1
 62
   257
176
     1
 40
1.0
176
     1
 90
        1
176
     1
 90
        6
176
     1
 90
        2
176
     1
 62
     7
176
     1
 90
        3
176
     1
 90
        0
176
     1
 90
        0
176
     1
290
     0
176
     1
 90
        5
176
     1
 40
0.0
176
     1
 90
        0
176
     1
290
     0
176
     1
290
     1
176
     1
290
     1
176
     1
290
     0
176
     1
290
     0
176
     1
290
     0
176
     1
290
     0
176
     1
290
     0
176
     1
290
     0
176
     1
 90
       50
176
     1
 40
0.0
176
     1
 40
1.0
176
     1
 90
        0
176
     1
 62
    18
420
        0
176
     1
 90
       50
176
     1
 90
        3
176
     1
 62
     5
420
      255
176
     1
290
     0
176
     1
 90
       50
176
     1
 90
       50
176
     1
 90
       50
176
     1
290
     0
176
     1
 90
       50
176
     1
 62
   256
176
     0
 40
1.0
176
     0
 90
        2
176
     1
  1
strokes_ogs.tif
176
     1
290
     0
176
     1
 40
1.0
176
     1
 40
1.0
176
     1
  0
VISUALSTYLE
  5
3A
102
{ACAD_REACTORS
330
29
102
}
330
29
100
AcDbVisualStyle
  2
Shades of Gray
 70
    23
177
     3
291
     0
 70
    58
 90
        2
176
     1
 90
        2
176
     1
 90
        3
176
     1
 90
        0
176
     1
 40
0.6
176
     1
 40
30.0
176
     1
 62
     7
420
 16777215
176
     1
 90
        2
176
     1
 90
        2
176
     1
 62
     7
176
     1
 62
     7
176
     1
 90
        1
176
     1
 90
        1
176
     1
 40
40.0
176
     1
 90
        8
176
     1
 62
     7
176
     1
 40
1.0
176
     1
 90
        1
176
     1
 90
        6
176
     1
 90
        2
176
     1
 62
     7
176
     1
 90
        3
176
     1
 90
        0
176
     1
 90
        0
176
     1
290
     0
176
     1
 90
        1
176
     1
 40
0.0
176
     1
 90
        0
176
     1
290
     0
176
     1
290
     1
176
     1
290
     1
176
     1
290
     0
176
     1
290
     0
176
     1
290
     0
176
     1
290
     0
176
     1
290
     0
176
     1
290
     0
176
     1
 90
       50
176
     1
 40
0.0
176
     1
 40
1.0
176
     1
 90
        0
176
     1
 62
    18
420
        0
176
     1
 90
       50
176
     1
 90
        3
176
     1
 62
     5
420
      255
176
     1
290
     0
176
     1
 90
       50
176
     1
 90
       50
176
     1
 90
       50
176
     1
290
     0
176
     1
 90
       50
176
     1
 62
   256
176
     0
 40
1.0
176
     0
 90
        2
176
     1
  1
strokes_ogs.tif
176
     1
290
     0
176
     1
 40
1.0
176
     1
 40
1.0
176
     1
  0
VISUALSTYLE
  5
3B
102
{ACAD_REACTORS
330
29
102
}
330
29
100
AcDbVisualStyle
  2
Sketchy
 70
    24
177
     3
291
     0
 70
    58
 90
        1
176
     1
 90
        2
176
     1
 90
        2
176
     1
 90
        0
176
     1
 40
0.6
176
     1
 40
30.0
176
     1
 62
     7
420
 16777215
176
     1
 90
        2
176
     1
 90
        2
176
     1
 62
     7
176
     1
 62
     7
176
     1
 90
        1
176
     1
 90
        1
176
     1
 40
40.0
176
     1
 90
       11
176
     1
 62
     7
176
     1
 40
1.0
176
     1
 90
        1
176
     1
 90
        6
176
     1
 90
        2
176
     1
 62
     7
176
     1
 90
        6
176
     1
 90
        0
176
     1
 90
        0
176
     1
290
     0
176
     1
 90
        1
176
     1
 40
0.0
176
     1
 90
        0
176
     1
290
     0
176
     1
290
     1
176
     1
290
     1
176
     1
290
     0
176
     1
290
     0
176
     1
290
     0
176
     1
290
     0
176
     1
290
     0
176
     1
290
     0
176
     1
 90
       50
176
     1
 40
0.0
176
     1
 40
1.0
176
     1
 90
        0
176
     1
 62
    18
420
        0
176
     1
 90
       50
176
     1
 90
        3
176
     1
 62
     5
420
      255
176
     1
290
     0
176
     1
 90
       50
176
     1
 90
       50
176
     1
 90
       50
176
     1
290
     0
176
     1
 90
       50
176
     1
 62
   256
176
     0
 40
1.0
176
     0
 90
        2
176
     1
  1
strokes_ogs.tif
176
     1
290
     0
176
     1
 40
1.0
176
     1
 40
1.0
176
     1
  0
VISUALSTYLE
  5
36
102
{ACAD_REACTORS
330
29
102
}
330
29
100
AcDbVisualStyle
  2
Thicken
 70
    13
177
     3
291
     1
 70
    58
 90
        2
176
     1
 90
        2
176
     1
 90
        0
176
     1
 90
        0
176
     1
 40
0.6
176
     1
 40
30.0
176
     1
 62
     7
420
 16777215
176
     1
 90
        1
176
     1
 90
        4
176
     1
 62
     7
176
     1
 62
   257
176
     1
 90
        1
176
     1
 90
        1
176
     1
 40
1.0
176
     1
 90
       12
176
     1
 62
     7
176
     1
 40
1.0
176
     1
 90
        1
176
     1
 90
        6
176
     1
 90
        2
176
     1
 62
     7
176
     1
 90
        5
176
     1
 90
        0
176
     1
 90
        0
176
     1
290
     0
176
     1
 90
        1
176
     1
 40
0.0
176
     1
 90
        0
176
     1
290
     0
176
     1
290
     1
176
     1
290
     1
176
     1
290
     0
176
     1
290
     0
176
     1
290
     0
176
     1
290
     0
176
     1
290
     0
176
     1
290
     0
176
     1
 90
       50
176
     1
 40
0.0
176
     1
 40
1.0
176
     1
 90
        0
176
     1
 62
    18
420
        0
176
     1
 90
       50
176
     1
 90
        3
176
     1
 62
     5
420
      255
176
     1
290
     0
176
     1
 90
       50
176
     1
 90
       50
176
     1
 90
       50
176
     1
290
     0
176
     1
 90
       50
176
     1
 62
   256
176
     0
 40
1.0
176
     0
 90
        2
176
     1
  1
strokes_ogs.tif
176
     1
290
     0
176
     1
 40
1.0
176
     1
 40
1.0
176
     1
  0
VISUALSTYLE
  5
30
102
{ACAD_REACTORS
330
29
102
}
330
29
100
AcDbVisualStyle
  2
Wireframe
 70
     5
177
     3
291
     0
 70
    58
 90
        0
176
     1
 90
        2
176
     1
 90
        0
176
     1
 90
        0
176
     1
 40
0.6
176
     1
 40
30.0
176
     1
 62
     7
420
 16777215
176
     1
 90
        1
176
     1
 90
        4
176
     1
 62
     7
176
     1
 62
   257
176
     1
 90
        1
176
     1
 90
        1
176
     1
 40
1.0
176
     1
 90
        0
176
     1
 62
   257
176
     1
 40
1.0
176
     1
 90
        1
176
     1
 90
        6
176
     1
 90
        2
176
     1
 62
     7
176
     1
 90
        3
176
     1
 90
        0
176
     1
 90
        0
176
     1
290
     0
176
     1
 90
        1
176
     1
 40
0.0
176
     1
 90
        0
176
     1
290
     0
176
     1
290
     1
176
     1
290
     1
176
     1
290
     0
176
     1
290
     0
176
     1
290
     0
176
     1
290
     0
176
     1
290
     0
176
     1
290
     0
176
     1
 90
       50
176
     1
 40
0.0
176
     1
 40
1.0
176
     1
 90
        0
176
     1
 62
    18
420
        0
176
     1
 90
       50
176
     1
 90
        3
176
     1
 62
     5
420
      255
176
     1
290
     0
176
     1
 90
       50
176
     1
 90
       50
176
     1
 90
       50
176
     1
290
     0
176
     1
 90
       50
176
     1
 62
   256
176
     0
 40
1.0
176
     0
 90
        2
176
     1
  1
strokes_ogs.tif
176
     1
290
     0
176
     1
 40
1.0
176
     1
 40
1.0
176
     1
  0
VISUALSTYLE
  5
3C
102
{ACAD_REACTORS
330
29
102
}
330
29
100
AcDbVisualStyle
  2
X-Ray
 70
    25
177
     3
291
     0
 70
    58
 90
        2
176
     1
 90
        2
176
     1
 90
        1
176
     1
 90
        1
176
     1
 40
0.5
176
     1
 40
30.0
176
     1
 62
     7
420
 16777215
176
     1
 90
        1
176
     1
 90
        0
176
     1
 62
     7
176
     1
 62
   257
176
     1
 90
        1
176
     1
 90
        1
176
     1
 40
1.0
176
     1
 90
        8
176
     1
 62
     7
176
     1
 40
1.0
176
     1
 90
        1
176
     1
 90
        6
176
     1
 90
        2
176
     1
 62
     7
176
     1
 90
        3
176
     1
 90
        0
176
     1
 90
        0
176
     1
290
     0
176
     1
 90
       13
176
     1
 40
0.0
176
     1
 90
        0
176
     1
290
     0
176
     1
290
     1
176
     1
290
     1
176
     1
290
     0
176
     1
290
     0
176
     1
290
     0
176
     1
290
     0
176
     1
290
     0
176
     1
290
     0
176
     1
 90
       50
176
     1
 40
0.0
176
     1
 40
1.0
176
     1
 90
        0
176
     1
 62
    18
420
        0
176
     1
 90
       50
176
     1
 90
        3
176
     1
 62
     5
420
      255
176
     1
290
     0
176
     1
 90
       50
176
     1
 90
       50
176
     1
 90
       50
176
     1
290
     0
176
     1
 90
       50
176
     1
 62
   256
176
     0
 40
1.0
176
     0
 90
        2
176
     1
  1
strokes_ogs.tif
176
     1
290
     0
176
     1
 40
1.0
176
     1
 40
1.0
176
     1
  0
DICTIONARYVAR
  5
142
102
{ACAD_REACTORS
330
13D
102
}
330
13D
100
DictionaryVariables
280
     0
  1
1:1
  0
DICTIONARYVAR
  5
13F
102
{ACAD_REACTORS
330
13D
102
}
330
13D
100
DictionaryVariables
280
     0
  1
STANDARD
  0
DICTIONARYVAR
  5
13E
102
{ACAD_REACTORS
330
13D
102
}
330
13D
100
DictionaryVariables
280
     0
  1
STANDARD
  0
DICTIONARYVAR
  5
140
102
{ACAD_REACTORS
330
13D
102
}
330
13D
100
DictionaryVariables
280
     0
  1
Imperial24
  0
DICTIONARYVAR
  5
141
102
{ACAD_REACTORS
330
13D
102
}
330
13D
100
DictionaryVariables
280
     0
  1
Imperial24
  0
DICTIONARY
  5
1A
330
19
100
AcDbDictionary
280
     1
281
     1
  3
BUMPTILE
360
1C
  3
DIFFUSETILE
360
1B
  3
OPACITYTILE
360
1F
  3
REFLECTIONTILE
360
1E
  3
REFRACTIONTILE
360
20
  3
SPECULARTILE
360
1D
  0
DICTIONARY
  5
12
330
11
100
AcDbDictionary
280
     1
281
     1
  3
BUMPTILE
360
14
  3
DIFFUSETILE
360
13
  3
OPACITYTILE
360
17
  3
REFLECTIONTILE
360
16
  3
REFRACTIONTILE
360
18
  3
SPECULARTILE
360
15
  0
DICTIONARY
  5
22
330
21
100
AcDbDictionary
280
     1
281
     1
  3
BUMPTILE
360
24
  3
DIFFUSETILE
360
23
  3
OPACITYTILE
360
27
  3
REFLECTIONTILE
360
26
  3
REFRACTIONTILE
360
28
  3
SPECULARTILE
360
25
  0
DICTIONARY
  5
143
330
65
100
AcDbDictionary
280
     1
281
     1
  3
ACAD_ROUNDTRIP_2008_TABLESTYLE_CELLSTYLEMAP
360
144
  0
XRECORD
  5
1C
102
{ACAD_REACTORS
330
1A
102
}
330
1A
100
AcDbXrecord
280
     1
270
     1
271
     1
  0
XRECORD
  5
1B
102
{ACAD_REACTORS
330
1A
102
}
330
1A
100
AcDbXrecord
280
     1
270
     1
271
     1
  0
XRECORD
  5
1F
102
{ACAD_REACTORS
330
1A
102
}
330
1A
100
AcDbXrecord
280
     1
270
     1
271
     1
  0
XRECORD
  5
1E
102
{ACAD_REACTORS
330
1A
102
}
330
1A
100
AcDbXrecord
280
     1
270
     1
271
     1
  0
XRECORD
  5
20
102
{ACAD_REACTORS
330
1A
102
}
330
1A
100
AcDbXrecord
280
     1
270
     1
271
     1
  0
XRECORD
  5
1D
102
{ACAD_REACTORS
330
1A
102
}
330
1A
100
AcDbXrecord
280
     1
270
     1
271
     1
  0
XRECORD
  5
14
102
{ACAD_REACTORS
330
12
102
}
330
12
100
AcDbXrecord
280
     1
270
     1
271
     1
  0
XRECORD
  5
13
102
{ACAD_REACTORS
330
12
102
}
330
12
100
AcDbXrecord
280
     1
270
     1
271
     1
  0
XRECORD
  5
17
102
{ACAD_REACTORS
330
12
102
}
330
12
100
AcDbXrecord
280
     1
270
     1
271
     1
  0
XRECORD
  5
16
102
{ACAD_REACTORS
330
12
102
}
330
12
100
AcDbXrecord
280
     1
270
     1
271
     1
  0
XRECORD
  5
18
102
{ACAD_REACTORS
330
12
102
}
330
12
100
AcDbXrecord
280
     1
270
     1
271
     1
  0
XRECORD
  5
15
102
{ACAD_REACTORS
330
12
102
}
330
12
100
AcDbXrecord
280
     1
270
     1
271
     1
  0
XRECORD
  5
24
102
{ACAD_REACTORS
330
22
102
}
330
22
100
AcDbXrecord
280
     1
270
     1
271
     1
  0
XRECORD
  5
23
102
{ACAD_REACTORS
330
22
102
}
330
22
100
AcDbXrecord
280
     1
270
     1
271
     1
  0
XRECORD
  5
27
102
{ACAD_REACTORS
330
22
102
}
330
22
100
AcDbXrecord
280
     1
270
     1
271
     1
  0
XRECORD
  5
26
102
{ACAD_REACTORS
330
22
102
}
330
22
100
AcDbXrecord
280
     1
270
     1
271
     1
  0
XRECORD
  5
28
102
{ACAD_REACTORS
330
22
102
}
330
22
100
AcDbXrecord
280
     1
270
     1
271
     1
  0
XRECORD
  5
25
102
{ACAD_REACTORS
330
22
102
}
330
22
100
AcDbXrecord
280
     1
270
     1
271
     1
  0
CELLSTYLEMAP
  5
144
102
{ACAD_REACTORS
330
143
102
}
330
143
100
AcDbCellStyleMap
 90
        3
300
CELLSTYLE
  1
TABLEFORMAT_BEGIN
 90
        5
170
     1
 91
        0
 92
    32768
 62
   257
 93
        1
300
CONTENTFORMAT
  1
CONTENTFORMAT_BEGIN
 90
        0
 91
        0
 92
      512
 93
        0
300

 40
0.0
140
1.0
 94
        5
 62
     0
340
55
144
0.25
309
CONTENTFORMAT_END
171
     0
 94
        0
309
TABLEFORMAT_END
  1
CELLSTYLE_BEGIN
 90
        1
 91
        1
300
_TITLE
309
CELLSTYLE_END
300
CELLSTYLE
  1
TABLEFORMAT_BEGIN
 90
        5
170
     1
 91
        0
 92
        0
 62
   257
 93
        1
300
CONTENTFORMAT
  1
CONTENTFORMAT_BEGIN
 90
        0
 91
        0
 92
      512
 93
        0
300

 40
0.0
140
1.0
 94
        5
 62
     0
340
55
144
0.18
309
CONTENTFORMAT_END
171
     0
 94
        0
309
TABLEFORMAT_END
  1
CELLSTYLE_BEGIN
 90
        2
 91
        1
300
_HEADER
309
CELLSTYLE_END
300
CELLSTYLE
  1
TABLEFORMAT_BEGIN
 90
        5
170
     1
 91
        0
 92
        0
 62
   257
 93
        1
300
CONTENTFORMAT
  1
CONTENTFORMAT_BEGIN
 90
        0
 91
        0
 92
      512
 93
        0
300

 40
0.0
140
1.0
 94
        2
 62
     0
340
55
144
0.18
309
CONTENTFORMAT_END
171
     0
 94
        0
309
TABLEFORMAT_END
  1
CELLSTYLE_BEGIN
 90
        3
 91
        2
300
_DATA
309
CELLSTYLE_END
  0
ENDSEC
  0
EOF
