  0
SECTION
  2
HEADER
  9
$ACADVER
  1
AC1032
  9
$ACADMAINTVER
 90
      329
  9
$DWGCODEPAGE
  3
ANSI_936
  9
$REQUIREDVERSIONS
160
                 0
  9
$INSBASE
 10
0.0
 20
0.0
 30
0.0
  9
$EXTMIN
 10
1.000000000000000E+20
 20
1.000000000000000E+20
 30
1.000000000000000E+20
  9
$EXTMAX
 10
-1.000000000000000E+20
 20
-1.000000000000000E+20
 30
-1.000000000000000E+20
  9
$LIMMIN
 10
0.0
 20
0.0
  9
$LIMMAX
 10
12.0
 20
9.0
  9
$ORTHOMODE
 70
     0
  9
$REGENMODE
 70
     1
  9
$FILLMODE
 70
     1
  9
$QTEXTMODE
 70
     0
  9
$MIRRTEXT
 70
     0
  9
$LTSCALE
 40
1.0
  9
$ATTMODE
 70
     1
  9
$TEXTSIZE
 40
0.2
  9
$TRACEWID
 40
0.05
  9
$TEXTSTYLE
  7
Standard
  9
$CLAYER
  8
0
  9
$CELTYPE
  6
ByLayer
  9
$CECOLOR
 62
   256
  9
$CELTSCALE
 40
1.0
  9
$DISPSILH
 70
     0
  9
$DIMSCALE
 40
1.0
  9
$DIMASZ
 40
0.18
  9
$DIMEXO
 40
0.0625
  9
$DIMDLI
 40
0.38
  9
$DIMRND
 40
0.0
  9
$DIMDLE
 40
0.0
  9
$DIMEXE
 40
0.18
  9
$DIMTP
 40
0.0
  9
$DIMTM
 40
0.0
  9
$DIMTXT
 40
0.18
  9
$DIMCEN
 40
0.09
  9
$DIMTSZ
 40
0.0
  9
$DIMTOL
 70
     0
  9
$DIMLIM
 70
     0
  9
$DIMTIH
 70
     1
  9
$DIMTOH
 70
     1
  9
$DIMSE1
 70
     0
  9
$DIMSE2
 70
     0
  9
$DIMTAD
 70
     0
  9
$DIMZIN
 70
     0
  9
$DIMBLK
  1

  9
$DIMASO
 70
     1
  9
$DIMSHO
 70
     1
  9
$DIMPOST
  1

  9
$DIMAPOST
  1

  9
$DIMALT
 70
     0
  9
$DIMALTD
 70
     2
  9
$DIMALTF
 40
25.4
  9
$DIMLFAC
 40
1.0
  9
$DIMTOFL
 70
     0
  9
$DIMTVP
 40
0.0
  9
$DIMTIX
 70
     0
  9
$DIMSOXD
 70
     0
  9
$DIMSAH
 70
     0
  9
$DIMBLK1
  1

  9
$DIMBLK2
  1

  9
$DIMSTYLE
  2
Standard
  9
$DIMCLRD
 70
     0
  9
$DIMCLRE
 70
     0
  9
$DIMCLRT
 70
     0
  9
$DIMTFAC
 40
1.0
  9
$DIMGAP
 40
0.09
  9
$DIMJUST
 70
     0
  9
$DIMSD1
 70
     0
  9
$DIMSD2
 70
     0
  9
$DIMTOLJ
 70
     1
  9
$DIMTZIN
 70
     0
  9
$DIMALTZ
 70
     0
  9
$DIMALTTZ
 70
     0
  9
$DIMUPT
 70
     0
  9
$DIMDEC
 70
     4
  9
$DIMTDEC
 70
     4
  9
$DIMALTU
 70
     2
  9
$DIMALTTD
 70
     2
  9
$DIMTXSTY
  7
Standard
  9
$DIMAUNIT
 70
     0
  9
$DIMADEC
 70
     0
  9
$DIMALTRND
 40
0.0
  9
$DIMAZIN
 70
     0
  9
$DIMDSEP
 70
    46
  9
$DIMATFIT
 70
     3
  9
$DIMFRAC
 70
     0
  9
$DIMLDRBLK
  1

  9
$DIMLUNIT
 70
     2
  9
$DIMLWD
 70
    -2
  9
$DIMLWE
 70
    -2
  9
$DIMTMOVE
 70
     0
  9
$DIMFXL
 40
1.0
  9
$DIMFXLON
 70
     0
  9
$DIMJOGANG
 40
0.7853981633974483
  9
$DIMTFILL
 70
     0
  9
$DIMTFILLCLR
 70
     0
  9
$DIMARCSYM
 70
     0
  9
$DIMLTYPE
  6

  9
$DIMLTEX1
  6

  9
$DIMLTEX2
  6

  9
$DIMTXTDIRECTION
 70
     0
  9
$LUNITS
 70
     2
  9
$LUPREC
 70
     4
  9
$SKETCHINC
 40
0.1
  9
$FILLETRAD
 40
0.0
  9
$AUNITS
 70
     0
  9
$AUPREC
 70
     0
  9
$MENU
  1
.
  9
$ELEVATION
 40
0.0
  9
$PELEVATION
 40
0.0
  9
$THICKNESS
 40
0.0
  9
$LIMCHECK
 70
     0
  9
$CHAMFERA
 40
0.0
  9
$CHAMFERB
 40
0.0
  9
$CHAMFERC
 40
0.0
  9
$CHAMFERD
 40
0.0
  9
$SKPOLY
 70
     0
  9
$TDCREATE
 40
2460887.407071759
  9
$TDUCREATE
 40
2460887.073738426
  9
$TDUPDATE
 40
2460887.407071759
  9
$TDUUPDATE
 40
2460887.073738426
  9
$TDINDWG
 40
0.0000000000
  9
$TDUSRTIMER
 40
0.0000000000
  9
$USRTIMER
 70
     1
  9
$ANGBASE
 50
0.0
  9
$ANGDIR
 70
     0
  9
$PDMODE
 70
     0
  9
$PDSIZE
 40
0.0
  9
$PLINEWID
 40
0.0
  9
$SPLFRAME
 70
     0
  9
$SPLINETYPE
 70
     6
  9
$SPLINESEGS
 70
     8
  9
$HANDSEED
  5
395
  9
$SURFTAB1
 70
     6
  9
$SURFTAB2
 70
     6
  9
$SURFTYPE
 70
     6
  9
$SURFU
 70
     6
  9
$SURFV
 70
     6
  9
$UCSBASE
  2

  9
$UCSNAME
  2

  9
$UCSORG
 10
0.0
 20
0.0
 30
0.0
  9
$UCSXDIR
 10
1.0
 20
0.0
 30
0.0
  9
$UCSYDIR
 10
0.0
 20
1.0
 30
0.0
  9
$UCSORTHOREF
  2

  9
$UCSORTHOVIEW
 70
     0
  9
$UCSORGTOP
 10
0.0
 20
0.0
 30
0.0
  9
$UCSORGBOTTOM
 10
0.0
 20
0.0
 30
0.0
  9
$UCSORGLEFT
 10
0.0
 20
0.0
 30
0.0
  9
$UCSORGRIGHT
 10
0.0
 20
0.0
 30
0.0
  9
$UCSORGFRONT
 10
0.0
 20
0.0
 30
0.0
  9
$UCSORGBACK
 10
0.0
 20
0.0
 30
0.0
  9
$PUCSBASE
  2

  9
$PUCSNAME
  2

  9
$PUCSORG
 10
0.0
 20
0.0
 30
0.0
  9
$PUCSXDIR
 10
1.0
 20
0.0
 30
0.0
  9
$PUCSYDIR
 10
0.0
 20
1.0
 30
0.0
  9
$PUCSORTHOREF
  2

  9
$PUCSORTHOVIEW
 70
     0
  9
$PUCSORGTOP
 10
0.0
 20
0.0
 30
0.0
  9
$PUCSORGBOTTOM
 10
0.0
 20
0.0
 30
0.0
  9
$PUCSORGLEFT
 10
0.0
 20
0.0
 30
0.0
  9
$PUCSORGRIGHT
 10
0.0
 20
0.0
 30
0.0
  9
$PUCSORGFRONT
 10
0.0
 20
0.0
 30
0.0
  9
$PUCSORGBACK
 10
0.0
 20
0.0
 30
0.0
  9
$USERI1
 70
     0
  9
$USERI2
 70
     0
  9
$USERI3
 70
     0
  9
$USERI4
 70
     0
  9
$USERI5
 70
     0
  9
$USERR1
 40
0.0
  9
$USERR2
 40
0.0
  9
$USERR3
 40
0.0
  9
$USERR4
 40
0.0
  9
$USERR5
 40
0.0
  9
$WORLDVIEW
 70
     1
  9
$SHADEDGE
 70
     3
  9
$SHADEDIF
 70
    70
  9
$TILEMODE
 70
     1
  9
$MAXACTVP
 70
    64
  9
$PINSBASE
 10
0.0
 20
0.0
 30
0.0
  9
$PLIMCHECK
 70
     0
  9
$PEXTMIN
 10
1.000000000000000E+20
 20
1.000000000000000E+20
 30
1.000000000000000E+20
  9
$PEXTMAX
 10
-1.000000000000000E+20
 20
-1.000000000000000E+20
 30
-1.000000000000000E+20
  9
$PLIMMIN
 10
0.0
 20
0.0
  9
$PLIMMAX
 10
12.0
 20
9.0
  9
$UNITMODE
 70
     0
  9
$VISRETAIN
 70
     1
  9
$PLINEGEN
 70
     0
  9
$PSLTSCALE
 70
     1
  9
$TREEDEPTH
 70
  3020
  9
$CMLSTYLE
  2
Standard
  9
$CMLJUST
 70
     0
  9
$CMLSCALE
 40
1.0
  9
$PROXYGRAPHICS
 70
     1
  9
$MEASUREMENT
 70
     0
  9
$CELWEIGHT
370
    -1
  9
$ENDCAPS
280
     0
  9
$JOINSTYLE
280
     0
  9
$LWDISPLAY
290
     1
  9
$INSUNITS
 70
     1
  9
$HYPERLINKBASE
  1

  9
$STYLESHEET
  1

  9
$XEDIT
290
     1
  9
$CEPSNTYPE
380
     0
  9
$PSTYLEMODE
290
     1
  9
$FINGERPRINTGUID
  2
{F02FE408-1C25-B54C-BB1A-C8488BAD0348}
  9
$VERSIONGUID
  2
{54C1A5AC-BD9F-FE43-A245-5CFC19C952E8}
  9
$EXTNAMES
290
     1
  9
$PSVPSCALE
 40
0.0
  9
$OLESTARTUP
290
     0
  9
$SORTENTS
280
   127
  9
$INDEXCTL
280
     0
  9
$HIDETEXT
280
     1
  9
$XCLIPFRAME
280
     2
  9
$HALOGAP
280
     0
  9
$OBSCOLOR
 70
   257
  9
$OBSLTYPE
280
     0
  9
$INTERSECTIONDISPLAY
280
     0
  9
$INTERSECTIONCOLOR
 70
   257
  9
$DIMASSOC
280
     2
  9
$PROJECTNAME
  1

  9
$CAMERADISPLAY
290
     0
  9
$LENSLENGTH
 40
50.0
  9
$CAMERAHEIGHT
 40
0.0
  9
$STEPSPERSEC
 40
2.0
  9
$STEPSIZE
 40
6.0
  9
$3DDWFPREC
 40
2.0
  9
$PSOLWIDTH
 40
0.25
  9
$PSOLHEIGHT
 40
4.0
  9
$LOFTANG1
 40
1.570796326794896
  9
$LOFTANG2
 40
1.570796326794896
  9
$LOFTMAG1
 40
0.0
  9
$LOFTMAG2
 40
0.0
  9
$LOFTPARAM
 70
     7
  9
$LOFTNORMALS
280
     1
  9
$LATITUDE
 40
37.795
  9
$LONGITUDE
 40
-122.394
  9
$NORTHDIRECTION
 40
0.0
  9
$TIMEZONE
 70
 -8000
  9
$LIGHTGLYPHDISPLAY
280
     1
  9
$TILEMODELIGHTSYNCH
280
     1
  9
$CMATERIAL
347
11
  9
$SOLIDHIST
280
     0
  9
$SHOWHIST
280
     1
  9
$DWFFRAME
280
     2
  9
$DGNFRAME
280
     0
  9
$REALWORLDSCALE
290
     1
  9
$INTERFERECOLOR
 62
     1
  9
$INTERFEREOBJVS
345
33
  9
$INTERFEREVPVS
346
30
  9
$CSHADOW
280
     0
  9
$SHADOWPLANELOCATION
 40
0.0
  0
ENDSEC
  0
SECTION
  2
CLASSES
  0
CLASS
  1
ACDBDICTIONARYWDFLT
  2
AcDbDictionaryWithDefault
  3
ObjectDBX Classes
 90
        0
 91
        1
280
     0
281
     0
  0
CLASS
  1
MATERIAL
  2
AcDbMaterial
  3
ObjectDBX Classes
 90
     1153
 91
        3
280
     0
281
     0
  0
CLASS
  1
VISUALSTYLE
  2
AcDbVisualStyle
  3
ObjectDBX Classes
 90
     4095
 91
       24
280
     0
281
     0
  0
CLASS
  1
SCALE
  2
AcDbScale
  3
ObjectDBX Classes
 90
     1153
 91
       17
280
     0
281
     0
  0
CLASS
  1
TABLESTYLE
  2
AcDbTableStyle
  3
ObjectDBX Classes
 90
     4095
 91
        1
280
     0
281
     0
  0
CLASS
  1
MLEADERSTYLE
  2
AcDbMLeaderStyle
  3
ACDB_MLEADERSTYLE_CLASS
 90
     4095
 91
        1
280
     0
281
     0
  0
CLASS
  1
ACDBSECTIONVIEWSTYLE
  2
AcDbSectionViewStyle
  3
ObjectDBX Classes
 90
     1025
 91
        1
280
     0
281
     0
  0
CLASS
  1
ACDBDETAILVIEWSTYLE
  2
AcDbDetailViewStyle
  3
ObjectDBX Classes
 90
     1025
 91
        1
280
     0
281
     0
  0
CLASS
  1
DICTIONARYVAR
  2
AcDbDictionaryVar
  3
ObjectDBX Classes
 90
        0
 91
        5
280
     0
281
     0
  0
CLASS
  1
CELLSTYLEMAP
  2
AcDbCellStyleMap
  3
ObjectDBX Classes
 90
     1152
 91
        1
280
     0
281
     0
  0
ENDSEC
  0
SECTION
  2
TABLES
  0
TABLE
  2
VPORT
  5
8
330
0
100
AcDbSymbolTable
 70
     1
  0
VPORT
  5
57
330
8
100
AcDbSymbolTableRecord
100
AcDbViewportTableRecord
  2
*Active
 70
     0
 10
0.0
 20
0.0
 11
1.0
 21
1.0
 12
0.0
 22
0.0
 13
0.0
 23
0.0
 14
1.0
 24
1.0
 15
0.0
 25
0.0
 16
0.0
 26
0.0
 36
1.0
 17
10.0
 27
-15.0
 37
0.0
 40
30.6
 41
0.6666666666666666
 42
50.0
 43
0.0
 44
0.0
 50
0.0
 51
0.0
 71
     0
 72
   100
 73
     1
 74
     1
 75
     0
 76
     0
 77
     0
 78
     0
281
     0
 65
     1
110
0.0
120
0.0
130
0.0
111
1.0
121
0.0
131
0.0
112
0.0
122
1.0
132
0.0
 79
     0
146
0.0
 60
     3
 61
     5
292
     1
282
     1
141
0.0
142
0.0
 63
   250
421
  3355443
  0
ENDTAB
  0
TABLE
  2
LTYPE
  5
5
330
0
100
AcDbSymbolTable
 70
     1
  0
LTYPE
  5
5B
330
5
100
AcDbSymbolTableRecord
100
AcDbLinetypeTableRecord
  2
ByBlock
 70
     0
  3

 72
    65
 73
     0
 40
0.0
  0
LTYPE
  5
5C
330
5
100
AcDbSymbolTableRecord
100
AcDbLinetypeTableRecord
  2
ByLayer
 70
     0
  3

 72
    65
 73
     0
 40
0.0
  0
LTYPE
  5
5D
330
5
100
AcDbSymbolTableRecord
100
AcDbLinetypeTableRecord
  2
Continuous
 70
     0
  3
Solid line
 72
    65
 73
     0
 40
0.0
  0
ENDTAB
  0
TABLE
  2
LAYER
  5
2
330
0
100
AcDbSymbolTable
 70
     2
  0
LAYER
  5
54
330
2
100
AcDbSymbolTableRecord
100
AcDbLayerTableRecord
  2
0
 70
     0
 62
     7
  6
Continuous
370
    -3
390
F
347
21
348
0
  0
LAYER
  5
78
330
2
100
AcDbSymbolTableRecord
100
AcDbLayerTableRecord
  2
Layer 1
 70
     0
 62
     7
  6
Continuous
370
     0
390
F
347
21
348
0
  0
ENDTAB
  0
TABLE
  2
STYLE
  5
3
330
0
100
AcDbSymbolTable
 70
     2
  0
STYLE
  5
55
330
3
100
AcDbSymbolTableRecord
100
AcDbTextStyleTableRecord
  2
Standard
 70
     0
 40
0.0
 41
1.0
 50
0.0
 71
     0
 42
0.2
  3
txt
  4

  0
STYLE
  5
5A
330
3
100
AcDbSymbolTableRecord
100
AcDbTextStyleTableRecord
  2
Annotative
 70
     0
 40
0.0
 41
1.0
 50
0.0
 71
     0
 42
0.2
  3
txt
  4

1001
AcadAnnotative
1000
AnnotativeData
1002
{
1070
     1
1070
     1
1002
}
  0
ENDTAB
  0
TABLE
  2
VIEW
  5
6
330
0
100
AcDbSymbolTable
 70
     0
  0
ENDTAB
  0
TABLE
  2
UCS
  5
7
330
0
100
AcDbSymbolTable
 70
     0
  0
ENDTAB
  0
TABLE
  2
APPID
  5
9
330
0
100
AcDbSymbolTable
 70
     2
  0
APPID
  5
56
330
9
100
AcDbSymbolTableRecord
100
AcDbRegAppTableRecord
  2
ACAD
 70
     0
  0
APPID
  5
5E
330
9
100
AcDbSymbolTableRecord
100
AcDbRegAppTableRecord
  2
AcadAnnotative
 70
     0
  0
ENDTAB
  0
TABLE
  2
DIMSTYLE
  5
A
330
0
100
AcDbSymbolTable
 70
     2
100
AcDbDimStyleTable
 71
     0
  0
DIMSTYLE
105
58
330
A
100
AcDbSymbolTableRecord
100
AcDbDimStyleTableRecord
  2
Standard
 70
     0
340
55
  0
DIMSTYLE
105
59
330
A
100
AcDbSymbolTableRecord
100
AcDbDimStyleTableRecord
  2
Annotative
 70
     0
340
55
1001
AcadAnnotative
1000
AnnotativeData
1002
{
1070
     1
1070
     1
1002
}
  0
ENDTAB
  0
TABLE
  2
BLOCK_RECORD
  5
1
330
0
100
AcDbSymbolTable
 70
     1
  0
BLOCK_RECORD
  5
70
330
1
100
AcDbSymbolTableRecord
100
AcDbBlockTableRecord
  2
*Model_Space
340
73
 70
     0
280
     1
281
     0
  0
BLOCK_RECORD
  5
6C
330
1
100
AcDbSymbolTableRecord
100
AcDbBlockTableRecord
  2
*Paper_Space
340
6F
 70
     0
280
     1
281
     0
  0
BLOCK_RECORD
  5
74
330
1
100
AcDbSymbolTableRecord
100
AcDbBlockTableRecord
  2
*Paper_Space0
340
77
 70
     0
280
     1
281
     0
  0
ENDTAB
  0
ENDSEC
  0
SECTION
  2
BLOCKS
  0
BLOCK
  5
71
330
70
100
AcDbEntity
  8
0
100
AcDbBlockBegin
  2
*Model_Space
 70
     0
 10
0.0
 20
0.0
 30
0.0
  3
*Model_Space
  1

  0
ENDBLK
  5
72
330
70
100
AcDbEntity
  8
0
100
AcDbBlockEnd
  0
BLOCK
  5
6D
330
6C
100
AcDbEntity
 67
     1
  8
0
100
AcDbBlockBegin
  2
*Paper_Space
 70
     0
 10
0.0
 20
0.0
 30
0.0
  3
*Paper_Space
  1

  0
ENDBLK
  5
6E
330
6C
100
AcDbEntity
 67
     1
  8
0
100
AcDbBlockEnd
  0
BLOCK
  5
75
330
74
100
AcDbEntity
 67
     1
  8
0
100
AcDbBlockBegin
  2
*Paper_Space0
 70
     0
 10
0.0
 20
0.0
 30
0.0
  3
*Paper_Space0
  1

  0
ENDBLK
  5
76
330
74
100
AcDbEntity
 67
     1
  8
0
100
AcDbBlockEnd
  0
ENDSEC
  0
SECTION
  2
ENTITIES
  0
LINE
  5
79
330
70
100
AcDbEntity
  8
Layer 1
 62
    18
420
        0
370
     5
100
AcDbLine
 10
4.912611137366133
 20
-26.46555306382813
 30
0.0
 11
2.477070496531243
 21
-26.46555306382813
 31
0.0
  0
LINE
  5
7A
330
70
100
AcDbEntity
  8
Layer 1
 62
    18
420
        0
370
     5
100
AcDbLine
 10
4.912611137366133
 20
-26.3126491670941
 30
0.0
 11
2.477070496531243
 21
-26.3126491670941
 31
0.0
  0
LINE
  5
7B
330
70
100
AcDbEntity
  8
Layer 1
 62
    18
420
        0
370
     5
100
AcDbLine
 10
4.820322713980254
 20
-26.18158868417918
 30
0.0
 11
2.569358919917148
 21
-26.18158868417918
 31
0.0
  0
LWPOLYLINE
  5
7C
330
70
100
AcDbEntity
  8
Layer 1
 62
    18
420
        0
370
     5
100
AcDbPolyline
 90
        4
 70
     0
 43
0.0
 10
3.068564289326003
 20
-17.39063097133445
 10
3.087488175690774
 20
-17.37956916764935
 10
3.113440094607224
 20
-17.36920711859966
 10
3.145891639806109
 20
-17.35975580229271
  0
LINE
  5
7D
330
70
100
AcDbEntity
  8
Layer 1
 62
    18
420
        0
370
     5
100
AcDbLine
 10
6.299026810686389
 20
-23.94263876771664
 30
0.0
 11
6.301527110933041
 21
-23.94220084975501
 31
0.0
  0
LINE
  5
7E
330
70
100
AcDbEntity
  8
Layer 1
 62
    18
420
        0
370
     5
100
AcDbLine
 10
6.300909191227648
 20
-23.94247532852301
 30
0.0
 11
6.30430986202921
 21
-23.94188864227817
 31
0.0
  0
LINE
  5
7F
330
70
100
AcDbEntity
  8
Layer 1
 62
    18
420
        0
370
     5
100
AcDbLine
 10
3.146505111974015
 20
-17.36084016232492
 30
0.0
 11
3.147496677361737
 21
-17.35940586807287
 31
0.0
  0
LINE
  5
80
330
70
100
AcDbEntity
  8
Layer 1
 62
    18
420
        0
370
     5
100
AcDbLine
 10
3.178078735422003
 20
-17.36540672053358
 30
0.0
 11
3.172242768735069
 21
-17.37381993515171
 31
0.0
  0
LWPOLYLINE
  5
81
330
70
100
AcDbEntity
  8
Layer 1
 62
    18
420
        0
370
     5
100
AcDbPolyline
 90
        4
 70
     0
 43
0.0
 10
3.123321803710546
 20
-17.38895473364244
 10
3.122795042031877
 20
-17.38952634607504
 10
3.120740726847227
 20
-17.39080921075158
 10
3.118303793251887
 20
-17.39119725987181
  0
LINE
  5
82
330
70
100
AcDbEntity
  8
Layer 1
 62
    18
420
        0
370
     5
100
AcDbLine
 10
3.689849523824805
 20
-17.37543556097459
 30
0.0
 11
3.692637247137238
 21
-17.37303784286005
 31
0.0
  0
LINE
  5
83
330
70
100
AcDbEntity
  8
Layer 1
 62
    18
420
        0
370
     5
100
AcDbLine
 10
3.062780718981912
 20
-17.39545953047935
 30
0.0
 11
3.068564289326003
 21
-17.39063097133445
 31
0.0
  0
LWPOLYLINE
  5
84
330
70
100
AcDbEntity
  8
Layer 1
 62
    18
420
        0
370
     5
100
AcDbPolyline
 90
        4
 70
     0
 43
0.0
 10
3.689849523824805
 20
-17.37543556097459
 10
3.688804856770376
 20
-17.3762032953719
 10
3.687711967867989
 20
-17.37696783265801
 10
3.686571064083914
 20
-17.3777290279017
  0
LINE
  5
85
330
70
100
AcDbEntity
  8
Layer 1
 62
    18
420
        0
370
     5
100
AcDbLine
 10
3.165436932631172
 20
-17.36484356466937
 30
0.0
 11
3.168180666038627
 21
-17.36289942285844
 31
0.0
  0
LINE
  5
86
330
70
100
AcDbEntity
  8
Layer 1
 62
    18
420
        0
370
     5
100
AcDbLine
 10
3.186345808864403
 20
-17.35957151880297
 30
0.0
 11
3.178078735422003
 21
-17.36540672053358
 31
0.0
  0
LWPOLYLINE
  5
87
330
70
100
AcDbEntity
  8
Layer 1
 62
    18
420
        0
370
     5
100
AcDbPolyline
 90
        5
 70
     0
 43
0.0
 10
3.249596148591586
 20
-17.4603038470219
 10
3.251015634428919
 20
-17.45938001773275
 10
3.252212121946715
 20
-17.45764546653557
 10
3.253012495428277
 20
-17.45536042974633
 10
3.253295617307445
 20
-17.45285727533003
  0
LINE
  5
88
330
70
100
AcDbEntity
  8
Layer 1
 62
    18
420
        0
370
     5
100
AcDbLine
 10
3.487915961266215
 20
-17.33488477685867
 30
0.0
 11
3.488159885248516
 21
-17.334734268966
 31
0.0
  0
LINE
  5
89
330
70
100
AcDbEntity
  8
Layer 1
 62
    18
420
        0
370
     5
100
AcDbLine
 10
3.372613147357141
 20
-17.47760499076119
 30
0.0
 11
3.372369224357801
 21
-17.47775549876309
 31
0.0
  0
LWPOLYLINE
  5
8A
330
70
100
AcDbEntity
  8
Layer 1
 62
    18
420
        0
370
     5
100
AcDbPolyline
 90
        4
 70
     0
 43
0.0
 10
3.76206841300004
 20
-17.41594583484129
 10
3.756672641669094
 20
-17.41838867063628
 10
3.725178350988067
 20
-17.42845999324067
 10
3.721545111066031
 20
-17.42931371019545
  0
LWPOLYLINE
  5
8B
330
70
100
AcDbEntity
  8
Layer 1
 62
    18
420
        0
370
     5
100
AcDbPolyline
 90
        4
 70
     0
 43
0.0
 10
3.667167782281985
 20
-17.38738008333348
 10
3.674521480256215
 20
-17.38425005548722
 10
3.680997079547927
 20
-17.38102913806981
 10
3.686571064083914
 20
-17.3777290279017
  0
LINE
  5
8C
330
70
100
AcDbEntity
  8
Layer 1
 62
    18
420
        0
370
     5
100
AcDbLine
 10
3.716261722242481
 20
-17.35999843369098
 30
0.0
 11
3.717838274457461
 21
-17.35938303143903
 31
0.0
  0
LWPOLYLINE
  5
8D
330
70
100
AcDbEntity
  8
Layer 1
 62
    18
420
        0
370
     5
100
AcDbPolyline
 90
        4
 70
     0
 43
0.0
 10
3.667167782281985
 20
-17.38738008333348
 10
3.665417775886541
 20
-17.38806185570613
 10
3.663626062659697
 20
-17.3887384595994
 10
3.661792965447109
 20
-17.38940977279945
  0
LWPOLYLINE
  5
8E
330
70
100
AcDbEntity
  8
Layer 1
 62
    18
420
        0
370
     5
100
AcDbPolyline
 90
        4
 70
     0
 43
0.0
 10
3.692305315931434
 20
-17.39921851179456
 10
3.712262482051351
 20
-17.39192904274043
 10
3.729658923799547
 20
-17.38277231217307
 10
3.740784069343716
 20
-17.37316314956938
  0
LINE
  5
8F
330
70
100
AcDbEntity
  8
Layer 1
 62
    18
420
        0
370
     5
100
AcDbLine
 10
3.740784069343716
 20
-17.39866734621713
 30
0.0
 11
3.721545111066031
 21
-17.40541273569725
 31
0.0
  0
LINE
  5
90
330
70
100
AcDbEntity
  8
Layer 1
 62
    18
420
        0
370
     5
100
AcDbLine
 10
3.740784069343716
 20
-17.40413307195457
 30
0.0
 11
3.721545111066031
 21
-17.41028535388154
 31
0.0
  0
LINE
  5
91
330
70
100
AcDbEntity
  8
Layer 1
 62
    18
420
        0
370
     5
100
AcDbLine
 10
3.249596148591586
 20
-17.4603038470219
 30
0.0
 11
3.234181695536032
 21
-17.4651034538139
 31
0.0
  0
LINE
  5
92
330
70
100
AcDbEntity
  8
Layer 1
 62
    18
420
        0
370
     5
100
AcDbLine
 10
3.615843553537047
 20
-17.34626518966999
 30
0.0
 11
3.626436454159602
 21
-17.34296687240926
 31
0.0
  0
LINE
  5
93
330
70
100
AcDbEntity
  8
Layer 1
 62
    18
420
        0
370
     5
100
AcDbLine
 10
6.301527110933041
 20
-23.94220084975501
 30
0.0
 11
6.307854616684632
 21
-23.94112328225987
 31
0.0
  0
LINE
  5
94
330
70
100
AcDbEntity
  8
Layer 1
 62
    18
420
        0
370
     5
100
AcDbLine
 10
6.304280367085943
 20
-23.94189367794959
 30
0.0
 11
6.314383697063071
 21
-23.94022518636893
 31
0.0
  0
LWPOLYLINE
  5
95
330
70
100
AcDbEntity
  8
Layer 1
 62
    18
420
        0
370
     5
100
AcDbPolyline
 90
        5
 70
     0
 43
0.0
 10
6.307854616684632
 20
-23.94112328225987
 10
6.316650563408491
 20
-23.93969862870775
 10
6.326934047705612
 20
-23.93814162449149
 10
6.338018261859625
 20
-23.93659511843826
 10
6.349320500915407
 20
-23.93515963546759
  0
LINE
  5
96
330
70
100
AcDbEntity
  8
Layer 1
 62
    18
420
        0
370
     5
100
AcDbLine
 10
6.314278834915385
 20
-23.94024192180971
 30
0.0
 11
6.330660605968015
 21
-23.93777454395629
 31
0.0
  0
LINE
  5
97
330
70
100
AcDbEntity
  8
Layer 1
 62
    18
420
        0
370
     5
100
AcDbLine
 10
6.330469115025455
 20
-23.93780170056213
 30
0.0
 11
6.352127851190478
 21
-23.93499369203573
 31
0.0
  0
LINE
  5
98
330
70
100
AcDbEntity
  8
Layer 1
 62
    18
420
        0
370
     5
100
AcDbLine
 10
6.349320500915407
 20
-23.93515963546759
 30
0.0
 11
6.360981178596552
 21
-23.93382903397605
 31
0.0
  0
LWPOLYLINE
  5
99
330
70
100
AcDbEntity
  8
Layer 1
 62
    18
420
        0
370
     5
100
AcDbPolyline
 90
        9
 70
     0
 43
0.0
 10
6.352127851190478
 20
-23.93499369203573
 10
6.378265947202205
 20
-23.93230731637494
 10
6.407679995876971
 20
-23.93021126847442
 10
6.439028336293605
 20
-23.92906573978437
 10
6.4710254721903
 20
-23.92905911140047
 10
6.502391432924291
 20
-23.93019273248112
 10
6.531836161765946
 20
-23.93227994985394
 10
6.558027710904853
 20
-23.93496333362236
 10
6.579758788087777
 20
-23.93777527068672
  0
LWPOLYLINE
  5
9A
330
70
100
AcDbEntity
  8
Layer 1
 62
    18
420
        0
370
     5
100
AcDbPolyline
 90
       13
 70
     0
 43
0.0
 10
6.360981178596552
 20
-23.93382903397605
 10
6.373746870568311
 20
-23.93254828636312
 10
6.387677016254681
 20
-23.93136144358626
 10
6.402219041833265
 20
-23.93035801089026
 10
6.417027877503338
 20
-23.9295842573218
 10
6.432355348228396
 20
-23.92904774157594
 10
6.449154075538191
 20
-23.92876912446395
 10
6.468260469850772
 20
-23.92884587654084
 10
6.489591936959059
 20
-23.92942636602766
 10
6.51278664333429
 20
-23.93064877556152
 10
6.537469581575654
 20
-23.93262332143846
 10
6.561289710541258
 20
-23.93518328085378
 10
6.580240022740427
 20
-23.93767534973762
  0
LINE
  5
9B
330
70
100
AcDbEntity
  8
Layer 1
 62
    18
420
        0
370
     5
100
AcDbLine
 10
6.299026810686389
 20
-23.94263876771664
 30
0.0
 11
6.300909191227648
 21
-23.94247532852301
 31
0.0
  0
LINE
  5
9C
330
70
100
AcDbEntity
  8
Layer 1
 62
    18
420
        0
370
     5
100
AcDbLine
 10
6.361550316825677
 20
-23.94232970023055
 30
0.0
 11
6.382375067956141
 21
-23.94217062087303
 31
0.0
  0
LINE
  5
9D
330
70
100
AcDbEntity
  8
Layer 1
 62
    18
420
        0
370
     5
100
AcDbLine
 10
6.36155031671645
 20
-23.94232969717243
 30
0.0
 11
6.361523269109321
 21
-23.94232978290787
 31
0.0
  0
LINE
  5
9E
330
70
100
AcDbEntity
  8
Layer 1
 62
    18
420
        0
370
     5
100
AcDbLine
 10
6.382375067956141
 20
-23.94217062087303
 30
0.0
 11
6.408239844975948
 21
-23.94202991870725
 31
0.0
  0
LWPOLYLINE
  5
9F
330
70
100
AcDbEntity
  8
Layer 1
 62
    18
420
        0
370
     5
100
AcDbPolyline
 90
        6
 70
     0
 43
0.0
 10
6.408239844975948
 20
-23.94202991870725
 10
6.434118735680701
 20
-23.94194764177579
 10
6.46234050846629
 20
-23.9419295731223
 10
6.489903892472132
 20
-23.94198247819824
 10
6.514441652941437
 20
-23.94208822871749
 10
6.534271742380243
 20
-23.94221405901342
  0
LINE
  5
A0
330
70
100
AcDbEntity
  8
Layer 1
 62
    18
420
        0
370
     5
100
AcDbLine
 10
6.391553548119822
 20
-23.93136044064598
 30
0.0
 11
6.402765508127887
 21
-23.93130434249977
 31
0.0
  0
LWPOLYLINE
  5
A1
330
70
100
AcDbEntity
  8
Layer 1
 62
    18
420
        0
370
     5
100
AcDbPolyline
 90
        5
 70
     0
 43
0.0
 10
6.402765508127887
 20
-23.93130434249977
 10
6.431469441071524
 20
-23.93121873084353
 10
6.462247230645465
 20
-23.93119883706352
 10
6.492356042298726
 20
-23.93125038457133
 10
6.518771966329116
 20
-23.93135388205176
  0
LINE
  5
A2
330
70
100
AcDbEntity
  8
Layer 1
 62
    18
420
        0
370
     5
100
AcDbLine
 10
6.210950305125757
 20
-23.94263876771664
 30
0.0
 11
6.299026810686389
 21
-23.94263876771664
 31
0.0
  0
LINE
  5
A3
330
70
100
AcDbEntity
  8
Layer 1
 62
    18
420
        0
370
     5
100
AcDbLine
 10
6.611387628300209
 20
-23.94263876771664
 30
0.0
 11
6.640425170460679
 21
-23.94263876771664
 31
0.0
  0
LINE
  5
A4
330
70
100
AcDbEntity
  8
Layer 1
 62
    18
420
        0
370
     5
100
AcDbLine
 10
6.684111998098968
 20
-23.83342169862094
 30
0.0
 11
6.749642239556426
 21
-23.83342169862094
 31
0.0
  0
LINE
  5
A5
330
70
100
AcDbEntity
  8
Layer 1
 62
    18
420
        0
370
     5
100
AcDbLine
 10
6.361550316825677
 20
-23.94232970023055
 30
0.0
 11
6.380856645215557
 21
-23.94243326007386
 31
0.0
  0
LINE
  5
A6
330
70
100
AcDbEntity
  8
Layer 1
 62
    18
420
        0
370
     5
100
AcDbLine
 10
6.40790899556522
 20
-23.94263584976423
 30
0.0
 11
6.380856645215557
 21
-23.94243326007386
 31
0.0
  0
LINE
  5
A7
330
70
100
AcDbEntity
  8
Layer 1
 62
    18
420
        0
370
     5
100
AcDbLine
 10
6.407705109795919
 20
-23.94263406209923
 30
0.0
 11
6.408241789585846
 21
-23.94263876771664
 31
0.0
  0
LINE
  5
A8
330
70
100
AcDbEntity
  8
Layer 1
 62
    18
420
        0
370
     5
100
AcDbLine
 10
6.534271742380243
 20
-23.94221405901342
 30
0.0
 11
6.560598123704342
 21
-23.94243686303576
 31
0.0
  0
LINE
  5
A9
330
70
100
AcDbEntity
  8
Layer 1
 62
    18
420
        0
370
     5
100
AcDbLine
 10
6.560598123704342
 20
-23.94243686303576
 30
0.0
 11
6.579737606201761
 21
-23.94263876771664
 31
0.0
  0
LINE
  5
AA
330
70
100
AcDbEntity
  8
Layer 1
 62
    18
420
        0
370
     5
100
AcDbLine
 10
6.611387628300209
 20
-23.94263876771664
 30
0.0
 11
6.609505597690384
 21
-23.94247538979374
 31
0.0
  0
LINE
  5
AB
330
70
100
AcDbEntity
  8
Layer 1
 62
    18
420
        0
370
     5
100
AcDbLine
 10
6.359997774017427
 20
-23.94215387538437
 30
0.0
 11
6.361550313330742
 21
-23.9423296941144
 31
0.0
  0
LWPOLYLINE
  5
AC
330
70
100
AcDbEntity
  8
Layer 1
 62
    18
420
        0
370
     5
100
AcDbPolyline
 90
        4
 70
     0
 43
0.0
 10
3.118303793251887
 20
-17.39119725987181
 10
3.113993631942548
 20
-17.3992370818636
 10
3.113993631942548
 20
-17.4073319548283
 10
3.118303793251887
 20
-17.41537177682008
  0
LWPOLYLINE
  5
AD
330
70
100
AcDbEntity
  8
Layer 1
 62
    18
420
        0
370
     5
100
AcDbPolyline
 90
        3
 70
     0
 43
0.0
 10
3.799247065171407
 20
-17.39310078156111
 10
3.797409635426914
 20
-17.39575861410549
 10
3.783480631932661
 20
-17.40560386327464
  0
LINE
  5
AE
330
70
100
AcDbEntity
  8
Layer 1
 62
    18
420
        0
370
     5
100
AcDbLine
 10
3.371895556809805
 20
-17.43652783377941
 30
0.0
 11
3.371493146737154
 21
-17.43702540402905
 31
0.0
  0
LINE
  5
AF
330
70
100
AcDbEntity
  8
Layer 1
 62
    18
420
        0
370
     5
100
AcDbLine
 10
3.490206248775216
 20
-17.33220399027216
 30
0.0
 11
3.488159885248516
 21
-17.334734268966
 31
0.0
  0
LINE
  5
B0
330
70
100
AcDbEntity
  8
Layer 1
 62
    18
420
        0
370
     5
100
AcDbLine
 10
3.372613147357141
 20
-17.47760499076119
 30
0.0
 11
3.377279816880104
 21
-17.47183476783508
 31
0.0
  0
LWPOLYLINE
  5
B1
330
70
100
AcDbEntity
  8
Layer 1
 62
    18
420
        0
370
     5
100
AcDbPolyline
 90
       11
 70
     0
 43
0.0
 10
3.691755971657824
 20
-17.37747012370619
 10
3.687388560726781
 20
-17.38279750374537
 10
3.675880820690458
 20
-17.39093136403643
 10
3.658941266379744
 20
-17.39860043416127
 10
3.63694829944355
 20
-17.40563339982959
 10
3.610393206545874
 20
-17.41187315621912
 10
3.579869184360985
 20
-17.41718031744843
 10
3.54605808935878
 20
-17.42143633024549
 10
3.50971520529985
 20
-17.42454612246244
 10
3.471652372256597
 20
-17.42644022636386
 10
3.43271985111893
 20
-17.42707633082045
  0
LINE
  5
B2
330
70
100
AcDbEntity
  8
Layer 1
 62
    18
420
        0
370
     5
100
AcDbLine
 10
3.849498438373289
 20
-17.42944000269805
 30
0.0
 11
3.855952405040132
 21
-17.42188121931425
 31
0.0
  0
LINE
  5
B3
330
70
100
AcDbEntity
  8
Layer 1
 62
    18
420
        0
370
     5
100
AcDbLine
 10
3.844175595648026
 20
-17.43450350938352
 30
0.0
 11
3.849498438373289
 21
-17.42944000269805
 31
0.0
  0
LINE
  5
B4
330
70
100
AcDbEntity
  8
Layer 1
 62
    18
420
        0
370
     5
100
AcDbLine
 10
6.793640338681269
 20
-23.30917976696138
 30
0.0
 11
6.898531176595749
 21
-23.30917976696138
 31
0.0
  0
LINE
  5
B5
330
70
100
AcDbEntity
  8
Layer 1
 62
    18
420
        0
370
     5
100
AcDbLine
 10
6.580240022740427
 20
-23.93767534973762
 30
0.0
 11
6.593600143245819
 21
-23.93967291977419
 31
0.0
  0
LINE
  5
B6
330
70
100
AcDbEntity
  8
Layer 1
 62
    18
420
        0
370
     5
100
AcDbLine
 10
6.579758788087777
 20
-23.93777527068672
 30
0.0
 11
6.596134162078215
 21
-23.94024169518419
 31
0.0
  0
LINE
  5
B7
330
70
100
AcDbEntity
  8
Layer 1
 62
    18
420
        0
370
     5
100
AcDbLine
 10
6.593600143245819
 20
-23.93967291977419
 30
0.0
 11
6.602395510354678
 21
-23.94109588690566
 31
0.0
  0
LWPOLYLINE
  5
B8
330
70
100
AcDbEntity
  8
Layer 1
 62
    18
420
        0
370
     5
100
AcDbPolyline
 90
        3
 70
     0
 43
0.0
 10
6.596033545197997
 20
-23.94022564213174
 10
6.606105265134121
 20
-23.94188876219848
 10
6.609505597690384
 20
-23.94247538979374
  0
LINE
  5
B9
330
70
100
AcDbEntity
  8
Layer 1
 62
    18
420
        0
370
     5
100
AcDbLine
 10
6.596134162078215
 20
-23.94024169518419
 30
0.0
 11
6.606126087805225
 21
-23.94189235456628
 31
0.0
  0
LINE
  5
BA
330
70
100
AcDbEntity
  8
Layer 1
 62
    18
420
        0
370
     5
100
AcDbLine
 10
6.602395510354678
 20
-23.94109588690566
 30
0.0
 11
6.610548753071346
 21
-23.94249107762435
 31
0.0
  0
LINE
  5
BB
330
70
100
AcDbEntity
  8
Layer 1
 62
    18
420
        0
370
     5
100
AcDbLine
 10
6.610548753071346
 20
-23.94249107762435
 30
0.0
 11
6.611387628300209
 21
-23.94263876771664
 31
0.0
  0
LINE
  5
BC
330
70
100
AcDbEntity
  8
Layer 1
 62
    18
420
        0
370
     5
100
AcDbLine
 10
2.466148789621684
 20
-26.32357087400371
 30
0.0
 11
2.466148789621684
 21
-26.45463135691858
 31
0.0
  0
LINE
  5
BD
330
70
100
AcDbEntity
  8
Layer 1
 62
    18
420
        0
370
     5
100
AcDbLine
 10
2.558437213007563
 20
-26.19251039108879
 30
0.0
 11
2.558437213007563
 21
-26.30172746018454
 31
0.0
  0
LWPOLYLINE
  5
BE
330
70
100
AcDbEntity
  8
Layer 1
 62
    18
420
        0
370
     5
100
AcDbPolyline
 90
        3
 70
     0
 43
0.0
 10
3.080129313059766
 20
-17.39698985231037
 10
3.08072584041785
 20
-17.3925200730942
 10
3.085485955628276
 20
-17.38364096073949
  0
LINE
  5
BF
330
70
100
AcDbEntity
  8
Layer 1
 62
    18
420
        0
370
     5
100
AcDbLine
 10
3.145702553386538
 20
-17.36551652213236
 30
0.0
 11
3.146505111974015
 21
-17.36084016232492
 31
0.0
  0
LINE
  5
C0
330
70
100
AcDbEntity
  8
Layer 1
 62
    18
420
        0
370
     5
100
AcDbLine
 10
3.172242768735069
 20
-17.37381993515171
 30
0.0
 11
3.171501860998798
 21
-17.378105797083
 31
0.0
  0
LWPOLYLINE
  5
C1
330
70
100
AcDbEntity
  8
Layer 1
 62
    18
420
        0
370
     5
100
AcDbPolyline
 90
        3
 70
     0
 43
0.0
 10
3.124655632784929
 20
-17.3851467808132
 10
3.124169413137602
 20
-17.38754335171158
 10
3.123321803710546
 20
-17.38895473364244
  0
LINE
  5
C2
330
70
100
AcDbEntity
  8
Layer 1
 62
    18
420
        0
370
     5
100
AcDbLine
 10
3.693207422710088
 20
-17.37438055029927
 30
0.0
 11
3.691755971657824
 21
-17.37747012370619
 31
0.0
  0
LWPOLYLINE
  5
C3
330
70
100
AcDbEntity
  8
Layer 1
 62
    18
420
        0
370
     5
100
AcDbPolyline
 90
        3
 70
     0
 43
0.0
 10
3.740784069343716
 20
-17.40883292380749
 10
3.745007220253746
 20
-17.4009554185855
 10
3.745536456463544
 20
-17.39698985231037
  0
LWPOLYLINE
  5
C4
330
70
100
AcDbEntity
  8
Layer 1
 62
    18
420
        0
370
     5
100
AcDbPolyline
 90
        4
 70
     0
 43
0.0
 10
3.74713590887672
 20
-17.41537177682014
 10
3.751446070186084
 20
-17.4073319548283
 10
3.751446070186084
 20
-17.3992370818636
 10
3.74713590887672
 20
-17.39119725987181
  0
LINE
  5
C5
330
70
100
AcDbEntity
  8
Layer 1
 62
    18
420
        0
370
     5
100
AcDbLine
 10
3.778274876458517
 20
-17.40767264819184
 30
0.0
 11
3.773601906967339
 21
-17.41638922283063
 31
0.0
  0
LINE
  5
C6
330
70
100
AcDbEntity
  8
Layer 1
 62
    18
420
        0
370
     5
100
AcDbLine
 10
6.793640338681269
 20
-22.76309442148269
 30
0.0
 11
6.898531176595749
 21
-22.76309442148269
 31
0.0
  0
LWPOLYLINE
  5
C7
330
70
100
AcDbEntity
  8
Layer 1
 62
    18
420
        0
370
     5
100
AcDbPolyline
 90
       26
 70
     0
 43
0.0
 10
3.000149690603999
 20
-22.29691448393234
 10
3.031281168734481
 20
-22.31289679617592
 10
3.063435343158466
 20
-22.32844079629351
 10
3.096264726883014
 20
-22.34324763776906
 10
3.12942097621644
 20
-22.35705432327909
 10
3.162518629609369
 20
-22.36962907061216
 10
3.195137862108973
 20
-22.38078701469749
 10
3.227021052165115
 20
-22.39045903620232
 10
3.258102681659376
 20
-22.39867089200657
 10
3.288409244468387
 20
-22.40548565059897
 10
3.318018836038959
 20
-22.4109784540875
 10
3.347045872937226
 20
-22.41522379342804
 10
3.375626018927088
 20
-22.41828651068539
 10
3.403907510186235
 20
-22.4202168497523
 10
3.432046376294654
 20
-22.42104777430621
 10
3.460201155330044
 20
-22.42079359538719
 10
3.488530698495424
 20
-22.4194499117659
 10
3.517192876879814
 20
-22.41699412544772
 10
3.546345263409635
 20
-22.41338598349896
 10
3.57614100477124
 20
-22.40856903238111
 10
3.606723078995615
 20
-22.4024735812284
 10
3.638214830052119
 20
-22.39502213168372
 10
3.670703616414849
 20
-22.38613909668882
 10
3.704226256577637
 20
-22.37576343253007
 10
3.73874312713388
 20
-22.36386699549782
 10
3.774083681370736
 20
-22.35048920967756
  0
LWPOLYLINE
  5
C8
330
70
100
AcDbEntity
  8
Layer 1
 62
    18
420
        0
370
     5
100
AcDbPolyline
 90
        3
 70
     0
 43
0.0
 10
6.357481102132118
 20
-23.94110966409279
 10
6.358668646956301
 20
-23.94172846332322
 10
6.359997774017427
 20
-23.94215387538437
  0
LINE
  5
C9
330
70
100
AcDbEntity
  8
Layer 1
 62
    18
420
        0
370
     5
100
AcDbLine
 10
2.990011990998166
 20
-22.21697791528201
 30
0.0
 11
3.039847961883272
 21
-22.24381749658288
 31
0.0
  0
LWPOLYLINE
  5
CA
330
70
100
AcDbEntity
  8
Layer 1
 62
    18
420
        0
370
     5
100
AcDbPolyline
 90
       29
 70
     0
 43
0.0
 10
3.039847961883272
 20
-22.24381749658288
 10
3.068760831776456
 20
-22.25995487118012
 10
3.098506488702128
 20
-22.27565136475671
 10
3.128758698872186
 20
-22.2905947017934
 10
3.159195370555771
 20
-22.30450787525645
 10
3.18946518870171
 20
-22.31714573323598
 10
3.219190393529831
 20
-22.32831227783784
 10
3.248145077287087
 20
-22.33793062330354
 10
3.27627930811391
 20
-22.34602129523359
 10
3.303625998573983
 20
-22.35264358648283
 10
3.330263375174657
 20
-22.35786956863058
 10
3.356300731983057
 20
-22.36177072206404
 10
3.381864656715467
 20
-22.36440846500232
 10
3.407091197798346
 20
-22.36582885209893
 10
3.432121613203118
 20
-22.36605962164973
 10
3.457097724898201
 20
-22.36510865934563
 10
3.482160023495894
 20
-22.36296345721106
 10
3.507446464025001
 20
-22.35959115466949
 10
3.533092960793472
 20
-22.35493896077686
 10
3.559229636546433
 20
-22.34893565846813
 10
3.585975695052562
 20
-22.34149477469196
 10
3.613431113835367
 20
-22.33252054530102
 10
3.641662492152944
 20
-22.32191880377513
 10
3.670690809730545
 20
-22.3096113073337
 10
3.700470874947768
 20
-22.29555914903404
 10
3.730846379174951
 20
-22.27980327162509
 10
3.761547621235611
 20
-22.2624891975678
 10
3.792139970929484
 20
-22.24392015101669
 10
3.822022324812577
 20
-22.22458336275082
  0
LINE
  5
CB
330
70
100
AcDbEntity
  8
Layer 1
 62
    18
420
        0
370
     5
100
AcDbLine
 10
3.694840480778566
 20
-23.03613709422204
 30
0.0
 11
4.710559559539041
 21
-23.94263876771664
 31
0.0
  0
LINE
  5
CC
330
70
100
AcDbEntity
  8
Layer 1
 62
    18
420
        0
370
     5
100
AcDbLine
 10
3.694846948613404
 20
-23.03614308303082
 30
0.0
 11
2.788339143454082
 21
-22.1842428372202
 31
0.0
  0
LINE
  5
CD
330
70
100
AcDbEntity
  8
Layer 1
 62
    18
420
        0
370
     5
100
AcDbLine
 10
3.694841060721197
 20
-23.03613709422204
 30
0.0
 11
3.000149690603999
 21
-22.29691448393234
 31
0.0
  0
LINE
  5
CE
330
70
100
AcDbEntity
  8
Layer 1
 62
    18
420
        0
370
     5
100
AcDbLine
 10
3.694846948613404
 20
-23.03614308303082
 30
0.0
 11
4.601342490443294
 21
-24.05185583681234
 31
0.0
  0
LINE
  5
CF
330
70
100
AcDbEntity
  8
Layer 1
 62
    18
420
        0
370
     5
100
AcDbLine
 10
2.788339143454082
 20
-26.00678666122606
 30
0.0
 11
2.788339143454082
 21
-21.58732352498601
 31
0.0
  0
LINE
  5
D0
330
70
100
AcDbEntity
  8
Layer 1
 62
    18
420
        0
370
     5
100
AcDbLine
 10
2.96035602727986
 20
-21.57640181807645
 30
0.0
 11
2.96035602727986
 21
-13.85989410032126
 31
0.0
  0
LINE
  5
D1
330
70
100
AcDbEntity
  8
Layer 1
 62
    18
420
        0
370
     5
100
AcDbLine
 10
3.080129313059766
 20
-17.39698985231037
 30
0.0
 11
3.080129313059766
 21
-17.38387073084489
 31
0.0
  0
LINE
  5
D2
330
70
100
AcDbEntity
  8
Layer 1
 62
    18
420
        0
370
     5
100
AcDbLine
 10
3.085485955628276
 20
-17.38073954912033
 30
0.0
 11
3.085485955628276
 21
-17.38364096073949
 31
0.0
  0
LINE
  5
D3
330
70
100
AcDbEntity
  8
Layer 1
 62
    18
420
        0
370
     5
100
AcDbLine
 10
3.124655632784929
 20
-17.40883292380749
 30
0.0
 11
3.124655632784929
 21
-17.36594066083171
 31
0.0
  0
LINE
  5
D4
330
70
100
AcDbEntity
  8
Layer 1
 62
    18
420
        0
370
     5
100
AcDbLine
 10
3.143894591062601
 20
-17.40541273569725
 30
0.0
 11
3.143894591062601
 21
-17.44108250993536
 31
0.0
  0
LINE
  5
D5
330
70
100
AcDbEntity
  8
Layer 1
 62
    18
420
        0
370
     5
100
AcDbLine
 10
3.145702553386538
 20
-17.36551652213236
 30
0.0
 11
3.145702553386538
 21
-17.35981087248779
 31
0.0
  0
LINE
  5
D6
330
70
100
AcDbEntity
  8
Layer 1
 62
    18
420
        0
370
     5
100
AcDbLine
 10
3.175590178303839
 20
-17.36899426064812
 30
0.0
 11
3.175590178303839
 21
-17.37543556097459
 31
0.0
  0
LINE
  5
D7
330
70
100
AcDbEntity
  8
Layer 1
 62
    18
420
        0
370
     5
100
AcDbLine
 10
3.176475489244719
 20
-17.43610864305017
 30
0.0
 11
3.176475489244719
 21
-17.40086888819521
 31
0.0
  0
LINE
  5
D8
330
70
100
AcDbEntity
  8
Layer 1
 62
    18
420
        0
370
     5
100
AcDbLine
 10
3.192198065604821
 20
-17.36729828928835
 30
0.0
 11
3.192198065604821
 21
-17.37334502285683
 31
0.0
  0
LWPOLYLINE
  5
D9
330
70
100
AcDbEntity
  8
Layer 1
 62
    18
420
        0
370
     5
100
AcDbPolyline
 90
        5
 70
     0
 43
0.0
 10
3.253295617307445
 20
-17.34112242929071
 10
3.253012430880996
 20
-17.3434495161805
 10
3.2522119631451
 20
-17.34523610417798
 10
3.251015479122239
 20
-17.3462253940281
 10
3.250559039037852
 20
-17.34634805167732
  0
LWPOLYLINE
  5
DA
330
70
100
AcDbEntity
  8
Layer 1
 62
    18
420
        0
370
     5
100
AcDbPolyline
 90
        4
 70
     0
 43
0.0
 10
3.119903245665063
 20
-17.39698985231037
 10
3.120261741410937
 20
-17.39447280428147
 10
3.121379906638063
 20
-17.39180315248434
 10
3.123318784732305
 20
-17.38895846963067
  0
LWPOLYLINE
  5
DB
330
70
100
AcDbEntity
  8
Layer 1
 62
    18
420
        0
370
     5
100
AcDbPolyline
 90
        5
 70
     0
 43
0.0
 10
3.176475489244719
 20
-17.43610864305017
 10
3.176071057236463
 20
-17.43858564740518
 10
3.174927870706444
 20
-17.44079599861369
 10
3.173219114396601
 20
-17.44241870061043
 10
3.171192100421143
 20
-17.44320988216501
  0
LINE
  5
DC
330
70
100
AcDbEntity
  8
Layer 1
 62
    18
420
        0
370
     5
100
AcDbLine
 10
3.693255420007794
 20
-17.37410087836881
 30
0.0
 11
3.693207422710088
 21
-17.37438055029927
 31
0.0
  0
LWPOLYLINE
  5
DD
330
70
100
AcDbEntity
  8
Layer 1
 62
    18
420
        0
370
     5
100
AcDbPolyline
 90
        5
 70
     0
 43
0.0
 10
3.779953746609571
 20
-17.38364096073949
 10
3.779467526853055
 20
-17.3860749156577
 10
3.778093155747304
 20
-17.38816358124879
 10
3.77603884067192
 20
-17.38960439608758
 10
3.773601906967339
 20
-17.39017981386127
  0
LWPOLYLINE
  5
DE
330
70
100
AcDbEntity
  8
Layer 1
 62
    18
420
        0
370
     5
100
AcDbPolyline
 90
       12
 70
     0
 43
0.0
 10
3.719737148851309
 20
-17.36551652213236
 10
3.717285810725936
 20
-17.37665738335752
 10
3.709959172263552
 20
-17.38707450839077
 10
3.697740646230929
 20
-17.39653499499976
 10
3.679171869227578
 20
-17.40570272219692
 10
3.654264199064148
 20
-17.41415137666182
 10
3.624940631379495
 20
-17.42130947713172
 10
3.59164909529943
 20
-17.42726177080976
 10
3.555001169495552
 20
-17.43197931375268
 10
3.515736536288601
 20
-17.43540432095693
 10
3.474682084770973
 20
-17.43748327769663
 10
3.43271985111893
 20
-17.4381804035865
  0
LINE
  5
DF
330
70
100
AcDbEntity
  8
Layer 1
 62
    18
420
        0
370
     5
100
AcDbLine
 10
3.855952405040132
 20
-17.42188121931425
 30
0.0
 11
3.860304676628718
 21
-17.40861398213762
 31
0.0
  0
LINE
  5
E0
330
70
100
AcDbEntity
  8
Layer 1
 62
    18
420
        0
370
     5
100
AcDbLine
 10
6.684111998098968
 20
-22.23885248982318
 30
0.0
 11
6.749642239556426
 21
-22.23885248982318
 31
0.0
  0
LINE
  5
E1
330
70
100
AcDbEntity
  8
Layer 1
 62
    18
420
        0
370
     5
100
AcDbLine
 10
5.824573664315531
 20
-22.12963542072743
 30
0.0
 11
6.640425170460679
 21
-22.12963542072743
 31
0.0
  0
LINE
  5
E2
330
70
100
AcDbEntity
  8
Layer 1
 62
    18
420
        0
370
     5
100
AcDbLine
 10
3.197572921430201
 20
-17.35658560571902
 30
0.0
 11
3.197572921430201
 21
-17.36526858966519
 31
0.0
  0
LINE
  5
E3
330
70
100
AcDbEntity
  8
Layer 1
 62
    18
420
        0
370
     5
100
AcDbLine
 10
3.198271919955876
 20
-17.37537460332416
 30
0.0
 11
3.198271919955876
 21
-17.38738008333348
 31
0.0
  0
LINE
  5
E4
330
70
100
AcDbEntity
  8
Layer 1
 62
    18
420
        0
370
     5
100
AcDbLine
 10
3.202947657990522
 20
-17.37334502285683
 30
0.0
 11
3.202947657990522
 21
-17.36729828928835
 31
0.0
  0
LINE
  5
E5
330
70
100
AcDbEntity
  8
Layer 1
 62
    18
420
        0
370
     5
100
AcDbLine
 10
3.221591491366539
 20
-17.35619848920335
 30
0.0
 11
3.221591491366539
 21
-17.36224522288103
 31
0.0
  0
LINE
  5
E6
330
70
100
AcDbEntity
  8
Layer 1
 62
    18
420
        0
370
     5
100
AcDbLine
 10
3.221591491366539
 20
-17.37839797021757
 30
0.0
 11
3.221591491366539
 21
-17.38444470378605
 31
0.0
  0
LINE
  5
E7
330
70
100
AcDbEntity
  8
Layer 1
 62
    18
420
        0
370
     5
100
AcDbLine
 10
3.226966228036063
 20
-17.35041714251878
 30
0.0
 11
3.226966228036063
 21
-17.35416878968938
 31
0.0
  0
LINE
  5
E8
330
70
100
AcDbEntity
  8
Layer 1
 62
    18
420
        0
370
     5
100
AcDbLine
 10
3.226966228036063
 20
-17.36427492239489
 30
0.0
 11
3.226966228036063
 21
-17.376368389641
 31
0.0
  0
LINE
  5
E9
330
70
100
AcDbEntity
  8
Layer 1
 62
    18
420
        0
370
     5
100
AcDbLine
 10
3.232280510873503
 20
-17.38714334517903
 30
0.0
 11
3.232280510873503
 21
-17.39789892877626
 31
0.0
  0
LINE
  5
EA
330
70
100
AcDbEntity
  8
Layer 1
 62
    18
420
        0
370
     5
100
AcDbLine
 10
3.232341083752228
 20
-17.38444470378605
 30
0.0
 11
3.232341083752228
 21
-17.37839797021757
 31
0.0
  0
LINE
  5
EB
330
70
100
AcDbEntity
  8
Layer 1
 62
    18
420
        0
370
     5
100
AcDbLine
 10
3.232341083752228
 20
-17.36224522288103
 30
0.0
 11
3.232341083752228
 21
-17.35619848920335
 31
0.0
  0
LINE
  5
EC
330
70
100
AcDbEntity
  8
Layer 1
 62
    18
420
        0
370
     5
100
AcDbLine
 10
3.250984798081617
 20
-17.34634805167732
 30
0.0
 11
3.250984798081617
 21
-17.35114542279598
 31
0.0
  0
LINE
  5
ED
330
70
100
AcDbEntity
  8
Layer 1
 62
    18
420
        0
370
     5
100
AcDbLine
 10
3.250984798081617
 20
-17.36729828928835
 30
0.0
 11
3.250984798081617
 21
-17.37334502285683
 31
0.0
  0
LINE
  5
EE
330
70
100
AcDbEntity
  8
Layer 1
 62
    18
420
        0
370
     5
100
AcDbLine
 10
3.250984798081617
 20
-17.38949777019343
 30
0.0
 11
3.250984798081617
 21
-17.3955445038711
 31
0.0
  0
LINE
  5
EF
330
70
100
AcDbEntity
  8
Layer 1
 62
    18
420
        0
370
     5
100
AcDbLine
 10
3.253295617307445
 20
-17.42359607102869
 30
0.0
 11
3.253295617307445
 21
-17.45285727533003
 31
0.0
  0
LINE
  5
F0
330
70
100
AcDbEntity
  8
Layer 1
 62
    18
420
        0
370
     5
100
AcDbLine
 10
3.256359653797769
 20
-17.35317512241909
 30
0.0
 11
3.256359653797769
 21
-17.36526858966519
 31
0.0
  0
LINE
  5
F1
330
70
100
AcDbEntity
  8
Layer 1
 62
    18
420
        0
370
     5
100
AcDbLine
 10
3.256359653797769
 20
-17.34090061532106
 30
0.0
 11
3.256359653797769
 21
-17.34306910865093
 31
0.0
  0
LINE
  5
F2
330
70
100
AcDbEntity
  8
Layer 1
 62
    18
420
        0
370
     5
100
AcDbLine
 10
3.256359653797769
 20
-17.37537460332416
 30
0.0
 11
3.256359653797769
 21
-17.38746807057027
 31
0.0
  0
LINE
  5
F3
330
70
100
AcDbEntity
  8
Layer 1
 62
    18
420
        0
370
     5
100
AcDbLine
 10
3.261734390467305
 20
-17.37334502285683
 30
0.0
 11
3.261734390467305
 21
-17.36729828928835
 31
0.0
  0
LINE
  5
F4
330
70
100
AcDbEntity
  8
Layer 1
 62
    18
420
        0
370
     5
100
AcDbLine
 10
3.261734390467305
 20
-17.3955445038711
 30
0.0
 11
3.261734390467305
 21
-17.38949777019343
 31
0.0
  0
LINE
  5
F5
330
70
100
AcDbEntity
  8
Layer 1
 62
    18
420
        0
370
     5
100
AcDbLine
 10
3.261734390467305
 20
-17.35114542279598
 30
0.0
 11
3.261734390467305
 21
-17.34509868922749
 31
0.0
  0
LINE
  5
F6
330
70
100
AcDbEntity
  8
Layer 1
 62
    18
420
        0
370
     5
100
AcDbLine
 10
3.280378223843323
 20
-17.35619848920335
 30
0.0
 11
3.280378223843323
 21
-17.36224522288103
 31
0.0
  0
LINE
  5
F7
330
70
100
AcDbEntity
  8
Layer 1
 62
    18
420
        0
370
     5
100
AcDbLine
 10
3.280378223843323
 20
-17.3382419093678
 30
0.0
 11
3.280378223843323
 21
-17.34004574186676
 31
0.0
  0
LINE
  5
F8
330
70
100
AcDbEntity
  8
Layer 1
 62
    18
420
        0
370
     5
100
AcDbLine
 10
3.280378223843323
 20
-17.37839797021757
 30
0.0
 11
3.280378223843323
 21
-17.38444470378605
 31
0.0
  0
LINE
  5
F9
330
70
100
AcDbEntity
  8
Layer 1
 62
    18
420
        0
370
     5
100
AcDbLine
 10
3.280378223843323
 20
-17.40059745112264
 30
0.0
 11
3.280378223843323
 21
-17.40720600767008
 31
0.0
  0
LINE
  5
FA
330
70
100
AcDbEntity
  8
Layer 1
 62
    18
420
        0
370
     5
100
AcDbLine
 10
3.285752960403644
 20
-17.34207532244328
 30
0.0
 11
3.285752960403644
 21
-17.35416878968938
 31
0.0
  0
LINE
  5
FB
330
70
100
AcDbEntity
  8
Layer 1
 62
    18
420
        0
370
     5
100
AcDbLine
 10
3.285752960403644
 20
-17.36427492239489
 30
0.0
 11
3.285752960403644
 21
-17.376368389641
 31
0.0
  0
LINE
  5
FC
330
70
100
AcDbEntity
  8
Layer 1
 62
    18
420
        0
370
     5
100
AcDbLine
 10
3.285752960403644
 20
-17.38647440340921
 30
0.0
 11
3.285752960403644
 21
-17.39856787065527
 31
0.0
  0
LINE
  5
FD
330
70
100
AcDbEntity
  8
Layer 1
 62
    18
420
        0
370
     5
100
AcDbLine
 10
3.291127816229011
 20
-17.40874631368872
 30
0.0
 11
3.291127816229011
 21
-17.40059745112264
 31
0.0
  0
LINE
  5
FE
330
70
100
AcDbEntity
  8
Layer 1
 62
    18
420
        0
370
     5
100
AcDbLine
 10
3.291127816229011
 20
-17.36224522288103
 30
0.0
 11
3.291127816229011
 21
-17.35619848920335
 31
0.0
  0
LINE
  5
FF
330
70
100
AcDbEntity
  8
Layer 1
 62
    18
420
        0
370
     5
100
AcDbLine
 10
3.291127816229011
 20
-17.34004574186676
 30
0.0
 11
3.291127816229011
 21
-17.33736778454835
 31
0.0
  0
LINE
  5
100
330
70
100
AcDbEntity
  8
Layer 1
 62
    18
420
        0
370
     5
100
AcDbLine
 10
3.306796378632308
 20
-17.39862515173152
 30
0.0
 11
3.306796378632308
 21
-17.41071861897757
 31
0.0
  0
LINE
  5
101
330
70
100
AcDbEntity
  8
Layer 1
 62
    18
420
        0
370
     5
100
AcDbLine
 10
3.309771530449185
 20
-17.34509868922749
 30
0.0
 11
3.309771530449185
 21
-17.35114542279598
 31
0.0
  0
LINE
  5
102
330
70
100
AcDbEntity
  8
Layer 1
 62
    18
420
        0
370
     5
100
AcDbLine
 10
3.309771530449185
 20
-17.36729828928835
 30
0.0
 11
3.309771530449185
 21
-17.37334502285683
 31
0.0
  0
LINE
  5
103
330
70
100
AcDbEntity
  8
Layer 1
 62
    18
420
        0
370
     5
100
AcDbLine
 10
3.309771530449185
 20
-17.38949777019343
 30
0.0
 11
3.309771530449185
 21
-17.3955445038711
 31
0.0
  0
LINE
  5
104
330
70
100
AcDbEntity
  8
Layer 1
 62
    18
420
        0
370
     5
100
AcDbLine
 10
3.315146386274553
 20
-17.35317512241909
 30
0.0
 11
3.315146386274553
 21
-17.36526858966519
 31
0.0
  0
LINE
  5
105
330
70
100
AcDbEntity
  8
Layer 1
 62
    18
420
        0
370
     5
100
AcDbLine
 10
3.315146386274553
 20
-17.33541466607731
 30
0.0
 11
3.315146386274553
 21
-17.34306910865093
 31
0.0
  0
LINE
  5
106
330
70
100
AcDbEntity
  8
Layer 1
 62
    18
420
        0
370
     5
100
AcDbLine
 10
3.320521122834874
 20
-17.37334502285683
 30
0.0
 11
3.320521122834874
 21
-17.36729828928835
 31
0.0
  0
LINE
  5
107
330
70
100
AcDbEntity
  8
Layer 1
 62
    18
420
        0
370
     5
100
AcDbLine
 10
3.320521122834874
 20
-17.3955445038711
 30
0.0
 11
3.320521122834874
 21
-17.38949777019343
 31
0.0
  0
LINE
  5
108
330
70
100
AcDbEntity
  8
Layer 1
 62
    18
420
        0
370
     5
100
AcDbLine
 10
3.320521122834874
 20
-17.35114542279598
 30
0.0
 11
3.320521122834874
 21
-17.34509868922749
 31
0.0
  0
LINE
  5
109
330
70
100
AcDbEntity
  8
Layer 1
 62
    18
420
        0
370
     5
100
AcDbLine
 10
3.339164956210904
 20
-17.35619848920335
 30
0.0
 11
3.339164956210904
 21
-17.36224522288103
 31
0.0
  0
LINE
  5
10A
330
70
100
AcDbEntity
  8
Layer 1
 62
    18
420
        0
370
     5
100
AcDbLine
 10
3.339164956210904
 20
-17.33399900829833
 30
0.0
 11
3.339164956210904
 21
-17.34004574186676
 31
0.0
  0
LINE
  5
10B
330
70
100
AcDbEntity
  8
Layer 1
 62
    18
420
        0
370
     5
100
AcDbLine
 10
3.339164956210904
 20
-17.40059745112264
 30
0.0
 11
3.339164956210904
 21
-17.40664418480032
 31
0.0
  0
LINE
  5
10C
330
70
100
AcDbEntity
  8
Layer 1
 62
    18
420
        0
370
     5
100
AcDbLine
 10
3.34453969288044
 20
-17.34207532244328
 30
0.0
 11
3.34453969288044
 21
-17.35416878968938
 31
0.0
  0
LINE
  5
10D
330
70
100
AcDbEntity
  8
Layer 1
 62
    18
420
        0
370
     5
100
AcDbLine
 10
3.34453969288044
 20
-17.36427492239489
 30
0.0
 11
3.34453969288044
 21
-17.376368389641
 31
0.0
  0
LINE
  5
10E
330
70
100
AcDbEntity
  8
Layer 1
 62
    18
420
        0
370
     5
100
AcDbLine
 10
3.34453969288044
 20
-17.38647440340921
 30
0.0
 11
3.34453969288044
 21
-17.39856787065527
 31
0.0
  0
LINE
  5
10F
330
70
100
AcDbEntity
  8
Layer 1
 62
    18
420
        0
370
     5
100
AcDbLine
 10
3.34991454859658
 20
-17.40664418480032
 30
0.0
 11
3.34991454859658
 21
-17.40059745112264
 31
0.0
  0
LINE
  5
110
330
70
100
AcDbEntity
  8
Layer 1
 62
    18
420
        0
370
     5
100
AcDbLine
 10
3.34991454859658
 20
-17.38444470378605
 30
0.0
 11
3.34991454859658
 21
-17.37839797021757
 31
0.0
  0
LINE
  5
111
330
70
100
AcDbEntity
  8
Layer 1
 62
    18
420
        0
370
     5
100
AcDbLine
 10
3.34991454859658
 20
-17.34004574186676
 30
0.0
 11
3.34991454859658
 21
-17.33399900829833
 31
0.0
  0
LINE
  5
112
330
70
100
AcDbEntity
  8
Layer 1
 62
    18
420
        0
370
     5
100
AcDbLine
 10
3.34991454859658
 20
-17.36224522288103
 30
0.0
 11
3.34991454859658
 21
-17.35619848920335
 31
0.0
  0
LINE
  5
113
330
70
100
AcDbEntity
  8
Layer 1
 62
    18
420
        0
370
     5
100
AcDbLine
 10
3.368558262925994
 20
-17.34509868922749
 30
0.0
 11
3.368558262925994
 21
-17.35114542279598
 31
0.0
  0
LINE
  5
114
330
70
100
AcDbEntity
  8
Layer 1
 62
    18
420
        0
370
     5
100
AcDbLine
 10
3.368558262925994
 20
-17.36729828928835
 30
0.0
 11
3.368558262925994
 21
-17.37334502285683
 31
0.0
  0
LINE
  5
115
330
70
100
AcDbEntity
  8
Layer 1
 62
    18
420
        0
370
     5
100
AcDbLine
 10
3.368558262925994
 20
-17.38949777019343
 30
0.0
 11
3.368558262925994
 21
-17.3955445038711
 31
0.0
  0
LINE
  5
116
330
70
100
AcDbEntity
  8
Layer 1
 62
    18
420
        0
370
     5
100
AcDbLine
 10
3.368558262925994
 20
-17.41169725120764
 30
0.0
 11
3.368558262925994
 21
-17.41587846909775
 31
0.0
  0
LINE
  5
117
330
70
100
AcDbEntity
  8
Layer 1
 62
    18
420
        0
370
     5
100
AcDbLine
 10
3.371493146737154
 20
-17.43702540402905
 30
0.0
 11
3.371493146737154
 21
-17.4726951782671
 31
0.0
  0
LINE
  5
118
330
70
100
AcDbEntity
  8
Layer 1
 62
    18
420
        0
370
     5
100
AcDbLine
 10
3.373933118642134
 20
-17.33226566111003
 30
0.0
 11
3.373933118642134
 21
-17.34306910865093
 31
0.0
  0
LINE
  5
119
330
70
100
AcDbEntity
  8
Layer 1
 62
    18
420
        0
370
     5
100
AcDbLine
 10
3.373933118642134
 20
-17.35317512241909
 30
0.0
 11
3.373933118642134
 21
-17.36526858966519
 31
0.0
  0
LINE
  5
11A
330
70
100
AcDbEntity
  8
Layer 1
 62
    18
420
        0
370
     5
100
AcDbLine
 10
3.373933118642134
 20
-17.37537460332416
 30
0.0
 11
3.373933118642134
 21
-17.38746807057027
 31
0.0
  0
LINE
  5
11B
330
70
100
AcDbEntity
  8
Layer 1
 62
    18
420
        0
370
     5
100
AcDbLine
 10
3.373933118642134
 20
-17.39757408433843
 30
0.0
 11
3.373933118642134
 21
-17.40966755158448
 31
0.0
  0
LINE
  5
11C
330
70
100
AcDbEntity
  8
Layer 1
 62
    18
420
        0
370
     5
100
AcDbLine
 10
3.378399817609331
 20
-17.46415524825796
 30
0.0
 11
3.378399817609331
 21
-17.43685758490326
 31
0.0
  0
LINE
  5
11D
330
70
100
AcDbEntity
  8
Layer 1
 62
    18
420
        0
370
     5
100
AcDbLine
 10
3.37930785531167
 20
-17.41640619920422
 30
0.0
 11
3.37930785531167
 21
-17.41169725120764
 31
0.0
  0
LINE
  5
11E
330
70
100
AcDbEntity
  8
Layer 1
 62
    18
420
        0
370
     5
100
AcDbLine
 10
3.37930785531167
 20
-17.3955445038711
 30
0.0
 11
3.37930785531167
 21
-17.38949777019343
 31
0.0
  0
LINE
  5
11F
330
70
100
AcDbEntity
  8
Layer 1
 62
    18
420
        0
370
     5
100
AcDbLine
 10
3.37930785531167
 20
-17.37334502285683
 30
0.0
 11
3.37930785531167
 21
-17.36729828928835
 31
0.0
  0
LINE
  5
120
330
70
100
AcDbEntity
  8
Layer 1
 62
    18
420
        0
370
     5
100
AcDbLine
 10
3.37930785531167
 20
-17.35114542279598
 30
0.0
 11
3.37930785531167
 21
-17.34509868922749
 31
0.0
  0
LINE
  5
121
330
70
100
AcDbEntity
  8
Layer 1
 62
    18
420
        0
370
     5
100
AcDbLine
 10
3.397951688687662
 20
-17.33425983951974
 30
0.0
 11
3.397951688687662
 21
-17.34004574186676
 31
0.0
  0
LINE
  5
122
330
70
100
AcDbEntity
  8
Layer 1
 62
    18
420
        0
370
     5
100
AcDbLine
 10
3.397951688687662
 20
-17.35619848920335
 30
0.0
 11
3.397951688687662
 21
-17.36224522288103
 31
0.0
  0
LINE
  5
123
330
70
100
AcDbEntity
  8
Layer 1
 62
    18
420
        0
370
     5
100
AcDbLine
 10
3.397951688687662
 20
-17.37839797021757
 30
0.0
 11
3.397951688687662
 21
-17.38444470378605
 31
0.0
  0
LINE
  5
124
330
70
100
AcDbEntity
  8
Layer 1
 62
    18
420
        0
370
     5
100
AcDbLine
 10
3.397951688687662
 20
-17.40059745112264
 30
0.0
 11
3.397951688687662
 21
-17.40664418480032
 31
0.0
  0
LINE
  5
125
330
70
100
AcDbEntity
  8
Layer 1
 62
    18
420
        0
370
     5
100
AcDbLine
 10
3.403326425247996
 20
-17.34207532244328
 30
0.0
 11
3.403326425247996
 21
-17.35416878968938
 31
0.0
  0
LINE
  5
126
330
70
100
AcDbEntity
  8
Layer 1
 62
    18
420
        0
370
     5
100
AcDbLine
 10
3.403326425247996
 20
-17.38647440340921
 30
0.0
 11
3.403326425247996
 21
-17.39856787065527
 31
0.0
  0
LINE
  5
127
330
70
100
AcDbEntity
  8
Layer 1
 62
    18
420
        0
370
     5
100
AcDbLine
 10
3.403326425247996
 20
-17.36427492239489
 30
0.0
 11
3.403326425247996
 21
-17.376368389641
 31
0.0
  0
LINE
  5
128
330
70
100
AcDbEntity
  8
Layer 1
 62
    18
420
        0
370
     5
100
AcDbLine
 10
3.408701281073363
 20
-17.40664418480032
 30
0.0
 11
3.408701281073363
 21
-17.40059745112264
 31
0.0
  0
LINE
  5
129
330
70
100
AcDbEntity
  8
Layer 1
 62
    18
420
        0
370
     5
100
AcDbLine
 10
3.408701281073363
 20
-17.38444470378605
 30
0.0
 11
3.408701281073363
 21
-17.37839797021757
 31
0.0
  0
LINE
  5
12A
330
70
100
AcDbEntity
  8
Layer 1
 62
    18
420
        0
370
     5
100
AcDbLine
 10
3.408701281073363
 20
-17.34004574186676
 30
0.0
 11
3.408701281073363
 21
-17.33405478621999
 31
0.0
  0
LINE
  5
12B
330
70
100
AcDbEntity
  8
Layer 1
 62
    18
420
        0
370
     5
100
AcDbLine
 10
3.427344995293562
 20
-17.34509868922749
 30
0.0
 11
3.427344995293562
 21
-17.35114542279598
 31
0.0
  0
LINE
  5
12C
330
70
100
AcDbEntity
  8
Layer 1
 62
    18
420
        0
370
     5
100
AcDbLine
 10
3.427344995293562
 20
-17.38949777019343
 30
0.0
 11
3.427344995293562
 21
-17.3955445038711
 31
0.0
  0
LINE
  5
12D
330
70
100
AcDbEntity
  8
Layer 1
 62
    18
420
        0
370
     5
100
AcDbLine
 10
3.427344995293562
 20
-17.36729828928835
 30
0.0
 11
3.427344995293562
 21
-17.37334502285683
 31
0.0
  0
LINE
  5
12E
330
70
100
AcDbEntity
  8
Layer 1
 62
    18
420
        0
370
     5
100
AcDbLine
 10
3.427344995293562
 20
-17.41169725120764
 30
0.0
 11
3.427344995293562
 21
-17.41756809986054
 31
0.0
  0
LINE
  5
12F
330
70
100
AcDbEntity
  8
Layer 1
 62
    18
420
        0
370
     5
100
AcDbLine
 10
3.43271985111893
 20
-17.33383193173939
 30
0.0
 11
3.43271985111893
 21
-17.34306910865093
 31
0.0
  0
LINE
  5
130
330
70
100
AcDbEntity
  8
Layer 1
 62
    18
420
        0
370
     5
100
AcDbLine
 10
3.43271985111893
 20
-17.37537460332416
 30
0.0
 11
3.43271985111893
 21
-17.38746807057027
 31
0.0
  0
LINE
  5
131
330
70
100
AcDbEntity
  8
Layer 1
 62
    18
420
        0
370
     5
100
AcDbLine
 10
3.43271985111893
 20
-17.39757408433843
 30
0.0
 11
3.43271985111893
 21
-17.40966755158448
 31
0.0
  0
LINE
  5
132
330
70
100
AcDbEntity
  8
Layer 1
 62
    18
420
        0
370
     5
100
AcDbLine
 10
3.43809470683507
 20
-17.41756809986054
 30
0.0
 11
3.43809470683507
 21
-17.41169725120764
 31
0.0
  0
LINE
  5
133
330
70
100
AcDbEntity
  8
Layer 1
 62
    18
420
        0
370
     5
100
AcDbLine
 10
3.43809470683507
 20
-17.3955445038711
 30
0.0
 11
3.43809470683507
 21
-17.38949777019343
 31
0.0
  0
LINE
  5
134
330
70
100
AcDbEntity
  8
Layer 1
 62
    18
420
        0
370
     5
100
AcDbLine
 10
3.43809470683507
 20
-17.37334502285683
 30
0.0
 11
3.43809470683507
 21
-17.36729828928835
 31
0.0
  0
LINE
  5
135
330
70
100
AcDbEntity
  8
Layer 1
 62
    18
420
        0
370
     5
100
AcDbLine
 10
3.43809470683507
 20
-17.35114542279598
 30
0.0
 11
3.43809470683507
 21
-17.34509868922749
 31
0.0
  0
LINE
  5
136
330
70
100
AcDbEntity
  8
Layer 1
 62
    18
420
        0
370
     5
100
AcDbLine
 10
3.456738421055256
 20
-17.33405478621999
 30
0.0
 11
3.456738421055256
 21
-17.34004574186676
 31
0.0
  0
LINE
  5
137
330
70
100
AcDbEntity
  8
Layer 1
 62
    18
420
        0
370
     5
100
AcDbLine
 10
3.456738421055256
 20
-17.37839797021757
 30
0.0
 11
3.456738421055256
 21
-17.38444470378605
 31
0.0
  0
LINE
  5
138
330
70
100
AcDbEntity
  8
Layer 1
 62
    18
420
        0
370
     5
100
AcDbLine
 10
3.456738421055256
 20
-17.40059745112264
 30
0.0
 11
3.456738421055256
 21
-17.40664418480032
 31
0.0
  0
LINE
  5
139
330
70
100
AcDbEntity
  8
Layer 1
 62
    18
420
        0
370
     5
100
AcDbLine
 10
3.462113276880611
 20
-17.34207532244328
 30
0.0
 11
3.462113276880611
 21
-17.35416878968938
 31
0.0
  0
LINE
  5
13A
330
70
100
AcDbEntity
  8
Layer 1
 62
    18
420
        0
370
     5
100
AcDbLine
 10
3.462113276880611
 20
-17.38647440340921
 30
0.0
 11
3.462113276880611
 21
-17.39856787065527
 31
0.0
  0
LINE
  5
13B
330
70
100
AcDbEntity
  8
Layer 1
 62
    18
420
        0
370
     5
100
AcDbLine
 10
3.462113276880611
 20
-17.36427492239489
 30
0.0
 11
3.462113276880611
 21
-17.376368389641
 31
0.0
  0
LINE
  5
13C
330
70
100
AcDbEntity
  8
Layer 1
 62
    18
420
        0
370
     5
100
AcDbLine
 10
3.467488013440932
 20
-17.40664418480032
 30
0.0
 11
3.467488013440932
 21
-17.40059745112264
 31
0.0
  0
LINE
  5
13D
330
70
100
AcDbEntity
  8
Layer 1
 62
    18
420
        0
370
     5
100
AcDbLine
 10
3.467488013440932
 20
-17.38444470378605
 30
0.0
 11
3.467488013440932
 21
-17.37839797021757
 31
0.0
  0
LINE
  5
13E
330
70
100
AcDbEntity
  8
Layer 1
 62
    18
420
        0
370
     5
100
AcDbLine
 10
3.467488013440932
 20
-17.34004574186676
 30
0.0
 11
3.467488013440932
 21
-17.33425983951974
 31
0.0
  0
LINE
  5
13F
330
70
100
AcDbEntity
  8
Layer 1
 62
    18
420
        0
370
     5
100
AcDbLine
 10
3.467488013440932
 20
-17.36224522288103
 30
0.0
 11
3.467488013440932
 21
-17.35619848920335
 31
0.0
  0
LINE
  5
140
330
70
100
AcDbEntity
  8
Layer 1
 62
    18
420
        0
370
     5
100
AcDbLine
 10
3.486131846926177
 20
-17.34509868922749
 30
0.0
 11
3.486131846926177
 21
-17.35114542279598
 31
0.0
  0
LINE
  5
141
330
70
100
AcDbEntity
  8
Layer 1
 62
    18
420
        0
370
     5
100
AcDbLine
 10
3.486131846926177
 20
-17.38949777019343
 30
0.0
 11
3.486131846926177
 21
-17.3955445038711
 31
0.0
  0
LINE
  5
142
330
70
100
AcDbEntity
  8
Layer 1
 62
    18
420
        0
370
     5
100
AcDbLine
 10
3.486131846926177
 20
-17.36729828928835
 30
0.0
 11
3.486131846926177
 21
-17.37334502285683
 31
0.0
  0
LINE
  5
143
330
70
100
AcDbEntity
  8
Layer 1
 62
    18
420
        0
370
     5
100
AcDbLine
 10
3.486131846926177
 20
-17.41169725120764
 30
0.0
 11
3.486131846926177
 21
-17.41640619920422
 31
0.0
  0
LINE
  5
144
330
70
100
AcDbEntity
  8
Layer 1
 62
    18
420
        0
370
     5
100
AcDbLine
 10
3.487039884519314
 20
-17.43685749097656
 30
0.0
 11
3.487039884519314
 21
-17.46415524825796
 31
0.0
  0
LINE
  5
145
330
70
100
AcDbEntity
  8
Layer 1
 62
    18
420
        0
370
     5
100
AcDbLine
 10
3.491506583486498
 20
-17.33226566078242
 30
0.0
 11
3.491506583486498
 21
-17.34306910865093
 31
0.0
  0
LINE
  5
146
330
70
100
AcDbEntity
  8
Layer 1
 62
    18
420
        0
370
     5
100
AcDbLine
 10
3.491506583486498
 20
-17.35317512241909
 30
0.0
 11
3.491506583486498
 21
-17.36526858966519
 31
0.0
  0
LINE
  5
147
330
70
100
AcDbEntity
  8
Layer 1
 62
    18
420
        0
370
     5
100
AcDbLine
 10
3.491506583486498
 20
-17.37537460332416
 30
0.0
 11
3.491506583486498
 21
-17.38746807057027
 31
0.0
  0
LINE
  5
148
330
70
100
AcDbEntity
  8
Layer 1
 62
    18
420
        0
370
     5
100
AcDbLine
 10
3.491506583486498
 20
-17.39757408433843
 30
0.0
 11
3.491506583486498
 21
-17.40966755158448
 31
0.0
  0
LINE
  5
149
330
70
100
AcDbEntity
  8
Layer 1
 62
    18
420
        0
370
     5
100
AcDbLine
 10
3.493946555500694
 20
-17.4726951782671
 30
0.0
 11
3.493946555500694
 21
-17.43702540402905
 31
0.0
  0
LINE
  5
14A
330
70
100
AcDbEntity
  8
Layer 1
 62
    18
420
        0
370
     5
100
AcDbLine
 10
3.496881439311866
 20
-17.41587846909775
 30
0.0
 11
3.496881439311866
 21
-17.41169725120764
 31
0.0
  0
LINE
  5
14B
330
70
100
AcDbEntity
  8
Layer 1
 62
    18
420
        0
370
     5
100
AcDbLine
 10
3.496881439311866
 20
-17.37334502285683
 30
0.0
 11
3.496881439311866
 21
-17.36729828928835
 31
0.0
  0
LINE
  5
14C
330
70
100
AcDbEntity
  8
Layer 1
 62
    18
420
        0
370
     5
100
AcDbLine
 10
3.496881439311866
 20
-17.3955445038711
 30
0.0
 11
3.496881439311866
 21
-17.38949777019343
 31
0.0
  0
LINE
  5
14D
330
70
100
AcDbEntity
  8
Layer 1
 62
    18
420
        0
370
     5
100
AcDbLine
 10
3.496881439311866
 20
-17.35114542279598
 30
0.0
 11
3.496881439311866
 21
-17.34509868922749
 31
0.0
  0
LINE
  5
14E
330
70
100
AcDbEntity
  8
Layer 1
 62
    18
420
        0
370
     5
100
AcDbLine
 10
3.515525153532053
 20
-17.33399900829833
 30
0.0
 11
3.515525153532053
 21
-17.34004574186676
 31
0.0
  0
LINE
  5
14F
330
70
100
AcDbEntity
  8
Layer 1
 62
    18
420
        0
370
     5
100
AcDbLine
 10
3.515525153532053
 20
-17.35619848920335
 30
0.0
 11
3.515525153532053
 21
-17.36224522288103
 31
0.0
  0
LINE
  5
150
330
70
100
AcDbEntity
  8
Layer 1
 62
    18
420
        0
370
     5
100
AcDbLine
 10
3.515525153532053
 20
-17.37839797021757
 30
0.0
 11
3.515525153532053
 21
-17.38444470378605
 31
0.0
  0
LINE
  5
151
330
70
100
AcDbEntity
  8
Layer 1
 62
    18
420
        0
370
     5
100
AcDbLine
 10
3.515525153532053
 20
-17.40059745112264
 30
0.0
 11
3.515525153532053
 21
-17.40664418480032
 31
0.0
  0
LINE
  5
152
330
70
100
AcDbEntity
  8
Layer 1
 62
    18
420
        0
370
     5
100
AcDbLine
 10
3.520900009248192
 20
-17.34207532244328
 30
0.0
 11
3.520900009248192
 21
-17.35416878968938
 31
0.0
  0
LINE
  5
153
330
70
100
AcDbEntity
  8
Layer 1
 62
    18
420
        0
370
     5
100
AcDbLine
 10
3.520900009248192
 20
-17.36427492239489
 30
0.0
 11
3.520900009248192
 21
-17.376368389641
 31
0.0
  0
LINE
  5
154
330
70
100
AcDbEntity
  8
Layer 1
 62
    18
420
        0
370
     5
100
AcDbLine
 10
3.520900009248192
 20
-17.38647440340921
 30
0.0
 11
3.520900009248192
 21
-17.39856787065527
 31
0.0
  0
LINE
  5
155
330
70
100
AcDbEntity
  8
Layer 1
 62
    18
420
        0
370
     5
100
AcDbLine
 10
3.526274745917728
 20
-17.40664418480032
 30
0.0
 11
3.526274745917728
 21
-17.40059745112264
 31
0.0
  0
LINE
  5
156
330
70
100
AcDbEntity
  8
Layer 1
 62
    18
420
        0
370
     5
100
AcDbLine
 10
3.526274745917728
 20
-17.38444470378605
 30
0.0
 11
3.526274745917728
 21
-17.37839797021757
 31
0.0
  0
LINE
  5
157
330
70
100
AcDbEntity
  8
Layer 1
 62
    18
420
        0
370
     5
100
AcDbLine
 10
3.526274745917728
 20
-17.34004574186676
 30
0.0
 11
3.526274745917728
 21
-17.33399900829833
 31
0.0
  0
LINE
  5
158
330
70
100
AcDbEntity
  8
Layer 1
 62
    18
420
        0
370
     5
100
AcDbLine
 10
3.526274745917728
 20
-17.36224522288103
 30
0.0
 11
3.526274745917728
 21
-17.35619848920335
 31
0.0
  0
LINE
  5
159
330
70
100
AcDbEntity
  8
Layer 1
 62
    18
420
        0
370
     5
100
AcDbLine
 10
3.544918579293759
 20
-17.34509868922749
 30
0.0
 11
3.544918579293759
 21
-17.35114542279598
 31
0.0
  0
LINE
  5
15A
330
70
100
AcDbEntity
  8
Layer 1
 62
    18
420
        0
370
     5
100
AcDbLine
 10
3.544918579293759
 20
-17.36729828928835
 30
0.0
 11
3.544918579293759
 21
-17.37334502285683
 31
0.0
  0
LINE
  5
15B
330
70
100
AcDbEntity
  8
Layer 1
 62
    18
420
        0
370
     5
100
AcDbLine
 10
3.544918579293759
 20
-17.38949777019343
 30
0.0
 11
3.544918579293759
 21
-17.3955445038711
 31
0.0
  0
LINE
  5
15C
330
70
100
AcDbEntity
  8
Layer 1
 62
    18
420
        0
370
     5
100
AcDbLine
 10
3.550293315963282
 20
-17.33541466553126
 30
0.0
 11
3.550293315963282
 21
-17.34306910865093
 31
0.0
  0
LINE
  5
15D
330
70
100
AcDbEntity
  8
Layer 1
 62
    18
420
        0
370
     5
100
AcDbLine
 10
3.550293315963282
 20
-17.35317512241909
 30
0.0
 11
3.550293315963282
 21
-17.36526858966519
 31
0.0
  0
LINE
  5
15E
330
70
100
AcDbEntity
  8
Layer 1
 62
    18
420
        0
370
     5
100
AcDbLine
 10
3.550293315963282
 20
-17.37537460332416
 30
0.0
 11
3.550293315963282
 21
-17.38746807057027
 31
0.0
  0
LINE
  5
15F
330
70
100
AcDbEntity
  8
Layer 1
 62
    18
420
        0
370
     5
100
AcDbLine
 10
3.555668171679422
 20
-17.3955445038711
 30
0.0
 11
3.555668171679422
 21
-17.38949777019343
 31
0.0
  0
LINE
  5
160
330
70
100
AcDbEntity
  8
Layer 1
 62
    18
420
        0
370
     5
100
AcDbLine
 10
3.555668171679422
 20
-17.35114542279598
 30
0.0
 11
3.555668171679422
 21
-17.34509868922749
 31
0.0
  0
LINE
  5
161
330
70
100
AcDbEntity
  8
Layer 1
 62
    18
420
        0
370
     5
100
AcDbLine
 10
3.55864332360554
 20
-17.41071861897757
 30
0.0
 11
3.55864332360554
 21
-17.39862515173152
 31
0.0
  0
LINE
  5
162
330
70
100
AcDbEntity
  8
Layer 1
 62
    18
420
        0
370
     5
100
AcDbLine
 10
3.574311885899621
 20
-17.33736778509445
 30
0.0
 11
3.574311885899621
 21
-17.34004574186676
 31
0.0
  0
LINE
  5
163
330
70
100
AcDbEntity
  8
Layer 1
 62
    18
420
        0
370
     5
100
AcDbLine
 10
3.574311885899621
 20
-17.35619848920335
 30
0.0
 11
3.574311885899621
 21
-17.36224522288103
 31
0.0
  0
LINE
  5
164
330
70
100
AcDbEntity
  8
Layer 1
 62
    18
420
        0
370
     5
100
AcDbLine
 10
3.574311885899621
 20
-17.37839797021757
 30
0.0
 11
3.574311885899621
 21
-17.38444470378605
 31
0.0
  0
LINE
  5
165
330
70
100
AcDbEntity
  8
Layer 1
 62
    18
420
        0
370
     5
100
AcDbLine
 10
3.574311885899621
 20
-17.40059745112264
 30
0.0
 11
3.574311885899621
 21
-17.40874631368872
 31
0.0
  0
LINE
  5
166
330
70
100
AcDbEntity
  8
Layer 1
 62
    18
420
        0
370
     5
100
AcDbLine
 10
3.579686741724988
 20
-17.34207532244328
 30
0.0
 11
3.579686741724988
 21
-17.35416878968938
 31
0.0
  0
LINE
  5
167
330
70
100
AcDbEntity
  8
Layer 1
 62
    18
420
        0
370
     5
100
AcDbLine
 10
3.579686741724988
 20
-17.38647440340921
 30
0.0
 11
3.579686741724988
 21
-17.39856787065527
 31
0.0
  0
LINE
  5
168
330
70
100
AcDbEntity
  8
Layer 1
 62
    18
420
        0
370
     5
100
AcDbLine
 10
3.585061478285322
 20
-17.40720600767008
 30
0.0
 11
3.585061478285322
 21
-17.40059745112264
 31
0.0
  0
LINE
  5
169
330
70
100
AcDbEntity
  8
Layer 1
 62
    18
420
        0
370
     5
100
AcDbLine
 10
3.585061478285322
 20
-17.38444470378605
 30
0.0
 11
3.585061478285322
 21
-17.37839797021757
 31
0.0
  0
LINE
  5
16A
330
70
100
AcDbEntity
  8
Layer 1
 62
    18
420
        0
370
     5
100
AcDbLine
 10
3.585061478285322
 20
-17.36224522288103
 30
0.0
 11
3.585061478285322
 21
-17.35619848920335
 31
0.0
  0
LINE
  5
16B
330
70
100
AcDbEntity
  8
Layer 1
 62
    18
420
        0
370
     5
100
AcDbLine
 10
3.585061478285322
 20
-17.34004574186676
 30
0.0
 11
3.585061478285322
 21
-17.33824191035076
 31
0.0
  0
LINE
  5
16C
330
70
100
AcDbEntity
  8
Layer 1
 62
    18
420
        0
370
     5
100
AcDbLine
 10
3.603705311770555
 20
-17.34509868922749
 30
0.0
 11
3.603705311770555
 21
-17.35114542279598
 31
0.0
  0
LINE
  5
16D
330
70
100
AcDbEntity
  8
Layer 1
 62
    18
420
        0
370
     5
100
AcDbLine
 10
3.603705311770555
 20
-17.38949777019343
 30
0.0
 11
3.603705311770555
 21
-17.3955445038711
 31
0.0
  0
LINE
  5
16E
330
70
100
AcDbEntity
  8
Layer 1
 62
    18
420
        0
370
     5
100
AcDbLine
 10
3.60908004833085
 20
-17.35317512241909
 30
0.0
 11
3.60908004833085
 21
-17.36526858966519
 31
0.0
  0
LINE
  5
16F
330
70
100
AcDbEntity
  8
Layer 1
 62
    18
420
        0
370
     5
100
AcDbLine
 10
3.60908004833085
 20
-17.34090061499344
 30
0.0
 11
3.60908004833085
 21
-17.34306910865093
 31
0.0
  0
LINE
  5
170
330
70
100
AcDbEntity
  8
Layer 1
 62
    18
420
        0
370
     5
100
AcDbLine
 10
3.60908004833085
 20
-17.37537460332416
 30
0.0
 11
3.60908004833085
 21
-17.38746807057027
 31
0.0
  0
LINE
  5
171
330
70
100
AcDbEntity
  8
Layer 1
 62
    18
420
        0
370
     5
100
AcDbLine
 10
3.612144084821162
 20
-17.45285727533003
 30
0.0
 11
3.612144084821162
 21
-17.42359741013918
 31
0.0
  0
LINE
  5
172
330
70
100
AcDbEntity
  8
Layer 1
 62
    18
420
        0
370
     5
100
AcDbLine
 10
3.614454904156218
 20
-17.37334502285683
 30
0.0
 11
3.614454904156218
 21
-17.36729828928835
 31
0.0
  0
LINE
  5
173
330
70
100
AcDbEntity
  8
Layer 1
 62
    18
420
        0
370
     5
100
AcDbLine
 10
3.614454904156218
 20
-17.3955445038711
 30
0.0
 11
3.614454904156218
 21
-17.38949777019343
 31
0.0
  0
LINE
  5
174
330
70
100
AcDbEntity
  8
Layer 1
 62
    18
420
        0
370
     5
100
AcDbLine
 10
3.614454904156218
 20
-17.35114542279598
 30
0.0
 11
3.614454904156218
 21
-17.34634805222342
 31
0.0
  0
LINE
  5
175
330
70
100
AcDbEntity
  8
Layer 1
 62
    18
420
        0
370
     5
100
AcDbLine
 10
3.633098618376404
 20
-17.35619848920335
 30
0.0
 11
3.633098618376404
 21
-17.36224522288103
 31
0.0
  0
LINE
  5
176
330
70
100
AcDbEntity
  8
Layer 1
 62
    18
420
        0
370
     5
100
AcDbLine
 10
3.633098618376404
 20
-17.37839797021757
 30
0.0
 11
3.633098618376404
 21
-17.38444470378605
 31
0.0
  0
LINE
  5
177
330
70
100
AcDbEntity
  8
Layer 1
 62
    18
420
        0
370
     5
100
AcDbLine
 10
3.633159191255092
 20
-17.39789892877626
 30
0.0
 11
3.633159191255092
 21
-17.38714334517903
 31
0.0
  0
LINE
  5
178
330
70
100
AcDbEntity
  8
Layer 1
 62
    18
420
        0
370
     5
100
AcDbLine
 10
3.638473474092557
 20
-17.35041713541962
 30
0.0
 11
3.638473474092557
 21
-17.35416878968938
 31
0.0
  0
LINE
  5
179
330
70
100
AcDbEntity
  8
Layer 1
 62
    18
420
        0
370
     5
100
AcDbLine
 10
3.638473474092557
 20
-17.36427492239489
 30
0.0
 11
3.638473474092557
 21
-17.376368389641
 31
0.0
  0
LINE
  5
17A
330
70
100
AcDbEntity
  8
Layer 1
 62
    18
420
        0
370
     5
100
AcDbLine
 10
3.643848210762105
 20
-17.38444470378605
 30
0.0
 11
3.643848210762105
 21
-17.37839797021757
 31
0.0
  0
LINE
  5
17B
330
70
100
AcDbEntity
  8
Layer 1
 62
    18
420
        0
370
     5
100
AcDbLine
 10
3.643848210762105
 20
-17.36224522288103
 30
0.0
 11
3.643848210762105
 21
-17.35619848920335
 31
0.0
  0
LINE
  5
17C
330
70
100
AcDbEntity
  8
Layer 1
 62
    18
420
        0
370
     5
100
AcDbLine
 10
3.662492044138111
 20
-17.36729828928835
 30
0.0
 11
3.662492044138111
 21
-17.37334502285683
 31
0.0
  0
LINE
  5
17D
330
70
100
AcDbEntity
  8
Layer 1
 62
    18
420
        0
370
     5
100
AcDbLine
 10
3.667167782281985
 20
-17.38738008333348
 30
0.0
 11
3.667167782281985
 21
-17.37537460332416
 31
0.0
  0
LINE
  5
17E
330
70
100
AcDbEntity
  8
Layer 1
 62
    18
420
        0
370
     5
100
AcDbLine
 10
3.667866780807634
 20
-17.35658559730932
 30
0.0
 11
3.667866780807634
 21
-17.36526858966519
 31
0.0
  0
LINE
  5
17F
330
70
100
AcDbEntity
  8
Layer 1
 62
    18
420
        0
370
     5
100
AcDbLine
 10
3.673241636523799
 20
-17.37334502285683
 30
0.0
 11
3.673241636523799
 21
-17.36729828928835
 31
0.0
  0
LINE
  5
180
330
70
100
AcDbEntity
  8
Layer 1
 62
    18
420
        0
370
     5
100
AcDbLine
 10
3.688964212883913
 20
-17.40086807234375
 30
0.0
 11
3.688964212883913
 21
-17.43610864305017
 31
0.0
  0
LINE
  5
181
330
70
100
AcDbEntity
  8
Layer 1
 62
    18
420
        0
370
     5
100
AcDbLine
 10
3.689849523824805
 20
-17.37543556097459
 30
0.0
 11
3.689849523824805
 21
-17.36898945061916
 31
0.0
  0
LWPOLYLINE
  5
182
330
70
100
AcDbEntity
  8
Layer 1
 62
    18
420
        0
370
     5
100
AcDbPolyline
 90
        5
 70
     0
 43
0.0
 10
3.378399817609331
 20
-17.46415524825796
 10
3.37831408395756
 20
-17.46667651861869
 10
3.37807174526103
 20
-17.46901199458084
 10
3.377709514072964
 20
-17.47082172436456
 10
3.377279816880104
 20
-17.47183476783508
  0
LWPOLYLINE
  5
183
330
70
100
AcDbEntity
  8
Layer 1
 62
    18
420
        0
370
     5
100
AcDbPolyline
 90
        5
 70
     0
 43
0.0
 10
3.493946555500694
 20
-17.4726951782671
 10
3.493860821848935
 20
-17.47500443361382
 10
3.49361848315238
 20
-17.47674061771542
 10
3.493256251964339
 20
-17.47765456744694
 10
3.49307047875378
 20
-17.47775549876309
  0
LWPOLYLINE
  5
184
330
70
100
AcDbEntity
  8
Layer 1
 62
    18
420
        0
370
     5
100
AcDbPolyline
 90
        4
 70
     0
 43
0.0
 10
3.785310389068854
 20
-17.39698985231037
 10
3.784603869746585
 20
-17.40266511503594
 10
3.782405019095487
 20
-17.40841800947257
 10
3.778616898447769
 20
-17.41415043258949
  0
LWPOLYLINE
  5
185
330
70
100
AcDbEntity
  8
Layer 1
 62
    18
420
        0
370
     5
100
AcDbPolyline
 90
        4
 70
     0
 43
0.0
 10
3.721545111066031
 20
-17.44108250993536
 10
3.721140679057775
 20
-17.44343603139699
 10
3.719997492527757
 20
-17.44529734014304
 10
3.718176339512284
 20
-17.44643503611253
  0
LWPOLYLINE
  5
186
330
70
100
AcDbEntity
  8
Layer 1
 62
    18
420
        0
370
     5
100
AcDbPolyline
 90
        9
 70
     0
 43
0.0
 10
2.788339143454082
 20
-22.1842488230801
 10
2.791769436873626
 20
-22.17176384486028
 10
2.80189260656823
 20
-22.16403802074081
 10
2.81849238941662
 20
-22.16099015176238
 10
2.841375491520857
 20
-22.16256005495148
 10
2.870265406061232
 20
-22.16879000495889
 10
2.904875403500277
 20
-22.17979303063865
 10
2.944893283351107
 20
-22.19575828131929
 10
2.990011990998166
 20
-22.21697791528201
  0
LINE
  5
187
330
70
100
AcDbEntity
  8
Layer 1
 62
    18
420
        0
370
     5
100
AcDbLine
 10
2.799260850363654
 20
-21.57640181807645
 30
0.0
 11
4.066178851874193
 21
-21.57640181807645
 31
0.0
  0
LINE
  5
188
330
70
100
AcDbEntity
  8
Layer 1
 62
    18
420
        0
370
     5
100
AcDbLine
 10
6.353230136801849
 20
-23.93784179840759
 30
0.0
 11
6.356542135903282
 21
-23.94086301132201
 31
0.0
  0
LWPOLYLINE
  5
189
330
70
100
AcDbEntity
  8
Layer 1
 62
    18
420
        0
370
     5
100
AcDbPolyline
 90
        3
 70
     0
 43
0.0
 10
3.119903245665063
 20
-17.39698985231037
 10
3.120432481874874
 20
-17.4009554185855
 10
3.124655632784929
 20
-17.40883292380749
  0
LINE
  5
18A
330
70
100
AcDbEntity
  8
Layer 1
 62
    18
420
        0
370
     5
100
AcDbLine
 10
3.719737148851309
 20
-17.36551652213236
 30
0.0
 11
3.719737148851309
 21
-17.35981087084949
 31
0.0
  0
LINE
  5
18B
330
70
100
AcDbEntity
  8
Layer 1
 62
    18
420
        0
370
     5
100
AcDbLine
 10
3.721545111066031
 20
-17.44108250993536
 30
0.0
 11
3.721545111066031
 21
-17.40541273569725
 31
0.0
  0
LINE
  5
18C
330
70
100
AcDbEntity
  8
Layer 1
 62
    18
420
        0
370
     5
100
AcDbLine
 10
3.740784069343716
 20
-17.40883292380749
 30
0.0
 11
3.740784069343716
 21
-17.365940661487
 31
0.0
  0
LINE
  5
18D
330
70
100
AcDbEntity
  8
Layer 1
 62
    18
420
        0
370
     5
100
AcDbLine
 10
3.779953746609571
 20
-17.38364096073949
 30
0.0
 11
3.779953746609571
 21
-17.38073954660836
 31
0.0
  0
LINE
  5
18E
330
70
100
AcDbEntity
  8
Layer 1
 62
    18
420
        0
370
     5
100
AcDbLine
 10
3.785310389068854
 20
-17.39698985231037
 30
0.0
 11
3.785310389068854
 21
-17.3838707301896
 31
0.0
  0
LINE
  5
18F
330
70
100
AcDbEntity
  8
Layer 1
 62
    18
420
        0
370
     5
100
AcDbLine
 10
3.905083674957987
 20
-21.57640181807645
 30
0.0
 11
3.905083674957987
 21
-13.85989410032126
 31
0.0
  0
LINE
  5
190
330
70
100
AcDbEntity
  8
Layer 1
 62
    18
420
        0
370
     5
100
AcDbLine
 10
4.077100558783778
 20
-22.02041837336588
 30
0.0
 11
4.077100558783778
 21
-21.58732352498601
 31
0.0
  0
LWPOLYLINE
  5
191
330
70
100
AcDbEntity
  8
Layer 1
 62
    18
420
        0
370
     5
100
AcDbPolyline
 90
       10
 70
     0
 43
0.0
 10
2.788339144109386
 20
-22.18424395582138
 10
2.791365100648742
 20
-22.17918074817226
 10
2.80016179725702
 20
-22.17870313297332
 10
2.81439564907277
 20
-22.18262216152769
 10
2.83379797675439
 20
-22.19080965013012
 10
2.85808454102289
 20
-22.20321275617678
 10
2.887023894744692
 20
-22.21986497818105
 10
2.920423679138441
 20
-22.24087707601241
 10
2.958166350425699
 20
-22.26646543249394
 10
3.0001497003243
 20
-22.29691449354348
  0
LWPOLYLINE
  5
192
330
70
100
AcDbEntity
  8
Layer 1
 62
    18
420
        0
370
     5
100
AcDbPolyline
 90
        8
 70
     0
 43
0.0
 10
2.96035602727986
 20
-17.41394346602515
 10
2.963800091333559
 20
-17.42635713554677
 10
2.991052003330297
 20
-17.45046303708977
 10
3.043972045266463
 20
-17.47244655390982
 10
3.119484696586116
 20
-17.49103008395488
 10
3.213201436555461
 20
-17.50513361992974
 10
3.319675788836244
 20
-17.51393751569033
 10
3.43271985111893
 20
-17.51693012061327
  0
LWPOLYLINE
  5
193
330
70
100
AcDbEntity
  8
Layer 1
 62
    18
420
        0
370
     5
100
AcDbPolyline
 90
        6
 70
     0
 43
0.0
 10
3.171501860998798
 20
-17.378105797083
 10
3.172221711356503
 20
-17.38233049701875
 10
3.178015900985441
 20
-17.39074494480691
 10
3.189488821855661
 20
-17.39887362482315
 10
3.206377659691282
 20
-17.40653603117774
 10
3.228308125958278
 20
-17.41356450867983
  0
LINE
  5
194
330
70
100
AcDbEntity
  8
Layer 1
 62
    18
420
        0
370
     5
100
AcDbLine
 10
3.612427206700355
 20
-17.34344927197116
 30
0.0
 11
3.612144084821162
 21
-17.34112242929071
 31
0.0
  0
LWPOLYLINE
  5
195
330
70
100
AcDbEntity
  8
Layer 1
 62
    18
420
        0
370
     5
100
AcDbPolyline
 90
        5
 70
     0
 43
0.0
 10
3.612144084821162
 20
-17.45285727533003
 10
3.612427271247636
 20
-17.45536071414759
 10
3.61322773898352
 20
-17.45764578621391
 10
3.614424223006393
 20
-17.45938017587908
 10
3.615843553537047
 20
-17.4603038470219
  0
LINE
  5
196
330
70
100
AcDbEntity
  8
Layer 1
 62
    18
420
        0
370
     5
100
AcDbLine
 10
4.601342490443294
 20
-26.00678666122606
 30
0.0
 11
4.601342490443294
 21
-24.05185583681234
 31
0.0
  0
LWPOLYLINE
  5
197
330
70
100
AcDbEntity
  8
Layer 1
 62
    18
420
        0
370
     5
100
AcDbPolyline
 90
        3
 70
     0
 43
0.0
 10
3.17368373047077
 20
-17.37747012370619
 10
3.172232279527747
 20
-17.37438055029927
 10
3.17218922375634
 20
-17.37412967224771
  0
LWPOLYLINE
  5
198
330
70
100
AcDbEntity
  8
Layer 1
 62
    18
420
        0
370
     5
100
AcDbPolyline
 90
        5
 70
     0
 43
0.0
 10
3.740784069343716
 20
-17.40883292380749
 10
3.741270288991017
 20
-17.41126687861646
 10
3.742644660096743
 20
-17.4133555443168
 10
3.744698975281393
 20
-17.41479635915559
 10
3.74713590887672
 20
-17.41537177682014
  0
LINE
  5
199
330
70
100
AcDbEntity
  8
Layer 1
 62
    18
420
        0
370
     5
100
AcDbLine
 10
3.718934590263857
 20
-17.36084016232492
 30
0.0
 11
3.719737148851309
 21
-17.36551652213236
 31
0.0
  0
LINE
  5
19A
330
70
100
AcDbEntity
  8
Layer 1
 62
    18
420
        0
370
     5
100
AcDbLine
 10
3.693937841129834
 20
-17.37810591121489
 30
0.0
 11
3.693217990772129
 21
-17.37388121138838
 31
0.0
  0
LINE
  5
19B
330
70
100
AcDbEntity
  8
Layer 1
 62
    18
420
        0
370
     5
100
AcDbLine
 10
4.831244420889813
 20
-26.19251039108879
 30
0.0
 11
4.831244420889813
 21
-26.30172746018454
 31
0.0
  0
LINE
  5
19C
330
70
100
AcDbEntity
  8
Layer 1
 62
    18
420
        0
370
     5
100
AcDbLine
 10
4.923532844275718
 20
-26.32357087400371
 30
0.0
 11
4.923532844275718
 21
-26.45463135691858
 31
0.0
  0
LWPOLYLINE
  5
19D
330
70
100
AcDbEntity
  8
Layer 1
 62
    18
420
        0
370
     5
100
AcDbPolyline
 90
        3
 70
     0
 43
0.0
 10
3.06619263706644
 20
-17.39310078156111
 10
3.068030066701718
 20
-17.39575861410549
 10
3.081959059055811
 20
-17.40560385530175
  0
LWPOLYLINE
  5
19E
330
70
100
AcDbEntity
  8
Layer 1
 62
    18
420
        0
370
     5
100
AcDbPolyline
 90
        4
 70
     0
 43
0.0
 10
3.086822803680863
 20
-17.41415043258949
 10
3.083034719074778
 20
-17.40841807893462
 10
3.080835882512688
 20
-17.40266531533997
 10
3.080129313059766
 20
-17.39698985231037
  0
LWPOLYLINE
  5
19F
330
70
100
AcDbEntity
  8
Layer 1
 62
    18
420
        0
370
     5
100
AcDbPolyline
 90
        4
 70
     0
 43
0.0
 10
3.091837795161293
 20
-17.41638922283063
 10
3.08716482567009
 20
-17.40767264819184
 10
3.08716482567009
 20
-17.3988963885
 10
3.091837795161293
 20
-17.39017981386127
  0
LWPOLYLINE
  5
1A0
330
70
100
AcDbEntity
  8
Layer 1
 62
    18
420
        0
370
     5
100
AcDbPolyline
 90
        5
 70
     0
 43
0.0
 10
6.353326068597475
 20
-23.93577129987448
 10
6.354216393912401
 20
-23.93766925717263
 10
6.355268209551645
 20
-23.93916636816812
 10
6.356362736491619
 20
-23.9402805868364
 10
6.357481102132118
 20
-23.94110966409279
  0
LINE
  5
1A1
330
70
100
AcDbEntity
  8
Layer 1
 62
    18
420
        0
370
     5
100
AcDbLine
 10
6.200896821600508
 20
-23.93598447521087
 30
0.0
 11
5.831016411222081
 21
-23.06460083523987
 31
0.0
  0
LWPOLYLINE
  5
1A2
330
70
100
AcDbEntity
  8
Layer 1
 62
    18
420
        0
370
     5
100
AcDbPolyline
 90
        5
 70
     0
 43
0.0
 10
3.488159885248516
 20
-17.47183476783508
 10
3.487730141092343
 20
-17.47082155638878
 10
3.487367908812113
 20
-17.4690116648545
 10
3.487125598621206
 20
-17.46667623017639
 10
3.487039884519314
 20
-17.46415524825796
  0
LINE
  5
1A3
330
70
100
AcDbEntity
  8
Layer 1
 62
    18
420
        0
370
     5
100
AcDbLine
 10
6.35207627321117
 20
-23.93500355652148
 30
0.0
 11
6.353230136801849
 21
-23.93784179840759
 31
0.0
  0
LWPOLYLINE
  5
1A4
330
70
100
AcDbEntity
  8
Layer 1
 62
    18
420
        0
370
     5
100
AcDbPolyline
 90
        5
 70
     0
 43
0.0
 10
6.35208769709815
 20
-23.93499889786734
 10
6.352852407711692
 20
-23.9372577068327
 10
6.356261371474525
 20
-23.94076735333359
 10
6.360743552725769
 20
-23.94229445773903
 10
6.361523265832803
 20
-23.94232978290787
  0
LWPOLYLINE
  5
1A5
330
70
100
AcDbEntity
  8
Layer 1
 62
    18
420
        0
370
     5
100
AcDbPolyline
 90
        4
 70
     0
 43
0.0
 10
3.905083674957987
 20
-17.41394346602515
 10
3.901639610795061
 20
-17.40152979661272
 10
3.874387698798323
 20
-17.37742389506967
 10
3.821467656971385
 20
-17.35544037824967
  0
LINE
  5
1A6
330
70
100
AcDbEntity
  8
Layer 1
 62
    18
420
        0
370
     5
100
AcDbLine
 10
5.726278302129369
 20
-22.14055712763704
 30
0.0
 11
5.726278302129369
 21
-23.93171706080708
 31
0.0
  0
LINE
  5
1A7
330
70
100
AcDbEntity
  8
Layer 1
 62
    18
420
        0
370
     5
100
AcDbLine
 10
4.067726798718973
 20
-22.02894452160081
 30
0.0
 11
4.077100558783778
 21
-22.02041837336588
 31
0.0
  0
LWPOLYLINE
  5
1A8
330
70
100
AcDbEntity
  8
Layer 1
 62
    18
420
        0
370
     5
100
AcDbPolyline
 90
       15
 70
     0
 43
0.0
 10
3.822022324812577
 20
-22.22458336275082
 10
3.850664571409525
 20
-22.20499977164981
 10
3.877735577672827
 20
-22.18559932534143
 10
3.903026899877279
 20
-22.16673478338174
 10
3.926416356013962
 20
-22.14868687765289
 10
3.947860338656015
 20
-22.13165787871281
 10
3.96737050082787
 20
-22.11578327470453
 10
3.984999512788716
 20
-22.10114120956718
 10
4.000822981256066
 20
-22.08776720844602
 10
4.014921549274074
 20
-22.07567231253142
 10
4.027377672125731
 20
-22.06484995645784
 10
4.038273907648873
 20
-22.05528016671673
 10
4.047688702860063
 20
-22.04693557918997
 10
4.05569426782597
 20
-22.03978534595323
 10
4.067726798718973
 20
-22.02894452160081
  0
LINE
  5
1A9
330
70
100
AcDbEntity
  8
Layer 1
 62
    18
420
        0
370
     5
100
AcDbLine
 10
4.17493603082754
 20
-22.1368683020153
 30
0.0
 11
4.186317606145305
 21
-22.12963542072743
 31
0.0
  0
LWPOLYLINE
  5
1AA
330
70
100
AcDbEntity
  8
Layer 1
 62
    18
420
        0
370
     5
100
AcDbPolyline
 90
       12
 70
     0
 43
0.0
 10
3.976981974573972
 20
-22.25414510446672
 10
4.004876273520772
 20
-22.23876563757024
 10
4.030516482007265
 20
-22.22425860776174
 10
4.053897416700566
 20
-22.21073848042751
 10
4.075065588781701
 20
-22.19827065442081
 10
4.094098748789999
 20
-22.18688511812757
 10
4.111083726370503
 20
-22.17659148177624
 10
4.126111258518183
 20
-22.16738399519727
 10
4.139273669151912
 20
-22.15924522319614
 10
4.150659573069762
 20
-22.15215126405428
 10
4.160351113630794
 20
-22.14607514465044
 10
4.17493603082754
 20
-22.1368683020153
  0
LINE
  5
1AB
330
70
100
AcDbEntity
  8
Layer 1
 62
    18
420
        0
370
     5
100
AcDbLine
 10
7.591308645251778
 20
-19.56014250781916
 30
0.0
 11
7.082438004717434
 21
-19.56014250781916
 31
0.0
  0
LWPOLYLINE
  5
1AC
330
70
100
AcDbEntity
  8
Layer 1
 62
    18
420
        0
370
     5
100
AcDbPolyline
 90
        4
 70
     0
 43
0.0
 10
3.086819784702647
 20
-17.41414669660121
 10
3.087346546381303
 20
-17.41471830903386
 10
3.08940086156594
 20
-17.4160011737104
 10
3.091837795161293
 20
-17.41638922283063
  0
LINE
  5
1AD
330
70
100
AcDbEntity
  8
Layer 1
 62
    18
420
        0
370
     5
100
AcDbLine
 10
3.488159885248516
 20
-17.47183476783508
 30
0.0
 11
3.492826554771504
 21
-17.47760499076119
 31
0.0
  0
LINE
  5
1AE
330
70
100
AcDbEntity
  8
Layer 1
 62
    18
420
        0
370
     5
100
AcDbLine
 10
3.377279816880104
 20
-17.334734268966
 30
0.0
 11
3.375233453571846
 21
-17.33220399059983
 31
0.0
  0
LINE
  5
1AF
330
70
100
AcDbEntity
  8
Layer 1
 62
    18
420
        0
370
     5
100
AcDbLine
 10
3.493946555500694
 20
-17.43702540402905
 30
0.0
 11
3.493544368995369
 21
-17.43652811031703
 31
0.0
  0
LWPOLYLINE
  5
1B0
330
70
100
AcDbEntity
  8
Layer 1
 62
    18
420
        0
370
     5
100
AcDbPolyline
 90
       13
 70
     0
 43
0.0
 10
3.699942280825098
 20
-17.36478574690045
 10
3.70606138719361
 20
-17.37361229646553
 10
3.706081645540102
 20
-17.38254044302478
 10
3.700002769606662
 20
-17.39136814373776
 10
3.687965826780984
 20
-17.39989722401413
 10
3.670243710545239
 20
-17.40793837222883
 10
3.64722800559462
 20
-17.41531499890687
 10
3.61942007823648
 20
-17.4218648804407
 10
3.587427345972034
 20
-17.42744196084368
 10
3.552019643442854
 20
-17.43191319559577
 10
3.513785698269998
 20
-17.43519684533177
 10
3.473689774195147
 20
-17.43719878492482
 10
3.43271985111893
 20
-17.43787008185154
  0
LINE
  5
1B1
330
70
100
AcDbEntity
  8
Layer 1
 62
    18
420
        0
370
     5
100
AcDbLine
 10
3.717943025859047
 20
-17.35940586960194
 30
0.0
 11
3.718934590263857
 21
-17.36084016232492
 31
0.0
  0
LWPOLYLINE
  5
1B2
330
70
100
AcDbEntity
  8
Layer 1
 62
    18
420
        0
370
     5
100
AcDbPolyline
 90
        3
 70
     0
 43
0.0
 10
3.693217990772129
 20
-17.37388121138838
 10
3.687423801143154
 20
-17.36546676349103
 10
3.679109114082621
 20
-17.35957572398779
  0
LWPOLYLINE
  5
1B3
330
70
100
AcDbEntity
  8
Layer 1
 62
    18
420
        0
370
     5
100
AcDbPolyline
 90
        4
 70
     0
 43
0.0
 10
3.742120917505543
 20
-17.38895846963067
 10
3.74405979811177
 20
-17.39180315707143
 10
3.745177962465175
 20
-17.39447281006995
 10
3.745536456463544
 20
-17.39698985231037
  0
LWPOLYLINE
  5
1B4
330
70
100
AcDbEntity
  8
Layer 1
 62
    18
420
        0
370
     5
100
AcDbPolyline
 90
        3
 70
     0
 43
0.0
 10
3.742117895032366
 20
-17.38895472927374
 10
3.741270178244904
 20
-17.38754309166577
 10
3.740784069343716
 20
-17.3851467808132
  0
LWPOLYLINE
  5
1B5
330
70
100
AcDbEntity
  8
Layer 1
 62
    18
420
        0
370
     5
100
AcDbPolyline
 90
        3
 70
     0
 43
0.0
 10
3.773601906967339
 20
-17.39017981386127
 10
3.778274876458517
 20
-17.3988963885
 10
3.778274876458517
 20
-17.40767264819184
  0
LWPOLYLINE
  5
1B6
330
70
100
AcDbEntity
  8
Layer 1
 62
    18
420
        0
370
     5
100
AcDbPolyline
 90
        3
 70
     0
 43
0.0
 10
3.779953746609571
 20
-17.38364096073949
 10
3.784713861710795
 20
-17.3925200730942
 10
3.785310389068854
 20
-17.39698985231037
  0
LINE
  5
1B7
330
70
100
AcDbEntity
  8
Layer 1
 62
    18
420
        0
370
     5
100
AcDbLine
 10
6.353089091803692
 20
-23.93489489929905
 30
0.0
 11
6.353326068597475
 21
-23.93577129987448
 31
0.0
  0
LINE
  5
1B8
330
70
100
AcDbEntity
  8
Layer 1
 62
    18
420
        0
370
     5
100
AcDbLine
 10
5.813651957405972
 20
-22.14055712763704
 30
0.0
 11
5.813651957405972
 21
-22.97925181792137
 31
0.0
  0
LINE
  5
1B9
330
70
100
AcDbEntity
  8
Layer 1
 62
    18
420
        0
370
     5
100
AcDbLine
 10
3.94690658924157
 20
-22.27022490703348
 30
0.0
 11
3.976981974573972
 21
-22.25414510446672
 31
0.0
  0
LWPOLYLINE
  5
1BA
330
70
100
AcDbEntity
  8
Layer 1
 62
    18
420
        0
370
     5
100
AcDbPolyline
 90
        3
 70
     0
 43
0.0
 10
3.880982194303467
 20
-22.30346122918879
 10
3.914817247380407
 20
-22.28676478180745
 10
3.94690658924157
 20
-22.27022490703348
  0
LWPOLYLINE
  5
1BB
330
70
100
AcDbEntity
  8
Layer 1
 62
    18
420
        0
370
     5
100
AcDbPolyline
 90
        4
 70
     0
 43
0.0
 10
3.774083681370736
 20
-22.35048920967756
 10
3.809941557327318
 20
-22.33575959755742
 10
3.845811188207802
 20
-22.3199429326582
 10
3.880982194303467
 20
-22.30346122918879
  0
LINE
  5
1BC
330
70
100
AcDbEntity
  8
Layer 1
 62
    18
420
        0
370
     5
100
AcDbLine
 10
3.172791697983825
 20
-17.37302859075453
 30
0.0
 11
3.175590178303839
 21
-17.37543556097459
 31
0.0
  0
LWPOLYLINE
  5
1BD
330
70
100
AcDbEntity
  8
Layer 1
 62
    18
420
        0
370
     5
100
AcDbPolyline
 90
        4
 70
     0
 43
0.0
 10
3.124655632784929
 20
-17.37316314956938
 10
3.135780778329085
 20
-17.38277231217307
 10
3.153177220077282
 20
-17.39192904274043
 10
3.173154204398883
 20
-17.39922575048346
  0
LWPOLYLINE
  5
1BE
330
70
100
AcDbEntity
  8
Layer 1
 62
    18
420
        0
370
     5
100
AcDbPolyline
 90
       14
 70
     0
 43
0.0
 10
3.80265898314672
 20
-17.39545953047935
 10
3.808386072211204
 20
-17.40216736119237
 10
3.812249166226592
 20
-17.41394347356112
 10
3.808386062600106
 20
-17.42571958560226
 10
3.796875412802629
 20
-17.43725596082504
 10
3.777951526547073
 20
-17.44831776451019
 10
3.751999607521396
 20
-17.45867981355983
 10
3.719548062322524
 20
-17.46813112986683
 10
3.681257637508299
 20
-17.47647930047797
 10
3.637907531008787
 20
-17.48355444435851
 10
3.590379884394779
 20
-17.48921254580601
 10
3.539642790667597
 20
-17.4933383349414
 10
3.486730049127976
 20
-17.49584780570841
 10
3.43271985111893
 20
-17.4966899689171
  0
LINE
  5
1BF
330
70
100
AcDbEntity
  8
Layer 1
 62
    18
420
        0
370
     5
100
AcDbLine
 10
6.77179775655011
 20
-22.74144162497881
 30
0.0
 11
6.771485653375545
 21
-22.70567813364879
 31
0.0
  0
LINE
  5
1C0
330
70
100
AcDbEntity
  8
Layer 1
 62
    18
420
        0
370
     5
100
AcDbLine
 10
6.662268584279849
 20
-22.15147883454655
 30
0.0
 11
6.662268584279849
 21
-23.92079535389747
 31
0.0
  0
LINE
  5
1C1
330
70
100
AcDbEntity
  8
Layer 1
 62
    18
420
        0
370
     5
100
AcDbLine
 10
6.771485653375545
 20
-22.2606959036423
 30
0.0
 11
6.771485653375545
 21
-23.81157828480173
 31
0.0
  0
LINE
  5
1C2
330
70
100
AcDbEntity
  8
Layer 1
 62
    18
420
        0
370
     5
100
AcDbLine
 10
6.77179775655011
 20
-23.33083256346531
 30
0.0
 11
6.77179775655011
 21
-22.74144162497881
 31
0.0
  0
LINE
  5
1C3
330
70
100
AcDbEntity
  8
Layer 1
 62
    18
420
        0
370
     5
100
AcDbLine
 10
6.77179775655011
 20
-23.33083256346531
 30
0.0
 11
6.771485653375545
 21
-23.36659605479534
 31
0.0
  0
LWPOLYLINE
  5
1C4
330
70
100
AcDbEntity
  8
Layer 1
 62
    18
420
        0
370
     5
100
AcDbPolyline
 90
        5
 70
     0
 43
0.0
 10
3.372369224357801
 20
-17.47775549876309
 10
3.372183403200955
 20
-17.47765451578723
 10
3.371821170920737
 20
-17.47674040692643
 10
3.371578860839071
 20
-17.47500419344543
 10
3.371493146737154
 20
-17.4726951782671
  0
LWPOLYLINE
  5
1C5
330
70
100
AcDbEntity
  8
Layer 1
 62
    18
420
        0
370
     5
100
AcDbPolyline
 90
        4
 70
     0
 43
0.0
 10
3.178868638153908
 20
-17.3777290279017
 10
3.184442622689895
 20
-17.38102913806981
 10
3.19091822187243
 20
-17.38425005548722
 10
3.19827191995585
 20
-17.38738008333348
  0
LINE
  5
1C6
330
70
100
AcDbEntity
  8
Layer 1
 62
    18
420
        0
370
     5
100
AcDbLine
 10
3.49307047875378
 20
-17.47775549876309
 30
0.0
 11
3.492826554771504
 21
-17.47760499076119
 31
0.0
  0
LINE
  5
1C7
330
70
100
AcDbEntity
  8
Layer 1
 62
    18
420
        0
370
     5
100
AcDbLine
 10
3.377279816880104
 20
-17.334734268966
 30
0.0
 11
3.377523739879468
 21
-17.33488477685867
 31
0.0
  0
LWPOLYLINE
  5
1C8
330
70
100
AcDbEntity
  8
Layer 1
 62
    18
420
        0
370
     5
100
AcDbPolyline
 90
        4
 70
     0
 43
0.0
 10
3.147263368841713
 20
-17.44643503807846
 10
3.145441982757018
 20
-17.44529710456178
 10
3.144298931000864
 20
-17.44343578107146
 10
3.143894591062601
 20
-17.44108250993536
  0
LWPOLYLINE
  5
1C9
330
70
100
AcDbEntity
  8
Layer 1
 62
    18
420
        0
370
     5
100
AcDbPolyline
 90
        4
 70
     0
 43
0.0
 10
3.178868638153908
 20
-17.3777290279017
 10
3.177727734260656
 20
-17.37696783265796
 10
3.176634845358257
 20
-17.3762032953719
 10
3.175590178303839
 20
-17.37543556097459
  0
LINE
  5
1CA
330
70
100
AcDbEntity
  8
Layer 1
 62
    18
420
        0
370
     5
100
AcDbLine
 10
3.697268791030991
 20
-17.3628979336837
 30
0.0
 11
3.699942280825098
 21
-17.36478574690045
 31
0.0
  0
LINE
  5
1CB
330
70
100
AcDbEntity
  8
Layer 1
 62
    18
420
        0
370
     5
100
AcDbLine
 10
3.796875431806382
 20
-17.39063098542349
 30
0.0
 11
3.80265898314672
 21
-17.39545953047935
 31
0.0
  0
LINE
  5
1CC
330
70
100
AcDbEntity
  8
Layer 1
 62
    18
420
        0
370
     5
100
AcDbLine
 10
7.063830652245289
 20
-22.59779494583316
 30
0.0
 11
7.063830652245289
 21
-19.58174488349863
 31
0.0
  0
LWPOLYLINE
  5
1CD
330
70
100
AcDbEntity
  8
Layer 1
 62
    18
420
        0
370
     5
100
AcDbPolyline
 90
        4
 70
     0
 43
0.0
 10
3.171192100421181
 20
-17.44320988216501
 10
3.194219524035638
 20
-17.44955937626148
 10
3.220473236362977
 20
-17.45528331583333
 10
3.249596148591598
 20
-17.4603038470219
  0
LWPOLYLINE
  5
1CE
330
70
100
AcDbEntity
  8
Layer 1
 62
    18
420
        0
370
     5
100
AcDbPolyline
 90
        4
 70
     0
 43
0.0
 10
3.176475489244719
 20
-17.43610864305017
 10
3.199038004192478
 20
-17.44232994776201
 10
3.224760665122314
 20
-17.44793810544519
 10
3.253295617307445
 20
-17.45285727533003
  0
LINE
  5
1CF
330
70
100
AcDbEntity
  8
Layer 1
 62
    18
420
        0
370
     5
100
AcDbLine
 10
3.124655632784929
 20
-17.40413307195457
 30
0.0
 11
3.143894591062601
 21
-17.41028535388154
 31
0.0
  0
LWPOLYLINE
  5
1D0
330
70
100
AcDbEntity
  8
Layer 1
 62
    18
420
        0
370
     5
100
AcDbPolyline
 90
        4
 70
     0
 43
0.0
 10
3.203646736681535
 20
-17.38940977279945
 10
3.212402818301433
 20
-17.3923632734246
 10
3.221958977424643
 20
-17.39519642164512
 10
3.232280510873503
 20
-17.39789892877626
  0
LINE
  5
1D1
330
70
100
AcDbEntity
  8
Layer 1
 62
    18
420
        0
370
     5
100
AcDbLine
 10
3.143894591062601
 20
-17.40541273569725
 30
0.0
 11
3.124655632784929
 21
-17.39866734621713
 31
0.0
  0
LWPOLYLINE
  5
1D2
330
70
100
AcDbEntity
  8
Layer 1
 62
    18
420
        0
370
     5
100
AcDbPolyline
 90
        4
 70
     0
 43
0.0
 10
3.203646736681535
 20
-17.38940977279945
 10
3.201813639468936
 20
-17.3887384595994
 10
3.200021926242091
 20
-17.38806185570613
 10
3.198271919955876
 20
-17.38738008333348
  0
LINE
  5
1D3
330
70
100
AcDbEntity
  8
Layer 1
 62
    18
420
        0
370
     5
100
AcDbLine
 10
3.147601352639033
 20
-17.35938304651098
 30
0.0
 11
3.149177979995379
 21
-17.35999843369098
 31
0.0
  0
LWPOLYLINE
  5
1D4
330
70
100
AcDbEntity
  8
Layer 1
 62
    18
420
        0
370
     5
100
AcDbPolyline
 90
        5
 70
     0
 43
0.0
 10
3.694247601816691
 20
-17.44320988216501
 10
3.692220365802945
 20
-17.44241855699
 10
3.690511604578318
 20
-17.44079569367962
 10
3.689368552822164
 20
-17.43858536901087
 10
3.688964212883913
 20
-17.43610864305017
  0
LWPOLYLINE
  5
1D5
330
70
100
AcDbEntity
  8
Layer 1
 62
    18
420
        0
370
     5
100
AcDbPolyline
 90
        4
 70
     0
 43
0.0
 10
3.103371289128606
 20
-17.41594583484129
 10
3.108767060568778
 20
-17.41838867063628
 10
3.140261351140566
 20
-17.42845999324067
 10
3.143894591062601
 20
-17.42931371019545
  0
LINE
  5
1D6
330
70
100
AcDbEntity
  8
Layer 1
 62
    18
420
        0
370
     5
100
AcDbLine
 10
7.609915997723974
 20
-22.59779494583316
 30
0.0
 11
7.609915997723974
 21
-19.58174488349863
 31
0.0
  0
LWPOLYLINE
  5
1D7
330
70
100
AcDbEntity
  8
Layer 1
 62
    18
420
        0
370
     5
100
AcDbPolyline
 90
        4
 70
     0
 43
0.0
 10
3.492826554771504
 20
-17.47760499076119
 10
3.472904400476648
 20
-17.47824122092662
 10
3.452846077179692
 20
-17.47862382601286
 10
3.43271985111893
 20
-17.47875150393388
  0
LWPOLYLINE
  5
1D8
330
70
100
AcDbEntity
  8
Layer 1
 62
    18
420
        0
370
     5
100
AcDbPolyline
 90
        8
 70
     0
 43
0.0
 10
3.43271985111893
 20
-17.51693012061327
 10
3.545763913401616
 20
-17.51393751569033
 10
3.652238265682373
 20
-17.50513361992974
 10
3.745955005651732
 20
-17.49103008395488
 10
3.821467656971385
 20
-17.47244655390982
 10
3.874387698798323
 20
-17.45046303708977
 10
3.901639610795061
 20
-17.42635713554677
 10
3.905083674957987
 20
-17.41394346602515
  0
LWPOLYLINE
  5
1D9
330
70
100
AcDbEntity
  8
Layer 1
 62
    18
420
        0
370
     5
100
AcDbPolyline
 90
        4
 70
     0
 43
0.0
 10
3.493074325815832
 20
-17.4777553908566
 10
3.45292682529071
 20
-17.47877848207897
 10
3.412512721640458
 20
-17.47877848000391
 10
3.372365376422016
 20
-17.4777553908566
  0
LWPOLYLINE
  5
1DA
330
70
100
AcDbEntity
  8
Layer 1
 62
    18
420
        0
370
     5
100
AcDbPolyline
 90
        4
 70
     0
 43
0.0
 10
3.43271985111893
 20
-17.4728922659292
 10
3.451283482032408
 20
-17.47277450087697
 10
3.469784481980759
 20
-17.47242160119529
 10
3.488159885248503
 20
-17.47183476783508
  0
LWPOLYLINE
  5
1DB
330
70
100
AcDbEntity
  8
Layer 1
 62
    18
420
        0
370
     5
100
AcDbPolyline
 90
        4
 70
     0
 43
0.0
 10
3.43271985111893
 20
-17.46519138272874
 10
3.450908519082961
 20
-17.46507599653356
 10
3.469035642354835
 20
-17.46473022839887
 10
3.487039884519314
 20
-17.46415524825796
  0
LWPOLYLINE
  5
1DC
330
70
100
AcDbEntity
  8
Layer 1
 62
    18
420
        0
370
     5
100
AcDbPolyline
 90
        4
 70
     0
 43
0.0
 10
3.427344995293562
 20
-17.41756809986054
 10
3.429136480147513
 20
-17.41757659793145
 10
3.43092812544133
 20
-17.41757659793145
 10
3.43271985111893
 20
-17.41757986657997
  0
LWPOLYLINE
  5
1DD
330
70
100
AcDbEntity
  8
Layer 1
 62
    18
420
        0
370
     5
100
AcDbPolyline
 90
        4
 70
     0
 43
0.0
 10
3.43271985111893
 20
-17.47875150393393
 10
3.412593624948915
 20
-17.47862382601286
 10
3.392535301761186
 20
-17.47824122092662
 10
3.372613147357141
 20
-17.47760499076114
  0
LWPOLYLINE
  5
1DE
330
70
100
AcDbEntity
  8
Layer 1
 62
    18
420
        0
370
     5
100
AcDbPolyline
 90
       14
 70
     0
 43
0.0
 10
3.43271985111893
 20
-17.4966899689171
 10
3.378709624713438
 20
-17.49584780483469
 10
3.325796849862614
 20
-17.49333833100955
 10
3.275059749036333
 20
-17.48921253892533
 10
3.227532111378119
 20
-17.48355443594881
 10
3.184182017656995
 20
-17.47647929163137
 10
3.145891597539111
 20
-17.46813111927278
 10
3.113440057254996
 20
-17.45867980089067
 10
3.08748814696667
 20
-17.44831775074883
 10
3.068564270322238
 20
-17.43725594673601
 10
3.057053629917416
 20
-17.42571957085793
 10
3.053190536011255
 20
-17.41394345859842
 10
3.057053639637741
 20
-17.40216734655728
 10
3.062780718981912
 20
-17.39545953047935
  0
LWPOLYLINE
  5
1DF
330
70
100
AcDbEntity
  8
Layer 1
 62
    18
420
        0
370
     5
100
AcDbPolyline
 90
       13
 70
     0
 43
0.0
 10
3.43271985111893
 20
-17.43787008185154
 10
3.391837550931351
 20
-17.43720166978452
 10
3.351855093780171
 20
-17.43521040069905
 10
3.313707814972846
 20
-17.43194347974152
 10
3.27832156518803
 20
-17.42748798622723
 10
3.246272229320841
 20
-17.42191604918364
 10
3.21838625555434
 20
-17.41536278618019
 10
3.195322584760547
 20
-17.40798623453419
 10
3.177569877806705
 20
-17.39995060331062
 10
3.165497421303497
 20
-17.39142596139744
 10
3.159378315044237
 20
-17.38259941183236
 10
3.159358056697745
 20
-17.37367126538235
 10
3.165436932631172
 20
-17.36484356466937
  0
LWPOLYLINE
  5
1E0
330
70
100
AcDbEntity
  8
Layer 1
 62
    18
420
        0
370
     5
100
AcDbPolyline
 90
       11
 70
     0
 43
0.0
 10
3.43271985111893
 20
-17.42707633082045
 10
3.39378732987201
 20
-17.42644022636386
 10
3.355724496828795
 20
-17.42454612246244
 10
3.319381612879068
 20
-17.42143633024549
 10
3.285570517767622
 20
-17.41718031744843
 10
3.255046495582771
 20
-17.41187315621912
 10
3.22849140268507
 20
-17.40563339982959
 10
3.206498435748875
 20
-17.39860043416127
 10
3.189558881438175
 20
-17.39093136403643
 10
3.178051141401839
 20
-17.38279750374537
 10
3.17368373047077
 20
-17.37747012370619
  0
LWPOLYLINE
  5
1E1
330
70
100
AcDbEntity
  8
Layer 1
 62
    18
420
        0
370
     5
100
AcDbPolyline
 90
       12
 70
     0
 43
0.0
 10
3.43271985111893
 20
-17.4381804035865
 10
3.390710138841035
 20
-17.43748169011739
 10
3.349613885910027
 20
-17.43539820392733
 10
3.310316079438153
 20
-17.43196618455042
 10
3.273646202423214
 20
-17.42723976116753
 10
3.240345947653748
 20
-17.42127748504941
 10
3.21102847100504
 20
-17.41410928877212
 10
3.186145373480788
 20
-17.40565286536937
 10
3.167631304836352
 20
-17.3964934090716
 10
3.155449263202563
 20
-17.38704265293907
 10
3.14814639572603
 20
-17.37664073190474
 10
3.145702553386538
 20
-17.36551652213236
  0
LWPOLYLINE
  5
1E2
330
70
100
AcDbEntity
  8
Layer 1
 62
    18
420
        0
370
     5
100
AcDbPolyline
 90
        4
 70
     0
 43
0.0
 10
3.377279816880104
 20
-17.47183476783508
 10
3.395655220147887
 20
-17.47242160119529
 10
3.414156220096224
 20
-17.47277450087697
 10
3.43271985111893
 20
-17.4728922659292
  0
LWPOLYLINE
  5
1E3
330
70
100
AcDbEntity
  8
Layer 1
 62
    18
420
        0
370
     5
100
AcDbPolyline
 90
        4
 70
     0
 43
0.0
 10
3.378399817609331
 20
-17.46415524825796
 10
3.396404059773797
 20
-17.46473022839887
 10
3.414531183045659
 20
-17.46507599653356
 10
3.43271985111893
 20
-17.46519138272879
  0
LWPOLYLINE
  5
1E4
330
70
100
AcDbEntity
  8
Layer 1
 62
    18
420
        0
370
     5
100
AcDbPolyline
 90
        4
 70
     0
 43
0.0
 10
3.37930785531167
 20
-17.41640619920422
 10
3.395203401365329
 20
-17.41700380300567
 10
3.411235187739849
 20
-17.41739157263944
 10
3.427344995293562
 20
-17.41756809986054
  0
LINE
  5
1E5
330
70
100
AcDbEntity
  8
Layer 1
 62
    18
420
        0
370
     5
100
AcDbLine
 10
3.773601906967339
 20
-17.41638922283063
 30
0.0
 11
3.74713590887672
 21
-17.41537177682014
 31
0.0
  0
LINE
  5
1E6
330
70
100
AcDbEntity
  8
Layer 1
 62
    18
420
        0
370
     5
100
AcDbLine
 10
3.091837795161293
 20
-17.39017981386127
 30
0.0
 11
3.118303793251887
 21
-17.39119725987181
 31
0.0
  0
LWPOLYLINE
  5
1E7
330
70
100
AcDbEntity
  8
Layer 1
 62
    18
420
        0
370
     5
100
AcDbPolyline
 90
        3
 70
     0
 43
0.0
 10
3.37930785531167
 20
-17.41640619920422
 10
3.372130274776143
 20
-17.41606509452908
 10
3.368558262925994
 20
-17.41587846909775
  0
LWPOLYLINE
  5
1E8
330
70
100
AcDbEntity
  8
Layer 1
 62
    18
420
        0
370
     5
100
AcDbPolyline
 90
        5
 70
     0
 43
0.0
 10
3.371493146737154
 20
-17.43702540402905
 10
3.334055398475912
 20
-17.43512221796375
 10
3.297789311272834
 20
-17.43234164738639
 10
3.263127224172484
 20
-17.42871680090537
 10
3.253295617307445
 20
-17.42738386981369
  0
LINE
  5
1E9
330
70
100
AcDbEntity
  8
Layer 1
 62
    18
420
        0
370
     5
100
AcDbLine
 10
3.149177979995379
 20
-17.44657060300091
 30
0.0
 11
3.147263368841713
 21
-17.44643503807846
 31
0.0
  0
LINE
  5
1EA
330
70
100
AcDbEntity
  8
Layer 1
 62
    18
420
        0
370
     5
100
AcDbLine
 10
3.692332984437661
 20
-17.3632235877477
 30
0.0
 11
3.694247601816691
 21
-17.36335915463612
 31
0.0
  0
LINE
  5
1EB
330
70
100
AcDbEntity
  8
Layer 1
 62
    18
420
        0
370
     5
100
AcDbLine
 10
3.539642852266019
 20
-17.33454860114999
 30
0.0
 11
3.590379953201515
 21
-17.33867439312492
 31
0.0
  0
LINE
  5
1EC
330
70
100
AcDbEntity
  8
Layer 1
 62
    18
420
        0
370
     5
100
AcDbLine
 10
3.631258006592613
 20
-17.4651034538139
 30
0.0
 11
3.632220892997843
 21
-17.46518631636743
 31
0.0
  0
LINE
  5
1ED
330
70
100
AcDbEntity
  8
Layer 1
 62
    18
420
        0
370
     5
100
AcDbLine
 10
3.250559039037852
 20
-17.34634805167732
 30
0.0
 11
3.249596148591586
 21
-17.34626518966999
 31
0.0
  0
LWPOLYLINE
  5
1EE
330
70
100
AcDbEntity
  8
Layer 1
 62
    18
420
        0
370
     5
100
AcDbPolyline
 90
        4
 70
     0
 43
0.0
 10
3.318289541029546
 20
-17.41197815423286
 10
3.33463621332031
 20
-17.41352062941173
 10
3.35141722409249
 20
-17.41482265633228
 10
3.368558262925994
 20
-17.41587846909775
  0
LWPOLYLINE
  5
1EF
330
70
100
AcDbEntity
  8
Layer 1
 62
    18
420
        0
370
     5
100
AcDbPolyline
 90
        3
 70
     0
 43
0.0
 10
3.318289541029546
 20
-17.41197815423286
 10
3.310596415845212
 20
-17.41115182804525
 10
3.30679637863232
 20
-17.41071861897757
  0
LWPOLYLINE
  5
1F0
330
70
100
AcDbEntity
  8
Layer 1
 62
    18
420
        0
370
     5
100
AcDbPolyline
 90
        3
 70
     0
 43
0.0
 10
3.590379953201515
 20
-17.33867439312492
 10
3.637907590750526
 20
-17.34433249610149
 10
3.681257684580852
 20
-17.35140764052812
  0
LWPOLYLINE
  5
1F1
330
70
100
AcDbEntity
  8
Layer 1
 62
    18
420
        0
370
     5
100
AcDbPolyline
 90
        4
 70
     0
 43
0.0
 10
3.253295617307445
 20
-17.44893479573471
 10
3.270417628233972
 20
-17.45109004977146
 10
3.322461236392604
 20
-17.45554332333965
 10
3.371493146737154
 20
-17.45798327667772
  0
LWPOLYLINE
  5
1F2
330
70
100
AcDbEntity
  8
Layer 1
 62
    18
420
        0
370
     5
100
AcDbPolyline
 90
        4
 70
     0
 43
0.0
 10
3.253295617307445
 20
-17.43151369615801
 10
3.276578004565559
 20
-17.43444439498954
 10
3.326646234940779
 20
-17.43872863930685
 10
3.371493146737154
 20
-17.4409603363362
  0
LINE
  5
1F3
330
70
100
AcDbEntity
  8
Layer 1
 62
    18
420
        0
370
     5
100
AcDbLine
 10
3.368558262925994
 20
-17.41169725120764
 30
0.0
 11
3.34453969288044
 21
-17.40867388431423
 31
0.0
  0
LINE
  5
1F4
330
70
100
AcDbEntity
  8
Layer 1
 62
    18
420
        0
370
     5
100
AcDbLine
 10
3.280378223843323
 20
-17.40059745112264
 30
0.0
 11
3.256359653797769
 21
-17.39757408433843
 31
0.0
  0
LINE
  5
1F5
330
70
100
AcDbEntity
  8
Layer 1
 62
    18
420
        0
370
     5
100
AcDbLine
 10
3.261734390467305
 20
-17.3955445038711
 30
0.0
 11
3.285752960403644
 21
-17.39856787065527
 31
0.0
  0
LINE
  5
1F6
330
70
100
AcDbEntity
  8
Layer 1
 62
    18
420
        0
370
     5
100
AcDbLine
 10
3.34991454859658
 20
-17.40664418480032
 30
0.0
 11
3.373933118642134
 21
-17.40966755158448
 31
0.0
  0
LINE
  5
1F7
330
70
100
AcDbEntity
  8
Layer 1
 62
    18
420
        0
370
     5
100
AcDbLine
 10
3.250984798081617
 20
-17.38949777019343
 30
0.0
 11
3.226966228036063
 21
-17.38647440340921
 31
0.0
  0
LINE
  5
1F8
330
70
100
AcDbEntity
  8
Layer 1
 62
    18
420
        0
370
     5
100
AcDbLine
 10
3.427344995293562
 20
-17.41169725120764
 30
0.0
 11
3.403326425247996
 21
-17.40867388431423
 31
0.0
  0
LINE
  5
1F9
330
70
100
AcDbEntity
  8
Layer 1
 62
    18
420
        0
370
     5
100
AcDbLine
 10
3.339164956210904
 20
-17.40059745112264
 30
0.0
 11
3.315146386274553
 21
-17.39757408433843
 31
0.0
  0
LINE
  5
1FA
330
70
100
AcDbEntity
  8
Layer 1
 62
    18
420
        0
370
     5
100
AcDbLine
 10
3.232341083752228
 20
-17.38444470378605
 30
0.0
 11
3.256359653797769
 21
-17.38746807057027
 31
0.0
  0
LINE
  5
1FB
330
70
100
AcDbEntity
  8
Layer 1
 62
    18
420
        0
370
     5
100
AcDbLine
 10
3.320521122834874
 20
-17.3955445038711
 30
0.0
 11
3.34453969288044
 21
-17.39856787065527
 31
0.0
  0
LINE
  5
1FC
330
70
100
AcDbEntity
  8
Layer 1
 62
    18
420
        0
370
     5
100
AcDbLine
 10
3.408701281073363
 20
-17.40664418480032
 30
0.0
 11
3.43271985111893
 21
-17.40966755158448
 31
0.0
  0
LINE
  5
1FD
330
70
100
AcDbEntity
  8
Layer 1
 62
    18
420
        0
370
     5
100
AcDbLine
 10
3.486131846926177
 20
-17.41169725120764
 30
0.0
 11
3.462113276880611
 21
-17.40867388431423
 31
0.0
  0
LINE
  5
1FE
330
70
100
AcDbEntity
  8
Layer 1
 62
    18
420
        0
370
     5
100
AcDbLine
 10
3.397951688687662
 20
-17.40059745112264
 30
0.0
 11
3.373933118642134
 21
-17.39757408433843
 31
0.0
  0
LINE
  5
1FF
330
70
100
AcDbEntity
  8
Layer 1
 62
    18
420
        0
370
     5
100
AcDbLine
 10
3.309771530449185
 20
-17.38949777019343
 30
0.0
 11
3.285752960403644
 21
-17.38647440340921
 31
0.0
  0
LINE
  5
200
330
70
100
AcDbEntity
  8
Layer 1
 62
    18
420
        0
370
     5
100
AcDbLine
 10
3.221591491366539
 20
-17.37839797021757
 30
0.0
 11
3.197572921430201
 21
-17.37537460332416
 31
0.0
  0
LINE
  5
201
330
70
100
AcDbEntity
  8
Layer 1
 62
    18
420
        0
370
     5
100
AcDbLine
 10
3.202947657990522
 20
-17.37334502285683
 30
0.0
 11
3.226966228036063
 21
-17.376368389641
 31
0.0
  0
LINE
  5
202
330
70
100
AcDbEntity
  8
Layer 1
 62
    18
420
        0
370
     5
100
AcDbLine
 10
3.37930785531167
 20
-17.3955445038711
 30
0.0
 11
3.403326425247996
 21
-17.39856787065527
 31
0.0
  0
LINE
  5
203
330
70
100
AcDbEntity
  8
Layer 1
 62
    18
420
        0
370
     5
100
AcDbLine
 10
3.467488013440932
 20
-17.40664418480032
 30
0.0
 11
3.491506583486498
 21
-17.40966755158448
 31
0.0
  0
LINE
  5
204
330
70
100
AcDbEntity
  8
Layer 1
 62
    18
420
        0
370
     5
100
AcDbLine
 10
3.547150161099061
 20
-17.41197815423286
 30
0.0
 11
3.520900009248192
 21
-17.40867388431423
 31
0.0
  0
LINE
  5
205
330
70
100
AcDbEntity
  8
Layer 1
 62
    18
420
        0
370
     5
100
AcDbLine
 10
3.368558262925994
 20
-17.38949777019343
 30
0.0
 11
3.34453969288044
 21
-17.38647440340921
 31
0.0
  0
LINE
  5
206
330
70
100
AcDbEntity
  8
Layer 1
 62
    18
420
        0
370
     5
100
AcDbLine
 10
3.280378223843323
 20
-17.37839797021757
 30
0.0
 11
3.256359653797769
 21
-17.37537460332416
 31
0.0
  0
LINE
  5
207
330
70
100
AcDbEntity
  8
Layer 1
 62
    18
420
        0
370
     5
100
AcDbLine
 10
3.192198065604821
 20
-17.36729828928835
 30
0.0
 11
3.178005828550491
 21
-17.36551182405093
 31
0.0
  0
LINE
  5
208
330
70
100
AcDbEntity
  8
Layer 1
 62
    18
420
        0
370
     5
100
AcDbLine
 10
3.456738421055256
 20
-17.40059745112264
 30
0.0
 11
3.43271985111893
 21
-17.39757408433843
 31
0.0
  0
LINE
  5
209
330
70
100
AcDbEntity
  8
Layer 1
 62
    18
420
        0
370
     5
100
AcDbLine
 10
3.181195178630761
 20
-17.36320702126578
 30
0.0
 11
3.197572921430201
 21
-17.36526858966519
 31
0.0
  0
LINE
  5
20A
330
70
100
AcDbEntity
  8
Layer 1
 62
    18
420
        0
370
     5
100
AcDbLine
 10
3.261734390467305
 20
-17.37334502285683
 30
0.0
 11
3.285752960403644
 21
-17.376368389641
 31
0.0
  0
LINE
  5
20B
330
70
100
AcDbEntity
  8
Layer 1
 62
    18
420
        0
370
     5
100
AcDbLine
 10
3.34991454859658
 20
-17.38444470378605
 30
0.0
 11
3.373933118642134
 21
-17.38746807057027
 31
0.0
  0
LINE
  5
20C
330
70
100
AcDbEntity
  8
Layer 1
 62
    18
420
        0
370
     5
100
AcDbLine
 10
3.43809470683507
 20
-17.3955445038711
 30
0.0
 11
3.462113276880611
 21
-17.39856787065527
 31
0.0
  0
LINE
  5
20D
330
70
100
AcDbEntity
  8
Layer 1
 62
    18
420
        0
370
     5
100
AcDbLine
 10
3.526274745917728
 20
-17.40664418480032
 30
0.0
 11
3.55864332360554
 21
-17.41071861897757
 31
0.0
  0
LINE
  5
20E
330
70
100
AcDbEntity
  8
Layer 1
 62
    18
420
        0
370
     5
100
AcDbLine
 10
3.427344995293562
 20
-17.38949777019343
 30
0.0
 11
3.403326425247996
 21
-17.38647440340921
 31
0.0
  0
LINE
  5
20F
330
70
100
AcDbEntity
  8
Layer 1
 62
    18
420
        0
370
     5
100
AcDbLine
 10
3.250984798081617
 20
-17.36729828928835
 30
0.0
 11
3.226966228036063
 21
-17.36427492239489
 31
0.0
  0
LINE
  5
210
330
70
100
AcDbEntity
  8
Layer 1
 62
    18
420
        0
370
     5
100
AcDbLine
 10
3.515525153532053
 20
-17.40059745112264
 30
0.0
 11
3.491506583486498
 21
-17.39757408433843
 31
0.0
  0
LINE
  5
211
330
70
100
AcDbEntity
  8
Layer 1
 62
    18
420
        0
370
     5
100
AcDbLine
 10
3.232341083752228
 20
-17.36224522288103
 30
0.0
 11
3.256359653797769
 21
-17.36526858966519
 31
0.0
  0
LINE
  5
212
330
70
100
AcDbEntity
  8
Layer 1
 62
    18
420
        0
370
     5
100
AcDbLine
 10
3.320521122834874
 20
-17.37334502285683
 30
0.0
 11
3.34453969288044
 21
-17.376368389641
 31
0.0
  0
LINE
  5
213
330
70
100
AcDbEntity
  8
Layer 1
 62
    18
420
        0
370
     5
100
AcDbLine
 10
3.408701281073363
 20
-17.38444470378605
 30
0.0
 11
3.43271985111893
 21
-17.38746807057027
 31
0.0
  0
LINE
  5
214
330
70
100
AcDbEntity
  8
Layer 1
 62
    18
420
        0
370
     5
100
AcDbLine
 10
3.496881439311866
 20
-17.3955445038711
 30
0.0
 11
3.520900009248192
 21
-17.39856787065527
 31
0.0
  0
LINE
  5
215
330
70
100
AcDbEntity
  8
Layer 1
 62
    18
420
        0
370
     5
100
AcDbLine
 10
3.574311885899621
 20
-17.40059745112264
 30
0.0
 11
3.550293315963282
 21
-17.39757408433843
 31
0.0
  0
LINE
  5
216
330
70
100
AcDbEntity
  8
Layer 1
 62
    18
420
        0
370
     5
100
AcDbLine
 10
3.486131846926177
 20
-17.38949777019343
 30
0.0
 11
3.462113276880611
 21
-17.38647440340921
 31
0.0
  0
LINE
  5
217
330
70
100
AcDbEntity
  8
Layer 1
 62
    18
420
        0
370
     5
100
AcDbLine
 10
3.397951688687662
 20
-17.37839797021757
 30
0.0
 11
3.373933118642134
 21
-17.37537460332416
 31
0.0
  0
LINE
  5
218
330
70
100
AcDbEntity
  8
Layer 1
 62
    18
420
        0
370
     5
100
AcDbLine
 10
3.309771530449185
 20
-17.36729828928835
 30
0.0
 11
3.285752960403644
 21
-17.36427492239489
 31
0.0
  0
LINE
  5
219
330
70
100
AcDbEntity
  8
Layer 1
 62
    18
420
        0
370
     5
100
AcDbLine
 10
3.221591491366539
 20
-17.35619848920335
 30
0.0
 11
3.207484402997326
 21
-17.35442274220142
 31
0.0
  0
LINE
  5
21A
330
70
100
AcDbEntity
  8
Layer 1
 62
    18
420
        0
370
     5
100
AcDbLine
 10
3.215349258479894
 20
-17.35270648945041
 30
0.0
 11
3.226966228036063
 21
-17.35416878968938
 31
0.0
  0
LINE
  5
21B
330
70
100
AcDbEntity
  8
Layer 1
 62
    18
420
        0
370
     5
100
AcDbLine
 10
3.291127816229011
 20
-17.36224522288103
 30
0.0
 11
3.315146386274553
 21
-17.36526858966519
 31
0.0
  0
LINE
  5
21C
330
70
100
AcDbEntity
  8
Layer 1
 62
    18
420
        0
370
     5
100
AcDbLine
 10
3.37930785531167
 20
-17.37334502285683
 30
0.0
 11
3.403326425247996
 21
-17.376368389641
 31
0.0
  0
LINE
  5
21D
330
70
100
AcDbEntity
  8
Layer 1
 62
    18
420
        0
370
     5
100
AcDbLine
 10
3.467488013440932
 20
-17.38444470378605
 30
0.0
 11
3.491506583486498
 21
-17.38746807057027
 31
0.0
  0
LINE
  5
21E
330
70
100
AcDbEntity
  8
Layer 1
 62
    18
420
        0
370
     5
100
AcDbLine
 10
3.555668171679422
 20
-17.3955445038711
 30
0.0
 11
3.579686741724988
 21
-17.39856787065527
 31
0.0
  0
LINE
  5
21F
330
70
100
AcDbEntity
  8
Layer 1
 62
    18
420
        0
370
     5
100
AcDbLine
 10
3.625688432351087
 20
-17.39966468492836
 30
0.0
 11
3.60908004833085
 21
-17.39757408433843
 31
0.0
  0
LINE
  5
220
330
70
100
AcDbEntity
  8
Layer 1
 62
    18
420
        0
370
     5
100
AcDbLine
 10
3.544918579293759
 20
-17.38949777019343
 30
0.0
 11
3.520900009248192
 21
-17.38647440340921
 31
0.0
  0
LINE
  5
221
330
70
100
AcDbEntity
  8
Layer 1
 62
    18
420
        0
370
     5
100
AcDbLine
 10
3.456738421055256
 20
-17.37839797021757
 30
0.0
 11
3.43271985111893
 21
-17.37537460332416
 31
0.0
  0
LINE
  5
222
330
70
100
AcDbEntity
  8
Layer 1
 62
    18
420
        0
370
     5
100
AcDbLine
 10
3.368558262925994
 20
-17.36729828928835
 30
0.0
 11
3.34453969288044
 21
-17.36427492239489
 31
0.0
  0
LINE
  5
223
330
70
100
AcDbEntity
  8
Layer 1
 62
    18
420
        0
370
     5
100
AcDbLine
 10
3.280378223843323
 20
-17.35619848920335
 30
0.0
 11
3.256359653797769
 21
-17.35317512241909
 31
0.0
  0
LINE
  5
224
330
70
100
AcDbEntity
  8
Layer 1
 62
    18
420
        0
370
     5
100
AcDbLine
 10
3.261734390467305
 20
-17.35114542279598
 30
0.0
 11
3.285752960403644
 21
-17.35416878968938
 31
0.0
  0
LINE
  5
225
330
70
100
AcDbEntity
  8
Layer 1
 62
    18
420
        0
370
     5
100
AcDbLine
 10
3.34991454859658
 20
-17.36224522288103
 30
0.0
 11
3.373933118642134
 21
-17.36526858966519
 31
0.0
  0
LINE
  5
226
330
70
100
AcDbEntity
  8
Layer 1
 62
    18
420
        0
370
     5
100
AcDbLine
 10
3.43809470683507
 20
-17.37334502285683
 30
0.0
 11
3.462113276880611
 21
-17.376368389641
 31
0.0
  0
LINE
  5
227
330
70
100
AcDbEntity
  8
Layer 1
 62
    18
420
        0
370
     5
100
AcDbLine
 10
3.526274745917728
 20
-17.38444470378605
 30
0.0
 11
3.550293315963282
 21
-17.38746807057027
 31
0.0
  0
LINE
  5
228
330
70
100
AcDbEntity
  8
Layer 1
 62
    18
420
        0
370
     5
100
AcDbLine
 10
3.614454904156218
 20
-17.3955445038711
 30
0.0
 11
3.633159191255092
 21
-17.39789892877626
 31
0.0
  0
LINE
  5
229
330
70
100
AcDbEntity
  8
Layer 1
 62
    18
420
        0
370
     5
100
AcDbLine
 10
3.603705311770555
 20
-17.38949777019343
 30
0.0
 11
3.579686741724988
 21
-17.38647440340921
 31
0.0
  0
LINE
  5
22A
330
70
100
AcDbEntity
  8
Layer 1
 62
    18
420
        0
370
     5
100
AcDbLine
 10
3.427344995293562
 20
-17.36729828928835
 30
0.0
 11
3.403326425247996
 21
-17.36427492239489
 31
0.0
  0
LINE
  5
22B
330
70
100
AcDbEntity
  8
Layer 1
 62
    18
420
        0
370
     5
100
AcDbLine
 10
3.339164956210904
 20
-17.35619848920335
 30
0.0
 11
3.315146386274553
 21
-17.35317512241909
 31
0.0
  0
LINE
  5
22C
330
70
100
AcDbEntity
  8
Layer 1
 62
    18
420
        0
370
     5
100
AcDbLine
 10
3.515525153532053
 20
-17.37839797021757
 30
0.0
 11
3.491506583486498
 21
-17.37537460332416
 31
0.0
  0
LINE
  5
22D
330
70
100
AcDbEntity
  8
Layer 1
 62
    18
420
        0
370
     5
100
AcDbLine
 10
3.253102190601566
 20
-17.34265907151348
 30
0.0
 11
3.256359653797769
 21
-17.34306910865093
 31
0.0
  0
LINE
  5
22E
330
70
100
AcDbEntity
  8
Layer 1
 62
    18
420
        0
370
     5
100
AcDbLine
 10
3.320521122834874
 20
-17.35114542279598
 30
0.0
 11
3.34453969288044
 21
-17.35416878968938
 31
0.0
  0
LINE
  5
22F
330
70
100
AcDbEntity
  8
Layer 1
 62
    18
420
        0
370
     5
100
AcDbLine
 10
3.496881439311866
 20
-17.37334502285683
 30
0.0
 11
3.520900009248192
 21
-17.376368389641
 31
0.0
  0
LINE
  5
230
330
70
100
AcDbEntity
  8
Layer 1
 62
    18
420
        0
370
     5
100
AcDbLine
 10
3.585061478285322
 20
-17.38444470378605
 30
0.0
 11
3.60908004833085
 21
-17.38746807057027
 31
0.0
  0
LINE
  5
231
330
70
100
AcDbEntity
  8
Layer 1
 62
    18
420
        0
370
     5
100
AcDbLine
 10
3.661792965447109
 20
-17.38940977279945
 30
0.0
 11
3.638473474092557
 21
-17.38647440340921
 31
0.0
  0
LINE
  5
232
330
70
100
AcDbEntity
  8
Layer 1
 62
    18
420
        0
370
     5
100
AcDbLine
 10
3.574311885899621
 20
-17.37839797021757
 30
0.0
 11
3.550293315963282
 21
-17.37537460332416
 31
0.0
  0
LINE
  5
233
330
70
100
AcDbEntity
  8
Layer 1
 62
    18
420
        0
370
     5
100
AcDbLine
 10
3.486131846926177
 20
-17.36729828928835
 30
0.0
 11
3.462113276880611
 21
-17.36427492239489
 31
0.0
  0
LINE
  5
234
330
70
100
AcDbEntity
  8
Layer 1
 62
    18
420
        0
370
     5
100
AcDbLine
 10
3.397951688687662
 20
-17.35619848920335
 30
0.0
 11
3.373933118642134
 21
-17.35317512241909
 31
0.0
  0
LINE
  5
235
330
70
100
AcDbEntity
  8
Layer 1
 62
    18
420
        0
370
     5
100
AcDbLine
 10
3.309771530449185
 20
-17.34509868922749
 30
0.0
 11
3.285752960403644
 21
-17.34207532244328
 31
0.0
  0
LINE
  5
236
330
70
100
AcDbEntity
  8
Layer 1
 62
    18
420
        0
370
     5
100
AcDbLine
 10
3.291127816229011
 20
-17.34004574186676
 30
0.0
 11
3.315146386274553
 21
-17.34306910865093
 31
0.0
  0
LINE
  5
237
330
70
100
AcDbEntity
  8
Layer 1
 62
    18
420
        0
370
     5
100
AcDbLine
 10
3.37930785531167
 20
-17.35114542279598
 30
0.0
 11
3.403326425247996
 21
-17.35416878968938
 31
0.0
  0
LINE
  5
238
330
70
100
AcDbEntity
  8
Layer 1
 62
    18
420
        0
370
     5
100
AcDbLine
 10
3.467488013440932
 20
-17.36224522288103
 30
0.0
 11
3.491506583486498
 21
-17.36526858966519
 31
0.0
  0
LINE
  5
239
330
70
100
AcDbEntity
  8
Layer 1
 62
    18
420
        0
370
     5
100
AcDbLine
 10
3.643848210762105
 20
-17.38444470378605
 30
0.0
 11
3.667167782281985
 21
-17.38738008333348
 31
0.0
  0
LINE
  5
23A
330
70
100
AcDbEntity
  8
Layer 1
 62
    18
420
        0
370
     5
100
AcDbLine
 10
3.633098618376404
 20
-17.37839797021757
 30
0.0
 11
3.60908004833085
 21
-17.37537460332416
 31
0.0
  0
LINE
  5
23B
330
70
100
AcDbEntity
  8
Layer 1
 62
    18
420
        0
370
     5
100
AcDbLine
 10
3.544918579293759
 20
-17.36729828928835
 30
0.0
 11
3.520900009248192
 21
-17.36427492239489
 31
0.0
  0
LINE
  5
23C
330
70
100
AcDbEntity
  8
Layer 1
 62
    18
420
        0
370
     5
100
AcDbLine
 10
3.368558262925994
 20
-17.34509868922749
 30
0.0
 11
3.34453969288044
 21
-17.34207532244328
 31
0.0
  0
LINE
  5
23D
330
70
100
AcDbEntity
  8
Layer 1
 62
    18
420
        0
370
     5
100
AcDbLine
 10
3.34991454859658
 20
-17.34004574186676
 30
0.0
 11
3.373933118642134
 21
-17.34306910865093
 31
0.0
  0
LINE
  5
23E
330
70
100
AcDbEntity
  8
Layer 1
 62
    18
420
        0
370
     5
100
AcDbLine
 10
3.43809470683507
 20
-17.35114542279598
 30
0.0
 11
3.462113276880611
 21
-17.35416878968938
 31
0.0
  0
LINE
  5
23F
330
70
100
AcDbEntity
  8
Layer 1
 62
    18
420
        0
370
     5
100
AcDbLine
 10
3.526274745917728
 20
-17.36224522288103
 30
0.0
 11
3.550293315963282
 21
-17.36526858966519
 31
0.0
  0
LINE
  5
240
330
70
100
AcDbEntity
  8
Layer 1
 62
    18
420
        0
370
     5
100
AcDbLine
 10
3.614454904156218
 20
-17.37334502285683
 30
0.0
 11
3.638473474092557
 21
-17.376368389641
 31
0.0
  0
LINE
  5
241
330
70
100
AcDbEntity
  8
Layer 1
 62
    18
420
        0
370
     5
100
AcDbLine
 10
3.686571064083914
 20
-17.3777290279017
 30
0.0
 11
3.667866780807634
 21
-17.37537460332416
 31
0.0
  0
LINE
  5
242
330
70
100
AcDbEntity
  8
Layer 1
 62
    18
420
        0
370
     5
100
AcDbLine
 10
3.515525153532053
 20
-17.35619848920335
 30
0.0
 11
3.491506583486498
 21
-17.35317512241909
 31
0.0
  0
LINE
  5
243
330
70
100
AcDbEntity
  8
Layer 1
 62
    18
420
        0
370
     5
100
AcDbLine
 10
3.427344995293562
 20
-17.34509868922749
 30
0.0
 11
3.403326425247996
 21
-17.34207532244328
 31
0.0
  0
LINE
  5
244
330
70
100
AcDbEntity
  8
Layer 1
 62
    18
420
        0
370
     5
100
AcDbLine
 10
3.339164956210904
 20
-17.33399900829833
 30
0.0
 11
3.338677879100373
 21
-17.33393769678458
 31
0.0
  0
LINE
  5
245
330
70
100
AcDbEntity
  8
Layer 1
 62
    18
420
        0
370
     5
100
AcDbLine
 10
3.408701281073363
 20
-17.34004574186676
 30
0.0
 11
3.43271985111893
 21
-17.34306910865093
 31
0.0
  0
LINE
  5
246
330
70
100
AcDbEntity
  8
Layer 1
 62
    18
420
        0
370
     5
100
AcDbLine
 10
3.496881439311866
 20
-17.35114542279598
 30
0.0
 11
3.520900009248192
 21
-17.35416878968938
 31
0.0
  0
LINE
  5
247
330
70
100
AcDbEntity
  8
Layer 1
 62
    18
420
        0
370
     5
100
AcDbLine
 10
3.585061478285322
 20
-17.36224522288103
 30
0.0
 11
3.60908004833085
 21
-17.36526858966519
 31
0.0
  0
LINE
  5
248
330
70
100
AcDbEntity
  8
Layer 1
 62
    18
420
        0
370
     5
100
AcDbLine
 10
3.673241636523799
 20
-17.37334502285683
 30
0.0
 11
3.689849523824805
 21
-17.37543556097459
 31
0.0
  0
LINE
  5
249
330
70
100
AcDbEntity
  8
Layer 1
 62
    18
420
        0
370
     5
100
AcDbLine
 10
3.662492044138111
 20
-17.36729828928835
 30
0.0
 11
3.638473474092557
 21
-17.36427492239489
 31
0.0
  0
LINE
  5
24A
330
70
100
AcDbEntity
  8
Layer 1
 62
    18
420
        0
370
     5
100
AcDbLine
 10
3.574311885899621
 20
-17.35619848920335
 30
0.0
 11
3.550293315963282
 21
-17.35317512241909
 31
0.0
  0
LINE
  5
24B
330
70
100
AcDbEntity
  8
Layer 1
 62
    18
420
        0
370
     5
100
AcDbLine
 10
3.486131846926177
 20
-17.34509868922749
 30
0.0
 11
3.462113276880611
 21
-17.34207532244328
 31
0.0
  0
LINE
  5
24C
330
70
100
AcDbEntity
  8
Layer 1
 62
    18
420
        0
370
     5
100
AcDbLine
 10
3.467488013440932
 20
-17.34004574186676
 30
0.0
 11
3.491506583486498
 21
-17.34306910865093
 31
0.0
  0
LINE
  5
24D
330
70
100
AcDbEntity
  8
Layer 1
 62
    18
420
        0
370
     5
100
AcDbLine
 10
3.555668171679422
 20
-17.35114542279598
 30
0.0
 11
3.579686741724988
 21
-17.35416878968938
 31
0.0
  0
LINE
  5
24E
330
70
100
AcDbEntity
  8
Layer 1
 62
    18
420
        0
370
     5
100
AcDbLine
 10
3.643848210762105
 20
-17.36224522288103
 30
0.0
 11
3.667866780807634
 21
-17.36526858966519
 31
0.0
  0
LINE
  5
24F
330
70
100
AcDbEntity
  8
Layer 1
 62
    18
420
        0
370
     5
100
AcDbLine
 10
3.633098618376404
 20
-17.35619848920335
 30
0.0
 11
3.60908004833085
 21
-17.35317512241909
 31
0.0
  0
LINE
  5
250
330
70
100
AcDbEntity
  8
Layer 1
 62
    18
420
        0
370
     5
100
AcDbLine
 10
3.544918579293759
 20
-17.34509868922749
 30
0.0
 11
3.520900009248192
 21
-17.34207532244328
 31
0.0
  0
LINE
  5
251
330
70
100
AcDbEntity
  8
Layer 1
 62
    18
420
        0
370
     5
100
AcDbLine
 10
3.526274745917728
 20
-17.34004574186676
 30
0.0
 11
3.550293315963282
 21
-17.34306910865093
 31
0.0
  0
LINE
  5
252
330
70
100
AcDbEntity
  8
Layer 1
 62
    18
420
        0
370
     5
100
AcDbLine
 10
3.614454904156218
 20
-17.35114542279598
 30
0.0
 11
3.638473474092557
 21
-17.35416878968938
 31
0.0
  0
LINE
  5
253
330
70
100
AcDbEntity
  8
Layer 1
 62
    18
420
        0
370
     5
100
AcDbLine
 10
3.603705311770555
 20
-17.34509868922749
 30
0.0
 11
3.579686741724988
 21
-17.34207532244328
 31
0.0
  0
LINE
  5
254
330
70
100
AcDbEntity
  8
Layer 1
 62
    18
420
        0
370
     5
100
AcDbLine
 10
3.515525153532053
 20
-17.33399900829833
 30
0.0
 11
3.507950507351905
 21
-17.33304554044545
 31
0.0
  0
LINE
  5
255
330
70
100
AcDbEntity
  8
Layer 1
 62
    18
420
        0
370
     5
100
AcDbLine
 10
3.585061478285322
 20
-17.34004574186676
 30
0.0
 11
3.60908004833085
 21
-17.34306910865093
 31
0.0
  0
LWPOLYLINE
  5
256
330
70
100
AcDbEntity
  8
Layer 1
 62
    18
420
        0
370
     5
100
AcDbPolyline
 90
        4
 70
     0
 43
0.0
 10
3.291127816229011
 20
-17.40874631368872
 10
3.29628226884165
 20
-17.40942935647434
 10
3.30150600723386
 20
-17.41008690286283
 10
3.306796378632308
 20
-17.41071861897757
  0
LWPOLYLINE
  5
257
330
70
100
AcDbEntity
  8
Layer 1
 62
    18
420
        0
370
     5
100
AcDbPolyline
 90
        4
 70
     0
 43
0.0
 10
3.291127816229011
 20
-17.40874631368872
 10
3.287507043653855
 20
-17.40824541657796
 10
3.283923537799359
 20
-17.40773193711473
 10
3.280378223843323
 20
-17.40720600767008
  0
LINE
  5
258
330
70
100
AcDbEntity
  8
Layer 1
 62
    18
420
        0
370
     5
100
AcDbLine
 10
3.745955005651732
 20
-17.33685684820461
 30
0.0
 11
3.652238265682373
 21
-17.3227533122298
 31
0.0
  0
LINE
  5
259
330
70
100
AcDbEntity
  8
Layer 1
 62
    18
420
        0
370
     5
100
AcDbLine
 10
3.171192100421181
 20
-17.36335915463612
 30
0.0
 11
3.149177979995379
 21
-17.35999843369098
 31
0.0
  0
LINE
  5
25A
330
70
100
AcDbEntity
  8
Layer 1
 62
    18
420
        0
370
     5
100
AcDbLine
 10
3.694247601816691
 20
-17.44320988216501
 30
0.0
 11
3.716261722242481
 21
-17.44657060300091
 31
0.0
  0
LINE
  5
25B
330
70
100
AcDbEntity
  8
Layer 1
 62
    18
420
        0
370
     5
100
AcDbLine
 10
3.721545111066031
 20
-17.40541273569725
 30
0.0
 11
3.689628224595228
 21
-17.40054023819781
 31
0.0
  0
LWPOLYLINE
  5
25C
330
70
100
AcDbEntity
  8
Layer 1
 62
    18
420
        0
370
     5
100
AcDbPolyline
 90
        4
 70
     0
 43
0.0
 10
3.74713590887672
 20
-17.39119725987181
 10
3.744698708573322
 20
-17.39080911125484
 10
3.742644387381725
 20
-17.38952608624761
 10
3.742117895032366
 20
-17.38895472927374
  0
LWPOLYLINE
  5
25D
330
70
100
AcDbEntity
  8
Layer 1
 62
    18
420
        0
370
     5
100
AcDbPolyline
 90
        4
 70
     0
 43
0.0
 10
3.233208328879249
 20
-17.46518474451533
 10
3.201483981179573
 20
-17.45971780209973
 10
3.17272055125458
 20
-17.45345179975624
 10
3.147260495449838
 20
-17.44643414446439
  0
LWPOLYLINE
  5
25E
330
70
100
AcDbEntity
  8
Layer 1
 62
    18
420
        0
370
     5
100
AcDbPolyline
 90
        4
 70
     0
 43
0.0
 10
3.234181695536032
 20
-17.4651034538139
 10
3.20260735966508
 20
-17.4596603189719
 10
3.174143739004458
 20
-17.45345456622463
 10
3.149177979995379
 20
-17.44657060300091
  0
LWPOLYLINE
  5
25F
330
70
100
AcDbEntity
  8
Layer 1
 62
    18
420
        0
370
     5
100
AcDbPolyline
 90
        4
 70
     0
 43
0.0
 10
3.614870186880289
 20
-17.34634648037136
 10
3.643842486367866
 20
-17.35134308253701
 10
3.669793491355878
 20
-17.35700603868322
 10
3.692330117271151
 20
-17.3632226960995
  0
LWPOLYLINE
  5
260
330
70
100
AcDbEntity
  8
Layer 1
 62
    18
420
        0
370
     5
100
AcDbPolyline
 90
        4
 70
     0
 43
0.0
 10
3.239751269777545
 20
-17.39966468492836
 10
3.25251561739641
 20
-17.40237326048751
 10
3.266077954615866
 20
-17.40489075073633
 10
3.280378223843323
 20
-17.40720600767008
  0
LWPOLYLINE
  5
261
330
70
100
AcDbEntity
  8
Layer 1
 62
    18
420
        0
370
     5
100
AcDbPolyline
 90
        5
 70
     0
 43
0.0
 10
3.681257684580852
 20
-17.35140764052812
 10
3.719548104589534
 20
-17.35975581288671
 10
3.751999644873636
 20
-17.36920713126882
 10
3.777951555161949
 20
-17.37956918130147
 10
3.796875431806382
 20
-17.39063098542349
  0
LWPOLYLINE
  5
262
330
70
100
AcDbEntity
  8
Layer 1
 62
    18
420
        0
370
     5
100
AcDbPolyline
 90
        4
 70
     0
 43
0.0
 10
3.239751269777545
 20
-17.39966468492836
 10
3.237224048724745
 20
-17.39908356875407
 10
3.234733638520575
 20
-17.39849494619976
 10
3.232280510873503
 20
-17.39789892877626
  0
LWPOLYLINE
  5
263
330
70
100
AcDbEntity
  8
Layer 1
 62
    18
420
        0
370
     5
100
AcDbPolyline
 90
        7
 70
     0
 43
0.0
 10
3.228308125958278
 20
-17.41356450867983
 10
3.25480339673542
 20
-17.41980520204263
 10
3.285283687968949
 20
-17.4251189169513
 10
3.319026033338193
 20
-17.42938022819615
 10
3.355471537427597
 20
-17.43251039070704
 10
3.393682839826889
 20
-17.43441810316451
 10
3.43271985111893
 20
-17.43505764763111
  0
LWPOLYLINE
  5
264
330
70
100
AcDbEntity
  8
Layer 1
 62
    18
420
        0
370
     5
100
AcDbPolyline
 90
        5
 70
     0
 43
0.0
 10
3.091837795161293
 20
-17.39017981386127
 10
3.089400594748642
 20
-17.38960427605798
 10
3.087346273666285
 20
-17.38816330056094
 10
3.085972064529477
 20
-17.3860746470929
 10
3.085485955628276
 20
-17.38364096073949
  0
LINE
  5
265
330
70
100
AcDbEntity
  8
Layer 1
 62
    18
420
        0
370
     5
100
AcDbLine
 10
3.821467656971385
 20
-17.35544037824967
 30
0.0
 11
3.745955005651732
 21
-17.33685684820461
 31
0.0
  0
LWPOLYLINE
  5
266
330
70
100
AcDbEntity
  8
Layer 1
 62
    18
420
        0
370
     5
100
AcDbPolyline
 90
        4
 70
     0
 43
0.0
 10
3.614880667131804
 20
-17.34634805222342
 10
3.614424067699713
 20
-17.34622533253888
 10
3.613227580181905
 20
-17.34523588334105
 10
3.612427206700355
 20
-17.34344927197116
  0
LWPOLYLINE
  5
267
330
70
100
AcDbEntity
  8
Layer 1
 62
    18
420
        0
370
     5
100
AcDbPolyline
 90
        4
 70
     0
 43
0.0
 10
3.694247601816691
 20
-17.36335915463612
 10
3.671220178092994
 20
-17.35700966053966
 10
3.644966465765668
 20
-17.35128572085856
 10
3.615843553537047
 20
-17.34626518966999
  0
LINE
  5
268
330
70
100
AcDbEntity
  8
Layer 1
 62
    18
420
        0
370
     5
100
AcDbLine
 10
3.699643034793173
 20
-17.35541606019549
 30
0.0
 11
3.716261722242481
 21
-17.35999843369098
 31
0.0
  0
LINE
  5
269
330
70
100
AcDbEntity
  8
Layer 1
 62
    18
420
        0
370
     5
100
AcDbLine
 10
3.631258006592613
 20
-17.4651034538139
 30
0.0
 11
3.615843553537047
 21
-17.4603038470219
 31
0.0
  0
LINE
  5
26A
330
70
100
AcDbEntity
  8
Layer 1
 62
    18
420
        0
370
     5
100
AcDbLine
 10
3.239003246549196
 20
-17.3429668718632
 30
0.0
 11
3.249596148591586
 21
-17.34626518966999
 31
0.0
  0
LWPOLYLINE
  5
26B
330
70
100
AcDbEntity
  8
Layer 1
 62
    18
420
        0
370
     5
100
AcDbPolyline
 90
        4
 70
     0
 43
0.0
 10
3.173109584857494
 20
-17.3632226960995
 10
3.19564584686149
 20
-17.35700612791354
 10
3.221596812968224
 20
-17.35134316073643
 10
3.250569515248344
 20
-17.34634648037136
  0
LWPOLYLINE
  5
26C
330
70
100
AcDbEntity
  8
Layer 1
 62
    18
420
        0
370
     5
100
AcDbPolyline
 90
        4
 70
     0
 43
0.0
 10
3.718179206678794
 20
-17.44643414446439
 10
3.69271874633403
 20
-17.45345189870689
 10
3.663955287684946
 20
-17.45971788608767
 10
3.632231373249346
 20
-17.46518474451533
  0
LWPOLYLINE
  5
26D
330
70
100
AcDbEntity
  8
Layer 1
 62
    18
420
        0
370
     5
100
AcDbPolyline
 90
        3
 70
     0
 43
0.0
 10
3.716261722242481
 20
-17.44657060300091
 10
3.691295963233389
 20
-17.45345456622463
 10
3.662832342463565
 20
-17.4596603189719
  0
LINE
  5
26E
330
70
100
AcDbEntity
  8
Layer 1
 62
    18
420
        0
370
     5
100
AcDbLine
 10
3.194219524035638
 20
-17.35700966053966
 30
0.0
 11
3.171192100421181
 21
-17.36335915463612
 31
0.0
  0
LINE
  5
26F
330
70
100
AcDbEntity
  8
Layer 1
 62
    18
420
        0
370
     5
100
AcDbLine
 10
3.149177979995379
 20
-17.35999843369098
 30
0.0
 11
3.165796666898586
 21
-17.35541606030468
 31
0.0
  0
LWPOLYLINE
  5
270
330
70
100
AcDbEntity
  8
Layer 1
 62
    18
420
        0
370
     5
100
AcDbPolyline
 90
        4
 70
     0
 43
0.0
 10
3.633159191255092
 20
-17.39789892877626
 10
3.643480724703977
 20
-17.39519642164512
 10
3.653036883827187
 20
-17.3923632734246
 10
3.661792965447109
 20
-17.38940977279945
  0
LWPOLYLINE
  5
271
330
70
100
AcDbEntity
  8
Layer 1
 62
    18
420
        0
370
     5
100
AcDbPolyline
 90
        5
 70
     0
 43
0.0
 10
3.119484696586116
 20
-17.33685684820461
 10
3.043972045266463
 20
-17.35544037824967
 10
2.991052003330297
 20
-17.37742389506967
 10
2.963800091333559
 20
-17.40152979661272
 10
2.96035602727986
 20
-17.41394346602515
  0
LWPOLYLINE
  5
272
330
70
100
AcDbEntity
  8
Layer 1
 62
    18
420
        0
370
     5
100
AcDbPolyline
 90
        4
 70
     0
 43
0.0
 10
3.633159191255092
 20
-17.39789892877626
 10
3.630706063608057
 20
-17.39849494619976
 10
3.628215653403887
 20
-17.39908356875407
 10
3.625688432351087
 20
-17.39966468492836
  0
LWPOLYLINE
  5
273
330
70
100
AcDbEntity
  8
Layer 1
 62
    18
420
        0
370
     5
100
AcDbPolyline
 90
        5
 70
     0
 43
0.0
 10
3.118303793251887
 20
-17.41537177682014
 10
3.120740993664538
 20
-17.41479623912599
 10
3.122795314746907
 20
-17.41335526351971
 10
3.124169523883703
 20
-17.41126661005167
 10
3.124655632784929
 20
-17.40883292380749
  0
LWPOLYLINE
  5
274
330
70
100
AcDbEntity
  8
Layer 1
 62
    18
420
        0
370
     5
100
AcDbPolyline
 90
        7
 70
     0
 43
0.0
 10
3.610379031371697
 20
-17.41985731321968
 10
3.636950156352162
 20
-17.41361416826132
 10
3.658929742231495
 20
-17.40658604243829
 10
3.675850963692634
 20
-17.39892916749133
 10
3.687360966706629
 20
-17.3908049878736
 10
3.693196933393551
 20
-17.38239177325537
 10
3.693937841129834
 20
-17.37810591121489
  0
LWPOLYLINE
  5
275
330
70
100
AcDbEntity
  8
Layer 1
 62
    18
420
        0
370
     5
100
AcDbPolyline
 90
        3
 70
     0
 43
0.0
 10
3.145891639806109
 20
-17.35975580229271
 10
3.184182064620345
 20
-17.35140763168157
 10
3.227532171229047
 20
-17.34433248780099
  0
LINE
  5
276
330
70
100
AcDbEntity
  8
Layer 1
 62
    18
420
        0
370
     5
100
AcDbLine
 10
3.662832342463565
 20
-17.4596603189719
 30
0.0
 11
3.631258006592613
 21
-17.4651034538139
 31
0.0
  0
LWPOLYLINE
  5
277
330
70
100
AcDbEntity
  8
Layer 1
 62
    18
420
        0
370
     5
100
AcDbPolyline
 90
        4
 70
     0
 43
0.0
 10
3.615843553537047
 20
-17.4603038470219
 10
3.644966465765668
 20
-17.45528331583333
 10
3.671220178092994
 20
-17.44955937626148
 10
3.694247601816691
 20
-17.44320988216501
  0
LWPOLYLINE
  5
278
330
70
100
AcDbEntity
  8
Layer 1
 62
    18
420
        0
370
     5
100
AcDbPolyline
 90
        4
 70
     0
 43
0.0
 10
3.612144084821162
 20
-17.45285727533003
 10
3.640679037006293
 20
-17.44793810544519
 10
3.666401698045369
 20
-17.44232994776201
 10
3.688964212883913
 20
-17.43610864305017
  0
LWPOLYLINE
  5
279
330
70
100
AcDbEntity
  8
Layer 1
 62
    18
420
        0
370
     5
100
AcDbPolyline
 90
        3
 70
     0
 43
0.0
 10
3.249596148591586
 20
-17.34626518966999
 10
3.220473236362952
 20
-17.35128572085856
 10
3.194219524035638
 20
-17.35700966053966
  0
LWPOLYLINE
  5
27A
330
70
100
AcDbEntity
  8
Layer 1
 62
    18
420
        0
370
     5
100
AcDbPolyline
 90
        4
 70
     0
 43
0.0
 10
3.585061478285322
 20
-17.40720600767008
 10
3.599361747512779
 20
-17.40489075073628
 10
3.612924084732223
 20
-17.40237326048751
 10
3.625688432351087
 20
-17.39966468492836
  0
LWPOLYLINE
  5
27B
330
70
100
AcDbEntity
  8
Layer 1
 62
    18
420
        0
370
     5
100
AcDbPolyline
 90
        4
 70
     0
 43
0.0
 10
3.773601906967339
 20
-17.41638922283063
 10
3.776039107379991
 20
-17.41600107421366
 10
3.778093428462359
 20
-17.41471804931562
 10
3.778619920920947
 20
-17.4141466923418
  0
LINE
  5
27C
330
70
100
AcDbEntity
  8
Layer 1
 62
    18
420
        0
370
     5
100
AcDbLine
 10
3.716261722242481
 20
-17.35999843369098
 30
0.0
 11
3.694247601816691
 21
-17.36335915463612
 31
0.0
  0
LINE
  5
27D
330
70
100
AcDbEntity
  8
Layer 1
 62
    18
420
        0
370
     5
100
AcDbLine
 10
3.149177979995379
 20
-17.44657060300091
 30
0.0
 11
3.171192100421181
 21
-17.44320988216501
 31
0.0
  0
LINE
  5
27E
330
70
100
AcDbEntity
  8
Layer 1
 62
    18
420
        0
370
     5
100
AcDbLine
 10
3.175811255495103
 20
-17.40054027216436
 30
0.0
 11
3.143894591062601
 21
-17.40541273569725
 31
0.0
  0
LINE
  5
27F
330
70
100
AcDbEntity
  8
Layer 1
 62
    18
420
        0
370
     5
100
AcDbLine
 10
3.213201436555461
 20
-17.3227533122298
 30
0.0
 11
3.119484696586116
 21
-17.33685684820461
 31
0.0
  0
LWPOLYLINE
  5
280
330
70
100
AcDbEntity
  8
Layer 1
 62
    18
420
        0
370
     5
100
AcDbPolyline
 90
        4
 70
     0
 43
0.0
 10
3.585061478285322
 20
-17.40720600767008
 10
3.581516164329286
 20
-17.40773193711473
 10
3.577932658474789
 20
-17.40824541657796
 10
3.574311885899621
 20
-17.40874631368872
  0
LWPOLYLINE
  5
281
330
70
100
AcDbEntity
  8
Layer 1
 62
    18
420
        0
370
     5
100
AcDbPolyline
 90
        5
 70
     0
 43
0.0
 10
3.612144084821162
 20
-17.42738386981369
 10
3.602312478065363
 20
-17.42871680090537
 10
3.567650390965026
 20
-17.43234164738639
 10
3.53138430376196
 20
-17.43512221796375
 10
3.493946555500694
 20
-17.43702540402905
  0
LWPOLYLINE
  5
282
330
70
100
AcDbEntity
  8
Layer 1
 62
    18
420
        0
370
     5
100
AcDbPolyline
 90
        4
 70
     0
 43
0.0
 10
3.612144084821162
 20
-17.44893479573471
 10
3.595022073894672
 20
-17.45109004977146
 10
3.542978465736016
 20
-17.45554332333965
 10
3.493946555500694
 20
-17.45798327667772
  0
LWPOLYLINE
  5
283
330
70
100
AcDbEntity
  8
Layer 1
 62
    18
420
        0
370
     5
100
AcDbPolyline
 90
        4
 70
     0
 43
0.0
 10
3.612144084821162
 20
-17.43151369615801
 10
3.588861697563073
 20
-17.43444439498954
 10
3.538793467187853
 20
-17.43872863930685
 10
3.493946555500694
 20
-17.4409603363362
  0
LINE
  5
284
330
70
100
AcDbEntity
  8
Layer 1
 62
    18
420
        0
370
     5
100
AcDbLine
 10
3.520900009248192
 20
-17.40867388431423
 30
0.0
 11
3.496881439311866
 21
-17.41169725120764
 31
0.0
  0
LINE
  5
285
330
70
100
AcDbEntity
  8
Layer 1
 62
    18
420
        0
370
     5
100
AcDbLine
 10
3.60908004833085
 20
-17.39757408433843
 30
0.0
 11
3.585061478285322
 21
-17.40059745112264
 31
0.0
  0
LINE
  5
286
330
70
100
AcDbEntity
  8
Layer 1
 62
    18
420
        0
370
     5
100
AcDbLine
 10
3.579686741724988
 20
-17.39856787065527
 30
0.0
 11
3.603705311770555
 21
-17.3955445038711
 31
0.0
  0
LINE
  5
287
330
70
100
AcDbEntity
  8
Layer 1
 62
    18
420
        0
370
     5
100
AcDbLine
 10
3.491506583486498
 20
-17.40966755158448
 30
0.0
 11
3.515525153532053
 21
-17.40664418480032
 31
0.0
  0
LINE
  5
288
330
70
100
AcDbEntity
  8
Layer 1
 62
    18
420
        0
370
     5
100
AcDbLine
 10
3.638473474092557
 20
-17.38647440340921
 30
0.0
 11
3.614454904156218
 21
-17.38949777019343
 31
0.0
  0
LINE
  5
289
330
70
100
AcDbEntity
  8
Layer 1
 62
    18
420
        0
370
     5
100
AcDbLine
 10
3.550293315963282
 20
-17.39757408433843
 30
0.0
 11
3.526274745917728
 21
-17.40059745112264
 31
0.0
  0
LINE
  5
28A
330
70
100
AcDbEntity
  8
Layer 1
 62
    18
420
        0
370
     5
100
AcDbLine
 10
3.462113276880611
 20
-17.40867388431423
 30
0.0
 11
3.43809470683507
 21
-17.41169725120764
 31
0.0
  0
LINE
  5
28B
330
70
100
AcDbEntity
  8
Layer 1
 62
    18
420
        0
370
     5
100
AcDbLine
 10
3.43271985111893
 20
-17.40966755158448
 30
0.0
 11
3.456738421055256
 21
-17.40664418480032
 31
0.0
  0
LINE
  5
28C
330
70
100
AcDbEntity
  8
Layer 1
 62
    18
420
        0
370
     5
100
AcDbLine
 10
3.520900009248192
 20
-17.39856787065527
 30
0.0
 11
3.544918579293759
 21
-17.3955445038711
 31
0.0
  0
LINE
  5
28D
330
70
100
AcDbEntity
  8
Layer 1
 62
    18
420
        0
370
     5
100
AcDbLine
 10
3.60908004833085
 20
-17.38746807057027
 30
0.0
 11
3.633098618376404
 21
-17.38444470378605
 31
0.0
  0
LINE
  5
28E
330
70
100
AcDbEntity
  8
Layer 1
 62
    18
420
        0
370
     5
100
AcDbLine
 10
3.667866780807634
 20
-17.37537460332416
 30
0.0
 11
3.643848210762105
 21
-17.37839797021757
 31
0.0
  0
LINE
  5
28F
330
70
100
AcDbEntity
  8
Layer 1
 62
    18
420
        0
370
     5
100
AcDbLine
 10
3.579686741724988
 20
-17.38647440340921
 30
0.0
 11
3.555668171679422
 21
-17.38949777019343
 31
0.0
  0
LINE
  5
290
330
70
100
AcDbEntity
  8
Layer 1
 62
    18
420
        0
370
     5
100
AcDbLine
 10
3.491506583486498
 20
-17.39757408433843
 30
0.0
 11
3.467488013440932
 21
-17.40059745112264
 31
0.0
  0
LINE
  5
291
330
70
100
AcDbEntity
  8
Layer 1
 62
    18
420
        0
370
     5
100
AcDbLine
 10
3.403326425247996
 20
-17.40867388431423
 30
0.0
 11
3.37930785531167
 21
-17.41169725120764
 31
0.0
  0
LINE
  5
292
330
70
100
AcDbEntity
  8
Layer 1
 62
    18
420
        0
370
     5
100
AcDbLine
 10
3.373933118642134
 20
-17.40966755158448
 30
0.0
 11
3.397951688687662
 21
-17.40664418480032
 31
0.0
  0
LINE
  5
293
330
70
100
AcDbEntity
  8
Layer 1
 62
    18
420
        0
370
     5
100
AcDbLine
 10
3.462113276880611
 20
-17.39856787065527
 30
0.0
 11
3.486131846926177
 21
-17.3955445038711
 31
0.0
  0
LINE
  5
294
330
70
100
AcDbEntity
  8
Layer 1
 62
    18
420
        0
370
     5
100
AcDbLine
 10
3.550293315963282
 20
-17.38746807057027
 30
0.0
 11
3.574311885899621
 21
-17.38444470378605
 31
0.0
  0
LINE
  5
295
330
70
100
AcDbEntity
  8
Layer 1
 62
    18
420
        0
370
     5
100
AcDbLine
 10
3.638473474092557
 20
-17.376368389641
 30
0.0
 11
3.662492044138111
 21
-17.37334502285683
 31
0.0
  0
LINE
  5
296
330
70
100
AcDbEntity
  8
Layer 1
 62
    18
420
        0
370
     5
100
AcDbLine
 10
3.687453158363698
 20
-17.36550939659239
 30
0.0
 11
3.673241636523799
 21
-17.36729828928835
 31
0.0
  0
LINE
  5
297
330
70
100
AcDbEntity
  8
Layer 1
 62
    18
420
        0
370
     5
100
AcDbLine
 10
3.60908004833085
 20
-17.37537460332416
 30
0.0
 11
3.585061478285322
 21
-17.37839797021757
 31
0.0
  0
LINE
  5
298
330
70
100
AcDbEntity
  8
Layer 1
 62
    18
420
        0
370
     5
100
AcDbLine
 10
3.520900009248192
 20
-17.38647440340921
 30
0.0
 11
3.496881439311866
 21
-17.38949777019343
 31
0.0
  0
LINE
  5
299
330
70
100
AcDbEntity
  8
Layer 1
 62
    18
420
        0
370
     5
100
AcDbLine
 10
3.43271985111893
 20
-17.39757408433843
 30
0.0
 11
3.408701281073363
 21
-17.40059745112264
 31
0.0
  0
LINE
  5
29A
330
70
100
AcDbEntity
  8
Layer 1
 62
    18
420
        0
370
     5
100
AcDbLine
 10
3.34453969288044
 20
-17.40867388431423
 30
0.0
 11
3.318289541029546
 21
-17.41197815423286
 31
0.0
  0
LINE
  5
29B
330
70
100
AcDbEntity
  8
Layer 1
 62
    18
420
        0
370
     5
100
AcDbLine
 10
3.403326425247996
 20
-17.39856787065527
 30
0.0
 11
3.427344995293562
 21
-17.3955445038711
 31
0.0
  0
LINE
  5
29C
330
70
100
AcDbEntity
  8
Layer 1
 62
    18
420
        0
370
     5
100
AcDbLine
 10
3.491506583486498
 20
-17.38746807057027
 30
0.0
 11
3.515525153532053
 21
-17.38444470378605
 31
0.0
  0
LINE
  5
29D
330
70
100
AcDbEntity
  8
Layer 1
 62
    18
420
        0
370
     5
100
AcDbLine
 10
3.667866780807634
 20
-17.36526858966519
 30
0.0
 11
3.684235904086765
 21
-17.36320810633737
 31
0.0
  0
LINE
  5
29E
330
70
100
AcDbEntity
  8
Layer 1
 62
    18
420
        0
370
     5
100
AcDbLine
 10
3.306796378632308
 20
-17.41071861897757
 30
0.0
 11
3.339164956210904
 21
-17.40664418480032
 31
0.0
  0
LINE
  5
29F
330
70
100
AcDbEntity
  8
Layer 1
 62
    18
420
        0
370
     5
100
AcDbLine
 10
3.638473474092557
 20
-17.36427492239489
 30
0.0
 11
3.614454904156218
 21
-17.36729828928835
 31
0.0
  0
LINE
  5
2A0
330
70
100
AcDbEntity
  8
Layer 1
 62
    18
420
        0
370
     5
100
AcDbLine
 10
3.550293315963282
 20
-17.37537460332416
 30
0.0
 11
3.526274745917728
 21
-17.37839797021757
 31
0.0
  0
LINE
  5
2A1
330
70
100
AcDbEntity
  8
Layer 1
 62
    18
420
        0
370
     5
100
AcDbLine
 10
3.462113276880611
 20
-17.38647440340921
 30
0.0
 11
3.43809470683507
 21
-17.38949777019343
 31
0.0
  0
LINE
  5
2A2
330
70
100
AcDbEntity
  8
Layer 1
 62
    18
420
        0
370
     5
100
AcDbLine
 10
3.373933118642134
 20
-17.39757408433843
 30
0.0
 11
3.34991454859658
 21
-17.40059745112264
 31
0.0
  0
LINE
  5
2A3
330
70
100
AcDbEntity
  8
Layer 1
 62
    18
420
        0
370
     5
100
AcDbLine
 10
3.520900009248192
 20
-17.376368389641
 30
0.0
 11
3.544918579293759
 21
-17.37334502285683
 31
0.0
  0
LINE
  5
2A4
330
70
100
AcDbEntity
  8
Layer 1
 62
    18
420
        0
370
     5
100
AcDbLine
 10
3.34453969288044
 20
-17.39856787065527
 30
0.0
 11
3.368558262925994
 21
-17.3955445038711
 31
0.0
  0
LINE
  5
2A5
330
70
100
AcDbEntity
  8
Layer 1
 62
    18
420
        0
370
     5
100
AcDbLine
 10
3.43271985111893
 20
-17.38746807057027
 30
0.0
 11
3.456738421055256
 21
-17.38444470378605
 31
0.0
  0
LINE
  5
2A6
330
70
100
AcDbEntity
  8
Layer 1
 62
    18
420
        0
370
     5
100
AcDbLine
 10
3.60908004833085
 20
-17.36526858966519
 30
0.0
 11
3.633098618376404
 21
-17.36224522288103
 31
0.0
  0
LINE
  5
2A7
330
70
100
AcDbEntity
  8
Layer 1
 62
    18
420
        0
370
     5
100
AcDbLine
 10
3.657955301861723
 20
-17.35442274187375
 30
0.0
 11
3.643848210762105
 21
-17.35619848920335
 31
0.0
  0
LINE
  5
2A8
330
70
100
AcDbEntity
  8
Layer 1
 62
    18
420
        0
370
     5
100
AcDbLine
 10
3.491506583486498
 20
-17.37537460332416
 30
0.0
 11
3.467488013440932
 21
-17.37839797021757
 31
0.0
  0
LINE
  5
2A9
330
70
100
AcDbEntity
  8
Layer 1
 62
    18
420
        0
370
     5
100
AcDbLine
 10
3.403326425247996
 20
-17.38647440340921
 30
0.0
 11
3.37930785531167
 21
-17.38949777019343
 31
0.0
  0
LINE
  5
2AA
330
70
100
AcDbEntity
  8
Layer 1
 62
    18
420
        0
370
     5
100
AcDbLine
 10
3.315146386274553
 20
-17.39757408433843
 30
0.0
 11
3.291127816229011
 21
-17.40059745112264
 31
0.0
  0
LINE
  5
2AB
330
70
100
AcDbEntity
  8
Layer 1
 62
    18
420
        0
370
     5
100
AcDbLine
 10
3.285752960403644
 20
-17.39856787065527
 30
0.0
 11
3.309771530449185
 21
-17.3955445038711
 31
0.0
  0
LINE
  5
2AC
330
70
100
AcDbEntity
  8
Layer 1
 62
    18
420
        0
370
     5
100
AcDbLine
 10
3.373933118642134
 20
-17.38746807057027
 30
0.0
 11
3.397951688687662
 21
-17.38444470378605
 31
0.0
  0
LINE
  5
2AD
330
70
100
AcDbEntity
  8
Layer 1
 62
    18
420
        0
370
     5
100
AcDbLine
 10
3.462113276880611
 20
-17.376368389641
 30
0.0
 11
3.486131846926177
 21
-17.37334502285683
 31
0.0
  0
LINE
  5
2AE
330
70
100
AcDbEntity
  8
Layer 1
 62
    18
420
        0
370
     5
100
AcDbLine
 10
3.550293315963282
 20
-17.36526858966519
 30
0.0
 11
3.574311885899621
 21
-17.36224522288103
 31
0.0
  0
LINE
  5
2AF
330
70
100
AcDbEntity
  8
Layer 1
 62
    18
420
        0
370
     5
100
AcDbLine
 10
3.638473474092557
 20
-17.35416878968938
 30
0.0
 11
3.650090429232073
 21
-17.35270649119785
 31
0.0
  0
LINE
  5
2B0
330
70
100
AcDbEntity
  8
Layer 1
 62
    18
420
        0
370
     5
100
AcDbLine
 10
3.60908004833085
 20
-17.35317512241909
 30
0.0
 11
3.585061478285322
 21
-17.35619848920335
 31
0.0
  0
LINE
  5
2B1
330
70
100
AcDbEntity
  8
Layer 1
 62
    18
420
        0
370
     5
100
AcDbLine
 10
3.520900009248192
 20
-17.36427492239489
 30
0.0
 11
3.496881439311866
 21
-17.36729828928835
 31
0.0
  0
LINE
  5
2B2
330
70
100
AcDbEntity
  8
Layer 1
 62
    18
420
        0
370
     5
100
AcDbLine
 10
3.43271985111893
 20
-17.37537460332416
 30
0.0
 11
3.408701281073363
 21
-17.37839797021757
 31
0.0
  0
LINE
  5
2B3
330
70
100
AcDbEntity
  8
Layer 1
 62
    18
420
        0
370
     5
100
AcDbLine
 10
3.34453969288044
 20
-17.38647440340921
 30
0.0
 11
3.320521122834874
 21
-17.38949777019343
 31
0.0
  0
LINE
  5
2B4
330
70
100
AcDbEntity
  8
Layer 1
 62
    18
420
        0
370
     5
100
AcDbLine
 10
3.256359653797769
 20
-17.39757408433843
 30
0.0
 11
3.239751269777545
 21
-17.39966468492836
 31
0.0
  0
LINE
  5
2B5
330
70
100
AcDbEntity
  8
Layer 1
 62
    18
420
        0
370
     5
100
AcDbLine
 10
3.232280510873503
 20
-17.39789892877626
 30
0.0
 11
3.250984798081617
 21
-17.3955445038711
 31
0.0
  0
LINE
  5
2B6
330
70
100
AcDbEntity
  8
Layer 1
 62
    18
420
        0
370
     5
100
AcDbLine
 10
3.403326425247996
 20
-17.376368389641
 30
0.0
 11
3.427344995293562
 21
-17.37334502285683
 31
0.0
  0
LINE
  5
2B7
330
70
100
AcDbEntity
  8
Layer 1
 62
    18
420
        0
370
     5
100
AcDbLine
 10
3.491506583486498
 20
-17.36526858966519
 30
0.0
 11
3.515525153532053
 21
-17.36224522288103
 31
0.0
  0
LINE
  5
2B8
330
70
100
AcDbEntity
  8
Layer 1
 62
    18
420
        0
370
     5
100
AcDbLine
 10
3.579686741724988
 20
-17.35416878968938
 30
0.0
 11
3.603705311770555
 21
-17.35114542279598
 31
0.0
  0
LINE
  5
2B9
330
70
100
AcDbEntity
  8
Layer 1
 62
    18
420
        0
370
     5
100
AcDbLine
 10
3.550293315963282
 20
-17.35317512241909
 30
0.0
 11
3.526274745917728
 21
-17.35619848920335
 31
0.0
  0
LINE
  5
2BA
330
70
100
AcDbEntity
  8
Layer 1
 62
    18
420
        0
370
     5
100
AcDbLine
 10
3.462113276880611
 20
-17.36427492239489
 30
0.0
 11
3.43809470683507
 21
-17.36729828928835
 31
0.0
  0
LINE
  5
2BB
330
70
100
AcDbEntity
  8
Layer 1
 62
    18
420
        0
370
     5
100
AcDbLine
 10
3.373933118642134
 20
-17.37537460332416
 30
0.0
 11
3.34991454859658
 21
-17.37839797021757
 31
0.0
  0
LINE
  5
2BC
330
70
100
AcDbEntity
  8
Layer 1
 62
    18
420
        0
370
     5
100
AcDbLine
 10
3.285752960403644
 20
-17.38647440340921
 30
0.0
 11
3.261734390467305
 21
-17.38949777019343
 31
0.0
  0
LINE
  5
2BD
330
70
100
AcDbEntity
  8
Layer 1
 62
    18
420
        0
370
     5
100
AcDbLine
 10
3.34453969288044
 20
-17.376368389641
 30
0.0
 11
3.368558262925994
 21
-17.37334502285683
 31
0.0
  0
LINE
  5
2BE
330
70
100
AcDbEntity
  8
Layer 1
 62
    18
420
        0
370
     5
100
AcDbLine
 10
3.60908004833085
 20
-17.34306910865093
 30
0.0
 11
3.612337511527054
 21
-17.34265907151348
 31
0.0
  0
LINE
  5
2BF
330
70
100
AcDbEntity
  8
Layer 1
 62
    18
420
        0
370
     5
100
AcDbLine
 10
3.256359653797769
 20
-17.38746807057027
 30
0.0
 11
3.280378223843323
 21
-17.38444470378605
 31
0.0
  0
LINE
  5
2C0
330
70
100
AcDbEntity
  8
Layer 1
 62
    18
420
        0
370
     5
100
AcDbLine
 10
3.520900009248192
 20
-17.35416878968938
 30
0.0
 11
3.544918579293759
 21
-17.35114542279598
 31
0.0
  0
LINE
  5
2C1
330
70
100
AcDbEntity
  8
Layer 1
 62
    18
420
        0
370
     5
100
AcDbLine
 10
3.579686741724988
 20
-17.34207532244328
 30
0.0
 11
3.555668171679422
 21
-17.34509868922749
 31
0.0
  0
LINE
  5
2C2
330
70
100
AcDbEntity
  8
Layer 1
 62
    18
420
        0
370
     5
100
AcDbLine
 10
3.491506583486498
 20
-17.35317512241909
 30
0.0
 11
3.467488013440932
 21
-17.35619848920335
 31
0.0
  0
LINE
  5
2C3
330
70
100
AcDbEntity
  8
Layer 1
 62
    18
420
        0
370
     5
100
AcDbLine
 10
3.403326425247996
 20
-17.36427492239489
 30
0.0
 11
3.37930785531167
 21
-17.36729828928835
 31
0.0
  0
LINE
  5
2C4
330
70
100
AcDbEntity
  8
Layer 1
 62
    18
420
        0
370
     5
100
AcDbLine
 10
3.226966228036063
 20
-17.38647440340921
 30
0.0
 11
3.203646736681535
 21
-17.38940977279945
 31
0.0
  0
LINE
  5
2C5
330
70
100
AcDbEntity
  8
Layer 1
 62
    18
420
        0
370
     5
100
AcDbLine
 10
3.198271919955876
 20
-17.38738008333348
 30
0.0
 11
3.221591491366539
 21
-17.38444470378605
 31
0.0
  0
LINE
  5
2C6
330
70
100
AcDbEntity
  8
Layer 1
 62
    18
420
        0
370
     5
100
AcDbLine
 10
3.285752960403644
 20
-17.376368389641
 30
0.0
 11
3.309771530449185
 21
-17.37334502285683
 31
0.0
  0
LINE
  5
2C7
330
70
100
AcDbEntity
  8
Layer 1
 62
    18
420
        0
370
     5
100
AcDbLine
 10
3.373933118642134
 20
-17.36526858966519
 30
0.0
 11
3.397951688687662
 21
-17.36224522288103
 31
0.0
  0
LINE
  5
2C8
330
70
100
AcDbEntity
  8
Layer 1
 62
    18
420
        0
370
     5
100
AcDbLine
 10
3.462113276880611
 20
-17.35416878968938
 30
0.0
 11
3.486131846926177
 21
-17.35114542279598
 31
0.0
  0
LINE
  5
2C9
330
70
100
AcDbEntity
  8
Layer 1
 62
    18
420
        0
370
     5
100
AcDbLine
 10
3.550293315963282
 20
-17.34306910865093
 30
0.0
 11
3.574311885899621
 21
-17.34004574186676
 31
0.0
  0
LINE
  5
2CA
330
70
100
AcDbEntity
  8
Layer 1
 62
    18
420
        0
370
     5
100
AcDbLine
 10
3.520900009248192
 20
-17.34207532244328
 30
0.0
 11
3.496881439311866
 21
-17.34509868922749
 31
0.0
  0
LINE
  5
2CB
330
70
100
AcDbEntity
  8
Layer 1
 62
    18
420
        0
370
     5
100
AcDbLine
 10
3.34453969288044
 20
-17.36427492239489
 30
0.0
 11
3.320521122834874
 21
-17.36729828928835
 31
0.0
  0
LINE
  5
2CC
330
70
100
AcDbEntity
  8
Layer 1
 62
    18
420
        0
370
     5
100
AcDbLine
 10
3.256359653797769
 20
-17.37537460332416
 30
0.0
 11
3.232341083752228
 21
-17.37839797021757
 31
0.0
  0
LINE
  5
2CD
330
70
100
AcDbEntity
  8
Layer 1
 62
    18
420
        0
370
     5
100
AcDbLine
 10
3.226966228036063
 20
-17.376368389641
 30
0.0
 11
3.250984798081617
 21
-17.37334502285683
 31
0.0
  0
LINE
  5
2CE
330
70
100
AcDbEntity
  8
Layer 1
 62
    18
420
        0
370
     5
100
AcDbLine
 10
3.315146386274553
 20
-17.36526858966519
 30
0.0
 11
3.339164956210904
 21
-17.36224522288103
 31
0.0
  0
LINE
  5
2CF
330
70
100
AcDbEntity
  8
Layer 1
 62
    18
420
        0
370
     5
100
AcDbLine
 10
3.403326425247996
 20
-17.35416878968938
 30
0.0
 11
3.427344995293562
 21
-17.35114542279598
 31
0.0
  0
LINE
  5
2D0
330
70
100
AcDbEntity
  8
Layer 1
 62
    18
420
        0
370
     5
100
AcDbLine
 10
3.491506583486498
 20
-17.34306910865093
 30
0.0
 11
3.515525153532053
 21
-17.34004574186676
 31
0.0
  0
LINE
  5
2D1
330
70
100
AcDbEntity
  8
Layer 1
 62
    18
420
        0
370
     5
100
AcDbLine
 10
3.526761819314856
 20
-17.33393769733063
 30
0.0
 11
3.526274745917728
 21
-17.33399900829833
 31
0.0
  0
LINE
  5
2D2
330
70
100
AcDbEntity
  8
Layer 1
 62
    18
420
        0
370
     5
100
AcDbLine
 10
3.462113276880611
 20
-17.34207532244328
 30
0.0
 11
3.43809470683507
 21
-17.34509868922749
 31
0.0
  0
LINE
  5
2D3
330
70
100
AcDbEntity
  8
Layer 1
 62
    18
420
        0
370
     5
100
AcDbLine
 10
3.373933118642134
 20
-17.35317512241909
 30
0.0
 11
3.34991454859658
 21
-17.35619848920335
 31
0.0
  0
LINE
  5
2D4
330
70
100
AcDbEntity
  8
Layer 1
 62
    18
420
        0
370
     5
100
AcDbLine
 10
3.285752960403644
 20
-17.36427492239489
 30
0.0
 11
3.261734390467305
 21
-17.36729828928835
 31
0.0
  0
LINE
  5
2D5
330
70
100
AcDbEntity
  8
Layer 1
 62
    18
420
        0
370
     5
100
AcDbLine
 10
3.197572921430201
 20
-17.37537460332416
 30
0.0
 11
3.178868638153908
 21
-17.3777290279017
 31
0.0
  0
LINE
  5
2D6
330
70
100
AcDbEntity
  8
Layer 1
 62
    18
420
        0
370
     5
100
AcDbLine
 10
3.175590178303839
 20
-17.37543556097459
 30
0.0
 11
3.192198065604821
 21
-17.37334502285683
 31
0.0
  0
LINE
  5
2D7
330
70
100
AcDbEntity
  8
Layer 1
 62
    18
420
        0
370
     5
100
AcDbLine
 10
3.256359653797769
 20
-17.36526858966519
 30
0.0
 11
3.280378223843323
 21
-17.36224522288103
 31
0.0
  0
LINE
  5
2D8
330
70
100
AcDbEntity
  8
Layer 1
 62
    18
420
        0
370
     5
100
AcDbLine
 10
3.43271985111893
 20
-17.34306910865093
 30
0.0
 11
3.456738421055256
 21
-17.34004574186676
 31
0.0
  0
LINE
  5
2D9
330
70
100
AcDbEntity
  8
Layer 1
 62
    18
420
        0
370
     5
100
AcDbLine
 10
3.34453969288044
 20
-17.35416878968938
 30
0.0
 11
3.368558262925994
 21
-17.35114542279598
 31
0.0
  0
LINE
  5
2DA
330
70
100
AcDbEntity
  8
Layer 1
 62
    18
420
        0
370
     5
100
AcDbLine
 10
3.403326425247996
 20
-17.34207532244328
 30
0.0
 11
3.37930785531167
 21
-17.34509868922749
 31
0.0
  0
LINE
  5
2DB
330
70
100
AcDbEntity
  8
Layer 1
 62
    18
420
        0
370
     5
100
AcDbLine
 10
3.315146386274553
 20
-17.35317512241909
 30
0.0
 11
3.291127816229011
 21
-17.35619848920335
 31
0.0
  0
LINE
  5
2DC
330
70
100
AcDbEntity
  8
Layer 1
 62
    18
420
        0
370
     5
100
AcDbLine
 10
3.226966228036063
 20
-17.36427492239489
 30
0.0
 11
3.202947657990522
 21
-17.36729828928835
 31
0.0
  0
LINE
  5
2DD
330
70
100
AcDbEntity
  8
Layer 1
 62
    18
420
        0
370
     5
100
AcDbLine
 10
3.197572921430201
 20
-17.36526858966519
 30
0.0
 11
3.221591491366539
 21
-17.36224522288103
 31
0.0
  0
LINE
  5
2DE
330
70
100
AcDbEntity
  8
Layer 1
 62
    18
420
        0
370
     5
100
AcDbLine
 10
3.285752960403644
 20
-17.35416878968938
 30
0.0
 11
3.309771530449185
 21
-17.35114542279598
 31
0.0
  0
LINE
  5
2DF
330
70
100
AcDbEntity
  8
Layer 1
 62
    18
420
        0
370
     5
100
AcDbLine
 10
3.373933118642134
 20
-17.34306910865093
 30
0.0
 11
3.397951688687662
 21
-17.34004574186676
 31
0.0
  0
LINE
  5
2E0
330
70
100
AcDbEntity
  8
Layer 1
 62
    18
420
        0
370
     5
100
AcDbLine
 10
3.34453969288044
 20
-17.34207532244328
 30
0.0
 11
3.320521122834874
 21
-17.34509868922749
 31
0.0
  0
LINE
  5
2E1
330
70
100
AcDbEntity
  8
Layer 1
 62
    18
420
        0
370
     5
100
AcDbLine
 10
3.256359653797769
 20
-17.35317512241909
 30
0.0
 11
3.232341083752228
 21
-17.35619848920335
 31
0.0
  0
LINE
  5
2E2
330
70
100
AcDbEntity
  8
Layer 1
 62
    18
420
        0
370
     5
100
AcDbLine
 10
3.226966228036063
 20
-17.35416878968938
 30
0.0
 11
3.250984798081617
 21
-17.35114542279598
 31
0.0
  0
LINE
  5
2E3
330
70
100
AcDbEntity
  8
Layer 1
 62
    18
420
        0
370
     5
100
AcDbLine
 10
3.315146386274553
 20
-17.34306910865093
 30
0.0
 11
3.339164956210904
 21
-17.34004574186676
 31
0.0
  0
LINE
  5
2E4
330
70
100
AcDbEntity
  8
Layer 1
 62
    18
420
        0
370
     5
100
AcDbLine
 10
3.357489196524182
 20
-17.33304554022707
 30
0.0
 11
3.34991454859658
 21
-17.33399900829833
 31
0.0
  0
LINE
  5
2E5
330
70
100
AcDbEntity
  8
Layer 1
 62
    18
420
        0
370
     5
100
AcDbLine
 10
3.285752960403644
 20
-17.34207532244328
 30
0.0
 11
3.261734390467305
 21
-17.34509868922749
 31
0.0
  0
LINE
  5
2E6
330
70
100
AcDbEntity
  8
Layer 1
 62
    18
420
        0
370
     5
100
AcDbLine
 10
3.256359653797769
 20
-17.34306910865093
 30
0.0
 11
3.280378223843323
 21
-17.34004574186676
 31
0.0
  0
LWPOLYLINE
  5
2E7
330
70
100
AcDbEntity
  8
Layer 1
 62
    18
420
        0
370
     5
100
AcDbPolyline
 90
        4
 70
     0
 43
0.0
 10
3.55864332360554
 20
-17.41071861897757
 10
3.563933695003975
 20
-17.41008690286283
 10
3.569157433286995
 20
-17.4094293564744
 10
3.574311885899621
 20
-17.40874631368872
  0
LINE
  5
2E8
330
70
100
AcDbEntity
  8
Layer 1
 62
    18
420
        0
370
     5
100
AcDbLine
 10
3.227532171229047
 20
-17.34433248780099
 30
0.0
 11
3.275059817733866
 21
-17.33867438635348
 31
0.0
  0
LWPOLYLINE
  5
2E9
330
70
100
AcDbEntity
  8
Layer 1
 62
    18
420
        0
370
     5
100
AcDbPolyline
 90
        3
 70
     0
 43
0.0
 10
3.55864332360554
 20
-17.41071861897757
 10
3.551011902461077
 20
-17.41157170924483
 10
3.547150161099061
 20
-17.41197815423286
  0
LINE
  5
2EA
330
70
100
AcDbEntity
  8
Layer 1
 62
    18
420
        0
370
     5
100
AcDbLine
 10
3.233218805089753
 20
-17.46518631582133
 30
0.0
 11
3.234181695536032
 21
-17.4651034538139
 31
0.0
  0
LINE
  5
2EB
330
70
100
AcDbEntity
  8
Layer 1
 62
    18
420
        0
370
     5
100
AcDbLine
 10
3.615843553537047
 20
-17.34626518966999
 30
0.0
 11
3.614880667131804
 21
-17.34634805222342
 31
0.0
  0
LINE
  5
2EC
330
70
100
AcDbEntity
  8
Layer 1
 62
    18
420
        0
370
     5
100
AcDbLine
 10
3.319675788836244
 20
-17.31394941646921
 30
0.0
 11
3.213201436555461
 21
-17.3227533122298
 31
0.0
  0
LINE
  5
2ED
330
70
100
AcDbEntity
  8
Layer 1
 62
    18
420
        0
370
     5
100
AcDbLine
 10
3.275059817733866
 20
-17.33867438635348
 30
0.0
 11
3.325796911461022
 21
-17.33454859721814
 31
0.0
  0
LINE
  5
2EE
330
70
100
AcDbEntity
  8
Layer 1
 62
    18
420
        0
370
     5
100
AcDbLine
 10
3.718176339512284
 20
-17.44643503611253
 30
0.0
 11
3.716261722242481
 21
-17.44657060300091
 31
0.0
  0
LINE
  5
2EF
330
70
100
AcDbEntity
  8
Layer 1
 62
    18
420
        0
370
     5
100
AcDbLine
 10
3.171192100421181
 20
-17.36335915463612
 30
0.0
 11
3.173106711574809
 21
-17.36322358960438
 31
0.0
  0
LWPOLYLINE
  5
2F0
330
70
100
AcDbEntity
  8
Layer 1
 62
    18
420
        0
370
     5
100
AcDbPolyline
 90
        4
 70
     0
 43
0.0
 10
3.496881439311866
 20
-17.41587846909775
 10
3.51402247814537
 20
-17.41482265633228
 10
3.530803488917525
 20
-17.41352062941173
 10
3.547150161099061
 20
-17.41197815423286
  0
LWPOLYLINE
  5
2F1
330
70
100
AcDbEntity
  8
Layer 1
 62
    18
420
        0
370
     5
100
AcDbPolyline
 90
        3
 70
     0
 43
0.0
 10
3.496881439311866
 20
-17.41587846909775
 10
3.489726003738458
 20
-17.41624101570475
 10
3.486131846926177
 20
-17.41640619920417
  0
LINE
  5
2F2
330
70
100
AcDbEntity
  8
Layer 1
 62
    18
420
        0
370
     5
100
AcDbLine
 10
3.325796911461022
 20
-17.33454859721814
 30
0.0
 11
3.378709653000631
 21
-17.33203912634184
 31
0.0
  0
LINE
  5
2F3
330
70
100
AcDbEntity
  8
Layer 1
 62
    18
420
        0
370
     5
100
AcDbLine
 10
3.118303793251887
 20
-17.41537177682014
 30
0.0
 11
3.091837795161293
 21
-17.41638922283063
 31
0.0
  0
LINE
  5
2F4
330
70
100
AcDbEntity
  8
Layer 1
 62
    18
420
        0
370
     5
100
AcDbLine
 10
3.74713590887672
 20
-17.39119725987181
 30
0.0
 11
3.773601906967339
 21
-17.39017981386127
 31
0.0
  0
LWPOLYLINE
  5
2F5
330
70
100
AcDbEntity
  8
Layer 1
 62
    18
420
        0
370
     5
100
AcDbPolyline
 90
        4
 70
     0
 43
0.0
 10
3.377527587924456
 20
-17.33488466895227
 10
3.395818160656378
 20
-17.33430053762231
 10
3.414236909339213
 20
-17.33394919155342
 10
3.43271985111893
 20
-17.33383193173939
  0
LINE
  5
2F6
330
70
100
AcDbEntity
  8
Layer 1
 62
    18
420
        0
370
     5
100
AcDbLine
 10
3.395655220147887
 20
-17.3341474356058
 30
0.0
 11
3.377279816880104
 21
-17.334734268966
 31
0.0
  0
LINE
  5
2F7
330
70
100
AcDbEntity
  8
Layer 1
 62
    18
420
        0
370
     5
100
AcDbLine
 10
3.43271985111893
 20
-17.31095681143703
 30
0.0
 11
3.319675788836244
 21
-17.31394941646921
 31
0.0
  0
LWPOLYLINE
  5
2F8
330
70
100
AcDbEntity
  8
Layer 1
 62
    18
420
        0
370
     5
100
AcDbPolyline
 90
        6
 70
     0
 43
0.0
 10
3.43271985111893
 20
-17.43505764763111
 10
3.471673631031446
 20
-17.43442084298395
 10
3.509773574287312
 20
-17.4325235071309
 10
3.546131360906088
 20
-17.42940994015367
 10
3.579847744613478
 20
-17.42516480341075
 10
3.610379031371697
 20
-17.41985731321968
  0
LINE
  5
2F9
330
70
100
AcDbEntity
  8
Layer 1
 62
    18
420
        0
370
     5
100
AcDbLine
 10
3.378709653000631
 20
-17.33203912634184
 30
0.0
 11
3.43271985111893
 21
-17.33119696324234
 31
0.0
  0
LWPOLYLINE
  5
2FA
330
70
100
AcDbEntity
  8
Layer 1
 62
    18
420
        0
370
     5
100
AcDbPolyline
 90
        4
 70
     0
 43
0.0
 10
3.43809470683507
 20
-17.41756809986054
 10
3.454204514388796
 20
-17.41739157263944
 10
3.470236300872518
 20
-17.41700380300567
 10
3.486131846926177
 20
-17.41640619920422
  0
LWPOLYLINE
  5
2FB
330
70
100
AcDbEntity
  8
Layer 1
 62
    18
420
        0
370
     5
100
AcDbPolyline
 90
        3
 70
     0
 43
0.0
 10
3.43271985111893
 20
-17.33367677087194
 10
3.414156220096224
 20
-17.33379453581493
 10
3.395655220147887
 20
-17.3341474356058
  0
LWPOLYLINE
  5
2FC
330
70
100
AcDbEntity
  8
Layer 1
 62
    18
420
        0
370
     5
100
AcDbPolyline
 90
        3
 70
     0
 43
0.0
 10
3.43271985111893
 20
-17.41757986657997
 10
3.436303222090347
 20
-17.41757659793145
 10
3.43809470683507
 20
-17.41756809986054
  0
LWPOLYLINE
  5
2FD
330
70
100
AcDbEntity
  8
Layer 1
 62
    18
420
        0
370
     5
100
AcDbPolyline
 90
        4
 70
     0
 43
0.0
 10
3.43271985111893
 20
-17.33383193173939
 10
3.451202773021122
 20
-17.333949191335
 10
3.469621522468464
 20
-17.33430053707626
 10
3.487912114204164
 20
-17.33488466895227
  0
LINE
  5
2FE
330
70
100
AcDbEntity
  8
Layer 1
 62
    18
420
        0
370
     5
100
AcDbLine
 10
3.43271985111893
 20
-17.33119696324234
 30
0.0
 11
3.486730077415207
 21
-17.33203912721561
 31
0.0
  0
LINE
  5
2FF
330
70
100
AcDbEntity
  8
Layer 1
 62
    18
420
        0
370
     5
100
AcDbLine
 10
3.545763913401616
 20
-17.31394941646921
 30
0.0
 11
3.43271985111893
 21
-17.31095681143703
 31
0.0
  0
LWPOLYLINE
  5
300
330
70
100
AcDbEntity
  8
Layer 1
 62
    18
420
        0
370
     5
100
AcDbPolyline
 90
        4
 70
     0
 43
0.0
 10
3.488159885248516
 20
-17.334734268966
 10
3.469784481980759
 20
-17.3341474356058
 10
3.451283482032408
 20
-17.33379453581493
 10
3.43271985111893
 20
-17.33367677087194
  0
LINE
  5
301
330
70
100
AcDbEntity
  8
Layer 1
 62
    18
420
        0
370
     5
100
AcDbLine
 10
3.486730077415207
 20
-17.33203912721561
 30
0.0
 11
3.539642852266019
 21
-17.33454860114999
 31
0.0
  0
LINE
  5
302
330
70
100
AcDbEntity
  8
Layer 1
 62
    18
420
        0
370
     5
100
AcDbLine
 10
3.652238265682373
 20
-17.3227533122298
 30
0.0
 11
3.545763913401616
 21
-17.31394941646921
 31
0.0
  0
LINE
  5
303
330
70
100
AcDbEntity
  8
Layer 1
 62
    18
420
        0
370
     5
100
AcDbLine
 10
10.57816701820088
 20
-26.32357087400371
 30
0.0
 11
10.57816701820088
 21
-26.45463135691858
 31
0.0
  0
LWPOLYLINE
  5
304
330
70
100
AcDbEntity
  8
Layer 1
 62
    18
420
        0
370
     5
100
AcDbPolyline
 90
        4
 70
     0
 43
0.0
 10
11.16247833808153
 20
-22.36601413110217
 10
11.16121722442113
 20
-22.38025658900455
 10
11.15399220381338
 20
-22.4021328162184
 10
11.14091078954104
 20
-22.42111006768134
  0
LINE
  5
305
330
70
100
AcDbEntity
  8
Layer 1
 62
    18
420
        0
370
     5
100
AcDbLine
 10
10.67045544158678
 20
-26.30172746018454
 30
0.0
 11
10.67045544158678
 21
-26.19251039108879
 31
0.0
  0
LINE
  5
306
330
70
100
AcDbEntity
  8
Layer 1
 62
    18
420
        0
370
     5
100
AcDbLine
 10
10.90035737203331
 20
-23.03615323421127
 30
0.0
 11
10.90035737203331
 21
-26.00678666122606
 31
0.0
  0
LINE
  5
307
330
70
100
AcDbEntity
  8
Layer 1
 62
    18
420
        0
370
     5
100
AcDbLine
 10
11.33449522168884
 20
-16.70152155368456
 30
0.0
 11
11.33449522168884
 21
-21.57640181807645
 31
0.0
  0
LINE
  5
308
330
70
100
AcDbEntity
  8
Layer 1
 62
    18
420
        0
370
     5
100
AcDbLine
 10
12.27922286936698
 20
-21.57640181807645
 30
0.0
 11
12.27922286936698
 21
-16.70152155368456
 31
0.0
  0
LINE
  5
309
330
70
100
AcDbEntity
  8
Layer 1
 62
    18
420
        0
370
     5
100
AcDbLine
 10
12.71336071902253
 20
-23.03614798764177
 30
0.0
 11
12.71336071902253
 21
-26.00678666122606
 31
0.0
  0
LINE
  5
30A
330
70
100
AcDbEntity
  8
Layer 1
 62
    18
420
        0
370
     5
100
AcDbLine
 10
12.94326264946903
 20
-26.30172746018454
 30
0.0
 11
12.94326264946903
 21
-26.19251039108879
 31
0.0
  0
LINE
  5
30B
330
70
100
AcDbEntity
  8
Layer 1
 62
    18
420
        0
370
     5
100
AcDbLine
 10
13.03555107285494
 20
-26.32357087400371
 30
0.0
 11
13.03555107285494
 21
-26.45463135691858
 31
0.0
  0
LINE
  5
30C
330
70
100
AcDbEntity
  8
Layer 1
 62
    18
420
        0
370
     5
100
AcDbLine
 10
16.96443380293807
 20
-16.18455914074886
 30
0.0
 11
17.26208309368619
 21
-17.51693012061327
 31
0.0
  0
LINE
  5
30D
330
70
100
AcDbEntity
  8
Layer 1
 62
    18
420
        0
370
     5
100
AcDbLine
 10
17.8864345210571
 20
-15.97858583157257
 30
0.0
 11
18.18408381180524
 21
-17.31095681143703
 31
0.0
  0
LWPOLYLINE
  5
30E
330
70
100
AcDbEntity
  8
Layer 1
 62
    18
420
        0
370
     5
100
AcDbPolyline
 90
        4
 70
     0
 43
0.0
 10
12.47278495242598
 20
-22.42108586463276
 10
12.45971622732036
 20
-22.40212783460942
 10
12.45249836567303
 20
-22.38027078798804
 10
12.45123975297434
 20
-22.36605080794152
  0
LINE
  5
30F
330
70
100
AcDbEntity
  8
Layer 1
 62
    18
420
        0
370
     5
100
AcDbLine
 10
13.02462936594535
 20
-26.46555306382813
 30
0.0
 11
10.58908872511046
 21
-26.46555306382813
 31
0.0
  0
LINE
  5
310
330
70
100
AcDbEntity
  8
Layer 1
 62
    18
420
        0
370
     5
100
AcDbLine
 10
13.02462936594535
 20
-26.3126491670941
 30
0.0
 11
10.58908872511046
 21
-26.3126491670941
 31
0.0
  0
LINE
  5
311
330
70
100
AcDbEntity
  8
Layer 1
 62
    18
420
        0
370
     5
100
AcDbLine
 10
12.93234094255945
 20
-26.18158868417918
 30
0.0
 11
10.68137714849634
 21
-26.18158868417918
 31
0.0
  0
LINE
  5
312
330
70
100
AcDbEntity
  8
Layer 1
 62
    18
420
        0
370
     5
100
AcDbLine
 10
11.17340004477266
 20
-21.57640181807645
 30
0.0
 11
12.44031804628318
 21
-21.57640181807645
 31
0.0
  0
LINE
  5
313
330
70
100
AcDbEntity
  8
Layer 1
 62
    18
420
        0
370
     5
100
AcDbLine
 10
18.18408381180524
 20
-17.31095681143703
 30
0.0
 11
17.26208309368619
 21
-17.51693012061327
 31
0.0
  0
LINE
  5
314
330
70
100
AcDbEntity
  8
Layer 1
 62
    18
420
        0
370
     5
100
AcDbLine
 10
2.96035602727986
 20
-5.633892113659372
 30
0.0
 11
2.96035602727986
 21
-11.55011652082258
 31
0.0
  0
LINE
  5
315
330
70
100
AcDbEntity
  8
Layer 1
 62
    18
420
        0
370
     5
100
AcDbLine
 10
3.905083674957987
 20
-5.633892113659372
 30
0.0
 11
3.905083674957987
 21
-11.55011652082258
 31
0.0
  0
LINE
  5
316
330
70
100
AcDbEntity
  8
Layer 1
 62
    18
420
        0
370
     5
100
AcDbLine
 10
5.726278302129369
 20
-4.738312147074363
 30
0.0
 11
5.726278302129369
 21
-6.529472080244393
 31
0.0
  0
LWPOLYLINE
  5
317
330
70
100
AcDbEntity
  8
Layer 1
 62
    18
420
        0
370
     5
100
AcDbPolyline
 90
        7
 70
     0
 43
0.0
 10
5.813652785489769
 20
-6.527797858481031
 10
5.813841341005146
 20
-6.529763221386891
 10
5.816407303536707
 20
-6.535217136608921
 10
5.820341383623031
 20
-6.53833023493573
 10
5.823804474928402
 20
-6.539597721630507
 10
5.826909651850402
 20
-6.540131571933809
 10
5.830197650064001
 20
-6.540357152254058
  0
LINE
  5
318
330
70
100
AcDbEntity
  8
Layer 1
 62
    18
420
        0
370
     5
100
AcDbLine
 10
5.813651957405972
 20
-6.527663640423447
 30
0.0
 11
5.813651957405972
 21
-4.740120587004538
 31
0.0
  0
LINE
  5
319
330
70
100
AcDbEntity
  8
Layer 1
 62
    18
420
        0
370
     5
100
AcDbLine
 10
6.662268584279849
 20
-6.518550373334846
 30
0.0
 11
6.662268584279849
 21
-4.749233853983923
 31
0.0
  0
LINE
  5
31A
330
70
100
AcDbEntity
  8
Layer 1
 62
    18
420
        0
370
     5
100
AcDbLine
 10
6.771485653375545
 20
-4.85845092307967
 30
0.0
 11
6.771485653375545
 21
-6.409333304239086
 31
0.0
  0
LINE
  5
31B
330
70
100
AcDbEntity
  8
Layer 1
 62
    18
420
        0
370
     5
100
AcDbLine
 10
6.77179775655011
 20
-5.928587582902675
 30
0.0
 11
6.77179775655011
 21
-5.339196644416119
 31
0.0
  0
LINE
  5
31C
330
70
100
AcDbEntity
  8
Layer 1
 62
    18
420
        0
370
     5
100
AcDbLine
 10
6.77179775655011
 20
-5.928587582902675
 30
0.0
 11
6.771485653375545
 21
-5.964351074341871
 31
0.0
  0
LINE
  5
31D
330
70
100
AcDbEntity
  8
Layer 1
 62
    18
420
        0
370
     5
100
AcDbLine
 10
5.71535659521981
 20
-6.54039378715399
 30
0.0
 11
3.905083674957987
 21
-6.54039378715399
 31
0.0
  0
LINE
  5
31E
330
70
100
AcDbEntity
  8
Layer 1
 62
    18
420
        0
370
     5
100
AcDbLine
 10
5.832522886270604
 20
-6.54039378715399
 30
0.0
 11
6.640425170460679
 21
-6.54039378715399
 31
0.0
  0
LINE
  5
31F
330
70
100
AcDbEntity
  8
Layer 1
 62
    18
420
        0
370
     5
100
AcDbLine
 10
6.684111998098968
 20
-6.431176718058243
 30
0.0
 11
6.749642239556426
 21
-6.431176718058243
 31
0.0
  0
LINE
  5
320
330
70
100
AcDbEntity
  8
Layer 1
 62
    18
420
        0
370
     5
100
AcDbLine
 10
5.830197650064001
 20
-6.540357152254058
 30
0.0
 11
5.832457882673868
 21
-6.540393757556152
 31
0.0
  0
LINE
  5
321
330
70
100
AcDbEntity
  8
Layer 1
 62
    18
420
        0
370
     5
100
AcDbLine
 10
6.77179775655011
 20
-5.339196644416119
 30
0.0
 11
6.771485653375545
 21
-5.303433153086126
 31
0.0
  0
LINE
  5
322
330
70
100
AcDbEntity
  8
Layer 1
 62
    18
420
        0
370
     5
100
AcDbLine
 10
6.793640338681269
 20
-5.906934786398728
 30
0.0
 11
7.336873324984606
 21
-5.906934786398728
 31
0.0
  0
LINE
  5
323
330
70
100
AcDbEntity
  8
Layer 1
 62
    18
420
        0
370
     5
100
AcDbLine
 10
6.793640338681269
 20
-5.360849440920042
 30
0.0
 11
7.336873324984606
 21
-5.360849440920042
 31
0.0
  0
LWPOLYLINE
  5
324
330
70
100
AcDbEntity
  8
Layer 1
 62
    18
420
        0
370
     5
100
AcDbPolyline
 90
        7
 70
     0
 43
0.0
 10
5.830076158197735
 20
-4.727431307116906
 10
5.826790116061841
 20
-4.727666215667012
 10
5.823671323593935
 20
-4.728219671963276
 10
5.820171320850994
 20
-4.729542707114711
 10
5.816229476086365
 20
-4.732784420117367
 10
5.813788598335008
 20
-4.738334857671702
 10
5.813652578305006
 20
-4.7400043638789
  0
LINE
  5
325
330
70
100
AcDbEntity
  8
Layer 1
 62
    18
420
        0
370
     5
100
AcDbLine
 10
5.832458688695813
 20
-4.727390469434959
 30
0.0
 11
5.830076158197735
 21
-4.727431307116906
 31
0.0
  0
LINE
  5
326
330
70
100
AcDbEntity
  8
Layer 1
 62
    18
420
        0
370
     5
100
AcDbLine
 10
6.684111998098968
 20
-4.836607509260513
 30
0.0
 11
6.749642239556426
 21
-4.836607509260513
 31
0.0
  0
LINE
  5
327
330
70
100
AcDbEntity
  8
Layer 1
 62
    18
420
        0
370
     5
100
AcDbLine
 10
5.71535659521981
 20
-4.727390440164779
 30
0.0
 11
3.694841177146574
 21
-4.727390440164779
 31
0.0
  0
LINE
  5
328
330
70
100
AcDbEntity
  8
Layer 1
 62
    18
420
        0
370
     5
100
AcDbLine
 10
5.832522886270604
 20
-4.727390440164779
 30
0.0
 11
6.640425170460679
 21
-4.727390440164779
 31
0.0
  0
SPLINE
  5
329
330
70
100
AcDbEntity
  8
Layer 1
 62
    18
420
        0
370
     5
100
AcDbSpline
210
0.0
220
0.0
230
1.0
 70
     8
 71
     3
 72
     8
 73
     4
 74
     0
 42
0.0000000001
 43
0.0000000001
 40
0.0
 40
0.0
 40
0.0
 40
0.0
 40
1.0
 40
1.0
 40
1.0
 40
1.0
 10
2.613537120391709
 20
-26.18158868417918
 30
0.0
 10
2.710077611908306
 20
-26.18158868417918
 30
0.0
 10
2.788339143344867
 20
-26.10332715274263
 30
0.0
 10
2.788339143344867
 20
-26.00678666122606
 30
0.0
  0
SPLINE
  5
32A
330
70
100
AcDbEntity
  8
Layer 1
 62
    18
420
        0
370
     5
100
AcDbSpline
210
0.0
220
0.0
230
1.0
 70
     8
 71
     3
 72
     8
 73
     4
 74
     0
 42
0.0000000001
 43
0.0000000001
 40
0.0
 40
0.0
 40
0.0
 40
0.0
 40
1.0
 40
1.0
 40
1.0
 40
1.0
 10
4.601342490443294
 20
-26.00678666122606
 30
0.0
 10
4.601342490443294
 20
-26.10332715274263
 30
0.0
 10
4.679604021879842
 20
-26.18158868417918
 30
0.0
 10
4.776144513396451
 20
-26.18158868417918
 30
0.0
  0
SPLINE
  5
32B
330
70
100
AcDbEntity
  8
Layer 1
 62
    18
420
        0
370
     5
100
AcDbSpline
210
0.0
220
0.0
230
1.0
 70
     8
 71
     3
 72
    11
 73
     7
 74
     0
 42
0.0000000001
 43
0.0000000001
 40
0.0
 40
0.0
 40
0.0
 40
0.0
 40
1.0
 40
1.0
 40
1.0
 40
2.0
 40
2.0
 40
2.0
 40
2.0
 10
4.710559559539041
 20
-23.94263876771664
 30
0.0
 10
4.65024063785625
 20
-23.94263876771664
 30
0.0
 10
4.601342490443294
 20
-23.99153691512957
 30
0.0
 10
4.601342490443294
 20
-24.05185583681234
 30
0.0
 10
4.601342490443294
 20
-24.05185583681582
 30
0.0
 10
4.601342490443294
 20
-24.05185583681582
 30
0.0
 10
4.601342490443294
 20
-24.05185583681941
 30
0.0
  0
SPLINE
  5
32C
330
70
100
AcDbEntity
  8
Layer 1
 62
    18
420
        0
370
     5
100
AcDbSpline
210
0.0
220
0.0
230
1.0
 70
     8
 71
     3
 72
    11
 73
     7
 74
     0
 42
0.0000000001
 43
0.0000000001
 40
0.0
 40
0.0
 40
0.0
 40
0.0
 40
1.0
 40
1.0
 40
1.0
 40
2.0
 40
2.0
 40
2.0
 40
2.0
 10
4.077100558674538
 20
-22.02041837358431
 30
0.0
 10
4.077100558674538
 20
-22.08073728320329
 30
0.0
 10
4.125998696307848
 20
-22.12963542083662
 30
0.0
 10
4.186317605926862
 20
-22.12963542083662
 30
0.0
 10
4.186317606036583
 20
-22.12963542083662
 30
0.0
 10
4.186317606036583
 20
-22.12963542083662
 30
0.0
 10
4.186317606146265
 20
-22.12963542083662
 30
0.0
  0
SPLINE
  5
32D
330
70
100
AcDbEntity
  8
Layer 1
 62
    18
420
        0
370
     5
100
AcDbSpline
210
0.0
220
0.0
230
1.0
 70
     8
 71
     3
 72
     8
 73
     4
 74
     0
 42
0.0000000001
 43
0.0000000001
 40
0.0
 40
0.0
 40
0.0
 40
0.0
 40
1.0
 40
1.0
 40
1.0
 40
1.0
 10
4.912611137366133
 20
-26.46555306382813
 30
0.0
 10
4.918643029534412
 20
-26.46555306382813
 30
0.0
 10
4.923532844275718
 20
-26.46066324908684
 30
0.0
 10
4.923532844275718
 20
-26.45463135691858
 30
0.0
  0
SPLINE
  5
32E
330
70
100
AcDbEntity
  8
Layer 1
 62
    18
420
        0
370
     5
100
AcDbSpline
210
0.0
220
0.0
230
1.0
 70
     8
 71
     3
 72
     8
 73
     4
 74
     0
 42
0.0000000001
 43
0.0000000001
 40
0.0
 40
0.0
 40
0.0
 40
0.0
 40
1.0
 40
1.0
 40
1.0
 40
1.0
 10
2.466148789621684
 20
-26.45463135691858
 30
0.0
 10
2.466148789621684
 20
-26.46066324908684
 30
0.0
 10
2.471038604362951
 20
-26.46555306382813
 30
0.0
 10
2.477070496531243
 20
-26.46555306382813
 30
0.0
  0
SPLINE
  5
32F
330
70
100
AcDbEntity
  8
Layer 1
 62
    18
420
        0
370
     5
100
AcDbSpline
210
0.0
220
0.0
230
1.0
 70
     8
 71
     3
 72
     8
 73
     4
 74
     0
 42
0.0000000001
 43
0.0000000001
 40
0.0
 40
0.0
 40
0.0
 40
0.0
 40
1.0
 40
1.0
 40
1.0
 40
1.0
 10
4.923532844275718
 20
-26.32357087400371
 30
0.0
 10
4.923532844275718
 20
-26.31753898183539
 30
0.0
 10
4.918643029534412
 20
-26.3126491670941
 30
0.0
 10
4.912611137366133
 20
-26.3126491670941
 30
0.0
  0
SPLINE
  5
330
330
70
100
AcDbEntity
  8
Layer 1
 62
    18
420
        0
370
     5
100
AcDbSpline
210
0.0
220
0.0
230
1.0
 70
     8
 71
     3
 72
     8
 73
     4
 74
     0
 42
0.0000000001
 43
0.0000000001
 40
0.0
 40
0.0
 40
0.0
 40
0.0
 40
1.0
 40
1.0
 40
1.0
 40
1.0
 10
2.477070496531243
 20
-26.3126491670941
 30
0.0
 10
2.471038604362951
 20
-26.3126491670941
 30
0.0
 10
2.466148789621684
 20
-26.31753898183539
 30
0.0
 10
2.466148789621684
 20
-26.32357087400371
 30
0.0
  0
SPLINE
  5
331
330
70
100
AcDbEntity
  8
Layer 1
 62
    18
420
        0
370
     5
100
AcDbSpline
210
0.0
220
0.0
230
1.0
 70
     8
 71
     3
 72
     8
 73
     4
 74
     0
 42
0.0000000001
 43
0.0000000001
 40
0.0
 40
0.0
 40
0.0
 40
0.0
 40
1.0
 40
1.0
 40
1.0
 40
1.0
 10
2.569358919917148
 20
-26.18158868417918
 30
0.0
 10
2.563327027748869
 20
-26.18158868417918
 30
0.0
 10
2.558437213007563
 20
-26.18647849892053
 30
0.0
 10
2.558437213007563
 20
-26.19251039108879
 30
0.0
  0
SPLINE
  5
332
330
70
100
AcDbEntity
  8
Layer 1
 62
    18
420
        0
370
     5
100
AcDbSpline
210
0.0
220
0.0
230
1.0
 70
     8
 71
     3
 72
     8
 73
     4
 74
     0
 42
0.0000000001
 43
0.0000000001
 40
0.0
 40
0.0
 40
0.0
 40
0.0
 40
1.0
 40
1.0
 40
1.0
 40
1.0
 10
4.831244420889813
 20
-26.19251039108879
 30
0.0
 10
4.831244420889813
 20
-26.18647849892053
 30
0.0
 10
4.826354606148533
 20
-26.18158868417918
 30
0.0
 10
4.820322713980254
 20
-26.18158868417918
 30
0.0
  0
SPLINE
  5
333
330
70
100
AcDbEntity
  8
Layer 1
 62
    18
420
        0
370
     5
100
AcDbSpline
210
0.0
220
0.0
230
1.0
 70
     8
 71
     3
 72
     8
 73
     4
 74
     0
 42
0.0000000001
 43
0.0000000001
 40
0.0
 40
0.0
 40
0.0
 40
0.0
 40
1.0
 40
1.0
 40
1.0
 40
1.0
 10
4.077100558783778
 20
-21.58732352498601
 30
0.0
 10
4.077100558783778
 20
-21.58129163281774
 30
0.0
 10
4.072210744042473
 20
-21.57640181807645
 30
0.0
 10
4.066178851874193
 20
-21.57640181807645
 30
0.0
  0
SPLINE
  5
334
330
70
100
AcDbEntity
  8
Layer 1
 62
    18
420
        0
370
     5
100
AcDbSpline
210
0.0
220
0.0
230
1.0
 70
     8
 71
     3
 72
     8
 73
     4
 74
     0
 42
0.0000000001
 43
0.0000000001
 40
0.0
 40
0.0
 40
0.0
 40
0.0
 40
1.0
 40
1.0
 40
1.0
 40
1.0
 10
2.799260850363654
 20
-21.57640181807645
 30
0.0
 10
2.793228958195375
 20
-21.57640181807645
 30
0.0
 10
2.788339143454082
 20
-21.58129163281774
 30
0.0
 10
2.788339143454082
 20
-21.58732352498601
 30
0.0
  0
SPLINE
  5
335
330
70
100
AcDbEntity
  8
Layer 1
 62
    18
420
        0
370
     5
100
AcDbSpline
210
0.0
220
0.0
230
1.0
 70
     8
 71
     3
 72
     8
 73
     4
 74
     0
 42
0.0000000001
 43
0.0000000001
 40
0.0
 40
0.0
 40
0.0
 40
0.0
 40
1.0
 40
1.0
 40
1.0
 40
1.0
 10
2.558437213007563
 20
-26.30172746018454
 30
0.0
 10
2.558437213007563
 20
-26.30775935235281
 30
0.0
 10
2.563327027748869
 20
-26.3126491670941
 30
0.0
 10
2.569358919917148
 20
-26.3126491670941
 30
0.0
  0
SPLINE
  5
336
330
70
100
AcDbEntity
  8
Layer 1
 62
    18
420
        0
370
     5
100
AcDbSpline
210
0.0
220
0.0
230
1.0
 70
     8
 71
     3
 72
     8
 73
     4
 74
     0
 42
0.0000000001
 43
0.0000000001
 40
0.0
 40
0.0
 40
0.0
 40
0.0
 40
1.0
 40
1.0
 40
1.0
 40
1.0
 10
4.820322713980254
 20
-26.3126491670941
 30
0.0
 10
4.826354606148533
 20
-26.3126491670941
 30
0.0
 10
4.831244420889813
 20
-26.30775935235281
 30
0.0
 10
4.831244420889813
 20
-26.30172746018454
 30
0.0
  0
SPLINE
  5
337
330
70
100
AcDbEntity
  8
Layer 1
 62
    18
420
        0
370
     5
100
AcDbSpline
210
0.0
220
0.0
230
1.0
 70
     8
 71
     3
 72
    11
 73
     7
 74
     0
 42
0.0000000001
 43
0.0000000001
 40
0.0
 40
0.0
 40
0.0
 40
0.0
 40
1.0
 40
1.0
 40
1.0
 40
2.0
 40
2.0
 40
2.0
 40
2.0
 10
3.905083674957987
 20
-13.85803165429788
 30
0.0
 10
3.905083674957987
 20
-13.59715231801981
 30
0.0
 10
3.693599187397012
 20
-13.38566783045884
 30
0.0
 10
3.43271985111893
 20
-13.38566783045884
 30
0.0
 10
3.171840514840861
 20
-13.38566783045884
 30
0.0
 10
2.96035602727986
 20
-13.59715231801981
 30
0.0
 10
2.96035602727986
 20
-13.85803165429788
 30
0.0
  0
SPLINE
  5
338
330
70
100
AcDbEntity
  8
Layer 1
 62
    18
420
        0
370
     5
100
AcDbSpline
210
0.0
220
0.0
230
1.0
 70
     8
 71
     3
 72
     8
 73
     4
 74
     0
 42
0.0000000001
 43
0.0000000001
 40
0.0
 40
0.0
 40
0.0
 40
0.0
 40
1.0
 40
1.0
 40
1.0
 40
1.0
 10
7.591308645210069
 20
-19.5601425078042
 30
0.0
 10
7.422626173388506
 20
-19.5348736749433
 30
0.0
 10
7.251120476580732
 20
-19.5348736749433
 30
0.0
 10
7.082438004759195
 20
-19.5601425078042
 30
0.0
  0
SPLINE
  5
339
330
70
100
AcDbEntity
  8
Layer 1
 62
    18
420
        0
370
     5
100
AcDbSpline
210
0.0
220
0.0
230
1.0
 70
     8
 71
     3
 72
     8
 73
     4
 74
     0
 42
0.0000000001
 43
0.0000000001
 40
0.0
 40
0.0
 40
0.0
 40
0.0
 40
1.0
 40
1.0
 40
1.0
 40
1.0
 10
5.731746636133834
 20
-23.84215830790259
 30
0.0
 10
5.867123100328158
 20
-23.84197286228836
 30
0.0
 10
6.000272227753549
 20
-23.80769269891617
 30
0.0
 10
6.118907266200267
 20
-23.74248112708579
 30
0.0
  0
SPLINE
  5
33A
330
70
100
AcDbEntity
  8
Layer 1
 62
    18
420
        0
370
     5
100
AcDbSpline
210
0.0
220
0.0
230
1.0
 70
     8
 71
     3
 72
     8
 73
     4
 74
     0
 42
0.0000000001
 43
0.0000000001
 40
0.0
 40
0.0
 40
0.0
 40
0.0
 40
1.0
 40
1.0
 40
1.0
 40
1.0
 10
5.813687858564813
 20
-22.23440466654645
 30
0.0
 10
5.786464645939101
 20
-22.2315848214393
 30
0.0
 10
5.759115476564147
 20
-22.23015337178084
 30
0.0
 10
5.731746636133834
 20
-22.23011588054149
 30
0.0
  0
SPLINE
  5
33B
330
70
100
AcDbEntity
  8
Layer 1
 62
    18
420
        0
370
     5
100
AcDbSpline
210
0.0
220
0.0
230
1.0
 70
     8
 71
     3
 72
     8
 73
     4
 74
     0
 42
0.0000000001
 43
0.0000000001
 40
0.0
 40
0.0
 40
0.0
 40
0.0
 40
1.0
 40
1.0
 40
1.0
 40
1.0
 10
6.898531176595749
 20
-23.30917976696138
 30
0.0
 10
7.291418164565988
 20
-23.30917976696138
 30
0.0
 10
7.609915997723974
 20
-22.99068193380339
 30
0.0
 10
7.609915997723974
 20
-22.59779494583316
 30
0.0
  0
SPLINE
  5
33C
330
70
100
AcDbEntity
  8
Layer 1
 62
    18
420
        0
370
     5
100
AcDbSpline
210
0.0
220
0.0
230
1.0
 70
     8
 71
     3
 72
     8
 73
     4
 74
     0
 42
0.0000000001
 43
0.0000000001
 40
0.0
 40
0.0
 40
0.0
 40
0.0
 40
1.0
 40
1.0
 40
1.0
 40
1.0
 10
5.813651957405972
 20
-22.97925181792137
 30
0.0
 10
5.813651957405972
 20
-23.00857869945094
 30
0.0
 10
5.819557485717344
 20
-23.03760529845289
 30
0.0
 10
5.83101641123249
 20
-23.06460083523754
 30
0.0
  0
SPLINE
  5
33D
330
70
100
AcDbEntity
  8
Layer 1
 62
    18
420
        0
370
     5
100
AcDbSpline
210
0.0
220
0.0
230
1.0
 70
     8
 71
     3
 72
     8
 73
     4
 74
     0
 42
0.0000000001
 43
0.0000000001
 40
0.0
 40
0.0
 40
0.0
 40
0.0
 40
1.0
 40
1.0
 40
1.0
 40
1.0
 10
6.898531176595749
 20
-22.76309442148269
 30
0.0
 10
6.989823556152032
 20
-22.76309442148269
 30
0.0
 10
7.063830652245289
 20
-22.68908732538946
 30
0.0
 10
7.063830652245289
 20
-22.59779494583316
 30
0.0
  0
SPLINE
  5
33E
330
70
100
AcDbEntity
  8
Layer 1
 62
    18
420
        0
370
     5
100
AcDbSpline
210
0.0
220
0.0
230
1.0
 70
     8
 71
     3
 72
     8
 73
     4
 74
     0
 42
0.0000000001
 43
0.0000000001
 40
0.0
 40
0.0
 40
0.0
 40
0.0
 40
1.0
 40
1.0
 40
1.0
 40
1.0
 10
6.662268584279849
 20
-22.21700907600401
 30
0.0
 10
6.662268584279849
 20
-22.22907286034059
 30
0.0
 10
6.672048213762384
 20
-22.23885248982318
 30
0.0
 10
6.684111998098968
 20
-22.23885248982318
 30
0.0
  0
SPLINE
  5
33F
330
70
100
AcDbEntity
  8
Layer 1
 62
    18
420
        0
370
     5
100
AcDbSpline
210
0.0
220
0.0
230
1.0
 70
     8
 71
     3
 72
     8
 73
     4
 74
     0
 42
0.0000000001
 43
0.0000000001
 40
0.0
 40
0.0
 40
0.0
 40
0.0
 40
1.0
 40
1.0
 40
1.0
 40
1.0
 10
6.684111998098968
 20
-23.83342169862094
 30
0.0
 10
6.672048213762384
 20
-23.83342169862094
 30
0.0
 10
6.662268584279849
 20
-23.84320132810348
 30
0.0
 10
6.662268584279849
 20
-23.85526511244001
 30
0.0
  0
SPLINE
  5
340
330
70
100
AcDbEntity
  8
Layer 1
 62
    18
420
        0
370
     5
100
AcDbSpline
210
0.0
220
0.0
230
1.0
 70
     8
 71
     3
 72
     8
 73
     4
 74
     0
 42
0.0000000001
 43
0.0000000001
 40
0.0
 40
0.0
 40
0.0
 40
0.0
 40
1.0
 40
1.0
 40
1.0
 40
1.0
 10
6.749642239556426
 20
-23.83342169862094
 30
0.0
 10
6.761706023892959
 20
-23.83342169862094
 30
0.0
 10
6.771485653375545
 20
-23.82364206913831
 30
0.0
 10
6.771485653375545
 20
-23.81157828480173
 30
0.0
  0
SPLINE
  5
341
330
70
100
AcDbEntity
  8
Layer 1
 62
    18
420
        0
370
     5
100
AcDbSpline
210
0.0
220
0.0
230
1.0
 70
     8
 71
     3
 72
     8
 73
     4
 74
     0
 42
0.0000000001
 43
0.0000000001
 40
0.0
 40
0.0
 40
0.0
 40
0.0
 40
1.0
 40
1.0
 40
1.0
 40
1.0
 10
6.771485653375545
 20
-22.2606959036423
 30
0.0
 10
6.771485653375545
 20
-22.24863211930571
 30
0.0
 10
6.761706023892959
 20
-22.23885248982318
 30
0.0
 10
6.749642239556426
 20
-22.23885248982318
 30
0.0
  0
SPLINE
  5
342
330
70
100
AcDbEntity
  8
Layer 1
 62
    18
420
        0
370
     5
100
AcDbSpline
210
0.0
220
0.0
230
1.0
 70
     8
 71
     3
 72
     8
 73
     4
 74
     0
 42
0.0000000001
 43
0.0000000001
 40
0.0
 40
0.0
 40
0.0
 40
0.0
 40
1.0
 40
1.0
 40
1.0
 40
1.0
 10
6.662268584279849
 20
-22.15147883454655
 30
0.0
 10
6.662268584279849
 20
-22.13941505021002
 30
0.0
 10
6.652488954797237
 20
-22.12963542072743
 30
0.0
 10
6.640425170460679
 20
-22.12963542072743
 30
0.0
  0
SPLINE
  5
343
330
70
100
AcDbEntity
  8
Layer 1
 62
    18
420
        0
370
     5
100
AcDbSpline
210
0.0
220
0.0
230
1.0
 70
     8
 71
     3
 72
     8
 73
     4
 74
     0
 42
0.0000000001
 43
0.0000000001
 40
0.0
 40
0.0
 40
0.0
 40
0.0
 40
1.0
 40
1.0
 40
1.0
 40
1.0
 10
6.640425170460679
 20
-23.94263876771664
 30
0.0
 10
6.652488954797237
 20
-23.94263876771664
 30
0.0
 10
6.662268584279849
 20
-23.93285913823401
 30
0.0
 10
6.662268584279849
 20
-23.92079535389747
 30
0.0
  0
SPLINE
  5
344
330
70
100
AcDbEntity
  8
Layer 1
 62
    18
420
        0
370
     5
100
AcDbSpline
210
0.0
220
0.0
230
1.0
 70
     8
 71
     3
 72
     8
 73
     4
 74
     0
 42
0.0000000001
 43
0.0000000001
 40
0.0
 40
0.0
 40
0.0
 40
0.0
 40
1.0
 40
1.0
 40
1.0
 40
1.0
 10
6.793640338681269
 20
-23.30917976696138
 30
0.0
 10
6.78165092889349
 20
-23.30917976696138
 30
0.0
 10
6.771902382602497
 20
-23.31884361018658
 30
0.0
 10
6.771797756592377
 20
-23.33083256345445
 30
0.0
  0
SPLINE
  5
345
330
70
100
AcDbEntity
  8
Layer 1
 62
    18
420
        0
370
     5
100
AcDbSpline
210
0.0
220
0.0
230
1.0
 70
     8
 71
     3
 72
     8
 73
     4
 74
     0
 42
0.0000000001
 43
0.0000000001
 40
0.0
 40
0.0
 40
0.0
 40
0.0
 40
1.0
 40
1.0
 40
1.0
 40
1.0
 10
6.771797756592427
 20
-22.74144162499336
 30
0.0
 10
6.771902382604568
 20
-22.75343057825972
 30
0.0
 10
6.781650928894931
 20
-22.76309442148269
 30
0.0
 10
6.793640338681269
 20
-22.76309442148269
 30
0.0
  0
SPLINE
  5
346
330
70
100
AcDbEntity
  8
Layer 1
 62
    18
420
        0
370
     5
100
AcDbSpline
210
0.0
220
0.0
230
1.0
 70
     8
 71
     3
 72
     8
 73
     4
 74
     0
 42
0.0000000001
 43
0.0000000001
 40
0.0
 40
0.0
 40
0.0
 40
0.0
 40
1.0
 40
1.0
 40
1.0
 40
1.0
 10
6.579737606201761
 20
-23.94263876771664
 30
0.0
 10
6.582757941470642
 20
-23.94263876771664
 30
0.0
 10
6.58564343072645
 20
-23.9413880144125
 30
0.0
 10
6.587708304471687
 20
-23.93918376362075
 30
0.0
  0
SPLINE
  5
347
330
70
100
AcDbEntity
  8
Layer 1
 62
    18
420
        0
370
     5
100
AcDbSpline
210
0.0
220
0.0
230
1.0
 70
     8
 71
     3
 72
     8
 73
     4
 74
     0
 42
0.0000000001
 43
0.0000000001
 40
0.0
 40
0.0
 40
0.0
 40
0.0
 40
1.0
 40
1.0
 40
1.0
 40
1.0
 10
5.824573664315531
 20
-22.12963542072743
 30
0.0
 10
5.818541772147252
 20
-22.12963542072743
 30
0.0
 10
5.813651957405972
 20
-22.13452523546872
 30
0.0
 10
5.813651957405972
 20
-22.14055712763704
 30
0.0
  0
SPLINE
  5
348
330
70
100
AcDbEntity
  8
Layer 1
 62
    18
420
        0
370
     5
100
AcDbSpline
210
0.0
220
0.0
230
1.0
 70
     8
 71
     3
 72
     8
 73
     4
 74
     0
 42
0.0000000001
 43
0.0000000001
 40
0.0
 40
0.0
 40
0.0
 40
0.0
 40
1.0
 40
1.0
 40
1.0
 40
1.0
 10
6.200896821671904
 20
-23.93598447530328
 30
0.0
 10
6.20260929747485
 20
-23.94001881547532
 30
0.0
 10
6.206567557841203
 20
-23.94263873105153
 30
0.0
 10
6.210950305153017
 20
-23.94263873134736
 30
0.0
  0
SPLINE
  5
349
330
70
100
AcDbEntity
  8
Layer 1
 62
    18
420
        0
370
     5
100
AcDbSpline
210
0.0
220
0.0
230
1.0
 70
     8
 71
     3
 72
     8
 73
     4
 74
     0
 42
0.0000000001
 43
0.0000000001
 40
0.0
 40
0.0
 40
0.0
 40
0.0
 40
1.0
 40
1.0
 40
1.0
 40
1.0
 10
5.71535659521981
 20
-23.94263876771664
 30
0.0
 10
5.721388487388089
 20
-23.94263876771664
 30
0.0
 10
5.726278302129369
 20
-23.93774895297535
 30
0.0
 10
5.726278302129369
 20
-23.93171706080708
 30
0.0
  0
SPLINE
  5
34A
330
70
100
AcDbEntity
  8
Layer 1
 62
    18
420
        0
370
     5
100
AcDbSpline
210
0.0
220
0.0
230
1.0
 70
     8
 71
     3
 72
     8
 73
     4
 74
     0
 42
0.0000000001
 43
0.0000000001
 40
0.0
 40
0.0
 40
0.0
 40
0.0
 40
1.0
 40
1.0
 40
1.0
 40
1.0
 10
5.726278302129369
 20
-22.14055712763704
 30
0.0
 10
5.726278302129369
 20
-22.13452523546872
 30
0.0
 10
5.721388487388089
 20
-22.12963542072743
 30
0.0
 10
5.71535659521981
 20
-22.12963542072743
 30
0.0
  0
SPLINE
  5
34B
330
70
100
AcDbEntity
  8
Layer 1
 62
    18
420
        0
370
     5
100
AcDbSpline
210
0.0
220
0.0
230
1.0
 70
     8
 71
     3
 72
    11
 73
     7
 74
     0
 42
0.0000000001
 43
0.0000000001
 40
0.0
 40
0.0
 40
0.0
 40
0.0
 40
1.0
 40
1.0
 40
1.0
 40
2.0
 40
2.0
 40
2.0
 40
2.0
 10
5.726278302129369
 20
-23.83669745960803
 30
0.0
 10
5.726278302129369
 20
-23.83971340569214
 30
0.0
 10
5.728723209500016
 20
-23.84215831306276
 30
0.0
 10
5.731739155584161
 20
-23.84215831306276
 30
0.0
 10
5.731741649101599
 20
-23.84215831306276
 30
0.0
 10
5.731744142618759
 20
-23.84215831135488
 30
0.0
 10
5.731746636133872
 20
-23.84215830793917
 30
0.0
  0
SPLINE
  5
34C
330
70
100
AcDbEntity
  8
Layer 1
 62
    18
420
        0
370
     5
100
AcDbSpline
210
0.0
220
0.0
230
1.0
 70
     8
 71
     3
 72
    11
 73
     7
 74
     0
 42
0.0000000001
 43
0.0000000001
 40
0.0
 40
0.0
 40
0.0
 40
0.0
 40
1.0
 40
1.0
 40
1.0
 40
2.0
 40
2.0
 40
2.0
 40
2.0
 10
5.731746636133872
 20
-22.23011588050491
 30
0.0
 10
5.728730692879442
 20
-22.23011174911138
 30
0.0
 10
5.726282438646522
 20
-22.23255330503187
 30
0.0
 10
5.726278307252969
 20
-22.23556924828633
 30
0.0
 10
5.726278303837248
 20
-22.23557174180142
 30
0.0
 10
5.726278302129369
 20
-22.23557423531868
 30
0.0
 10
5.726278302129369
 20
-22.2355767288361
 30
0.0
  0
SPLINE
  5
34D
330
70
100
AcDbEntity
  8
Layer 1
 62
    18
420
        0
370
     5
100
AcDbSpline
210
0.0
220
0.0
230
1.0
 70
     8
 71
     3
 72
     8
 73
     4
 74
     0
 42
0.0000000001
 43
0.0000000001
 40
0.0
 40
0.0
 40
0.0
 40
0.0
 40
1.0
 40
1.0
 40
1.0
 40
1.0
 10
7.609915997723974
 20
-19.58174488349853
 30
0.0
 10
7.609915997723923
 20
-19.57093086078485
 30
0.0
 10
7.602003337124592
 20
-19.56174458526943
 30
0.0
 10
7.591308645210725
 20
-19.56014250783068
 30
0.0
  0
SPLINE
  5
34E
330
70
100
AcDbEntity
  8
Layer 1
 62
    18
420
        0
370
     5
100
AcDbSpline
210
0.0
220
0.0
230
1.0
 70
     8
 71
     3
 72
     8
 73
     4
 74
     0
 42
0.0000000001
 43
0.0000000001
 40
0.0
 40
0.0
 40
0.0
 40
0.0
 40
1.0
 40
1.0
 40
1.0
 40
1.0
 10
7.082438004758513
 20
-19.56014250783068
 30
0.0
 10
7.071743312844672
 20
-19.56174458526943
 30
0.0
 10
7.063830652245339
 20
-19.57093086078485
 30
0.0
 10
7.063830652245289
 20
-19.58174488349853
 30
0.0
  0
SPLINE
  5
34F
330
70
100
AcDbEntity
  8
Layer 1
 62
    18
420
        0
370
     5
100
AcDbSpline
210
0.0
220
0.0
230
1.0
 70
     8
 71
     3
 72
    11
 73
     7
 74
     0
 42
0.0000000001
 43
0.0000000001
 40
0.0
 40
0.0
 40
0.0
 40
0.0
 40
1.0
 40
1.0
 40
1.0
 40
2.0
 40
2.0
 40
2.0
 40
2.0
 10
17.8864345209591
 20
-15.97858583154417
 30
0.0
 10
17.48716814651306
 20
-14.19134511874742
 30
0.0
 10
15.714653935571
 20
-13.06616960319402
 30
0.0
 10
13.92741322277425
 20
-13.46543597764006
 30
0.0
 10
12.41202202545891
 20
-13.80397165718636
 30
0.0
 10
11.33449522168884
 20
-15.14877660127715
 30
0.0
 10
11.33449522168884
 20
-16.70152155368456
 30
0.0
  0
SPLINE
  5
350
330
70
100
AcDbEntity
  8
Layer 1
 62
    18
420
        0
370
     5
100
AcDbSpline
210
0.0
220
0.0
230
1.0
 70
     8
 71
     3
 72
    11
 73
     7
 74
     0
 42
0.0000000001
 43
0.0000000001
 40
0.0
 40
0.0
 40
0.0
 40
0.0
 40
1.0
 40
1.0
 40
1.0
 40
2.0
 40
2.0
 40
2.0
 40
2.0
 10
16.96443380285513
 20
-16.18455914074548
 30
0.0
 10
16.67892334595315
 20
-14.90652536389053
 30
0.0
 10
15.41142030883048
 20
-14.10192623884194
 30
0.0
 10
14.1333865319755
 20
-14.38743669574394
 30
0.0
 10
13.0497489886661
 20
-14.6295193822186
 30
0.0
 10
12.27922286936698
 20
-15.59117280110255
 30
0.0
 10
12.27922286936698
 20
-16.70152155368456
 30
0.0
  0
SPLINE
  5
351
330
70
100
AcDbEntity
  8
Layer 1
 62
    18
420
        0
370
     5
100
AcDbSpline
210
0.0
220
0.0
230
1.0
 70
     8
 71
     3
 72
     8
 73
     4
 74
     0
 42
0.0000000001
 43
0.0000000001
 40
0.0
 40
0.0
 40
0.0
 40
0.0
 40
1.0
 40
1.0
 40
1.0
 40
1.0
 10
11.78506683379111
 20
-22.18449074358715
 30
0.0
 10
11.78437139557058
 20
-22.18450651199858
 30
0.0
 10
11.78367597459446
 20
-22.18452303198334
 30
0.0
 10
11.78298057208106
 20
-22.18454030351262
 30
0.0
  0
SPLINE
  5
352
330
70
100
AcDbEntity
  8
Layer 1
 62
    18
420
        0
370
     5
100
AcDbSpline
210
0.0
220
0.0
230
1.0
 70
     8
 71
     3
 72
     8
 73
     4
 74
     0
 42
0.0000000001
 43
0.0000000001
 40
0.0
 40
0.0
 40
0.0
 40
0.0
 40
1.0
 40
1.0
 40
1.0
 40
1.0
 10
11.80685904553153
 20
-22.18424310177903
 30
0.0
 10
11.79959427330754
 20
-22.18424343585598
 30
0.0
 10
11.79232973749718
 20
-22.18432598839955
 30
0.0
 10
11.78506683371718
 20
-22.18449074355032
 30
0.0
  0
SPLINE
  5
353
330
70
100
AcDbEntity
  8
Layer 1
 62
    18
420
        0
370
     5
100
AcDbSpline
210
0.0
220
0.0
230
1.0
 70
     8
 71
     3
 72
     8
 73
     4
 74
     0
 42
0.0000000001
 43
0.0000000001
 40
0.0
 40
0.0
 40
0.0
 40
0.0
 40
1.0
 40
1.0
 40
1.0
 40
1.0
 10
11.82863680241727
 20
-22.1844905764393
 30
0.0
 10
11.82137871797115
 20
-22.18432579768467
 30
0.0
 10
11.81411900029613
 20
-22.18424321260611
 30
0.0
 10
11.80685904563213
 20
-22.18424283708681
 30
0.0
  0
SPLINE
  5
354
330
70
100
AcDbEntity
  8
Layer 1
 62
    18
420
        0
370
     5
100
AcDbSpline
210
0.0
220
0.0
230
1.0
 70
     8
 71
     3
 72
     8
 73
     4
 74
     0
 42
0.0000000001
 43
0.0000000001
 40
0.0
 40
0.0
 40
0.0
 40
0.0
 40
1.0
 40
1.0
 40
1.0
 40
1.0
 10
11.28211694231749
 20
-22.29695443129842
 30
0.0
 10
11.04263699711292
 20
-22.4669600556543
 30
0.0
 10
10.90035737203331
 20
-22.74244923872266
 30
0.0
 10
10.90035737203331
 20
-23.03613709422204
 30
0.0
  0
SPLINE
  5
355
330
70
100
AcDbEntity
  8
Layer 1
 62
    18
420
        0
370
     5
100
AcDbSpline
210
0.0
220
0.0
230
1.0
 70
     8
 71
     3
 72
     8
 73
     4
 74
     0
 42
0.0000000001
 43
0.0000000001
 40
0.0
 40
0.0
 40
0.0
 40
0.0
 40
1.0
 40
1.0
 40
1.0
 40
1.0
 10
12.71336071902253
 20
-23.03613709422204
 30
0.0
 10
12.71336071902253
 20
-22.74242487586586
 30
0.0
 10
12.5710576263947
 20
-22.46691597702637
 30
0.0
 10
12.33154487193974
 20
-22.29691448390016
 30
0.0
  0
SPLINE
  5
356
330
70
100
AcDbEntity
  8
Layer 1
 62
    18
420
        0
370
     5
100
AcDbSpline
210
0.0
220
0.0
230
1.0
 70
     8
 71
     3
 72
     8
 73
     4
 74
     0
 42
0.0000000001
 43
0.0000000001
 40
0.0
 40
0.0
 40
0.0
 40
0.0
 40
1.0
 40
1.0
 40
1.0
 40
1.0
 10
12.71336071913174
 20
-26.00678666122606
 30
0.0
 10
12.71336071913174
 20
-26.10332715274263
 30
0.0
 10
12.79162225056827
 20
-26.18158868417918
 30
0.0
 10
12.88816274208488
 20
-26.18158868417918
 30
0.0
  0
SPLINE
  5
357
330
70
100
AcDbEntity
  8
Layer 1
 62
    18
420
        0
370
     5
100
AcDbSpline
210
0.0
220
0.0
230
1.0
 70
     8
 71
     3
 72
     8
 73
     4
 74
     0
 42
0.0000000001
 43
0.0000000001
 40
0.0
 40
0.0
 40
0.0
 40
0.0
 40
1.0
 40
1.0
 40
1.0
 40
1.0
 10
10.72555534908014
 20
-26.18158868417918
 30
0.0
 10
10.82209584059675
 20
-26.18158868417918
 30
0.0
 10
10.90035737203331
 20
-26.10332715274263
 30
0.0
 10
10.90035737203331
 20
-26.00678666122606
 30
0.0
  0
SPLINE
  5
358
330
70
100
AcDbEntity
  8
Layer 1
 62
    18
420
        0
370
     5
100
AcDbSpline
210
0.0
220
0.0
230
1.0
 70
     8
 71
     3
 72
     8
 73
     4
 74
     0
 42
0.0000000001
 43
0.0000000001
 40
0.0
 40
0.0
 40
0.0
 40
0.0
 40
1.0
 40
1.0
 40
1.0
 40
1.0
 10
13.02462936594535
 20
-26.46555306382813
 30
0.0
 10
13.03066125811364
 20
-26.46555306382813
 30
0.0
 10
13.03555107285494
 20
-26.46066324908684
 30
0.0
 10
13.03555107285494
 20
-26.45463135691858
 30
0.0
  0
SPLINE
  5
359
330
70
100
AcDbEntity
  8
Layer 1
 62
    18
420
        0
370
     5
100
AcDbSpline
210
0.0
220
0.0
230
1.0
 70
     8
 71
     3
 72
     8
 73
     4
 74
     0
 42
0.0000000001
 43
0.0000000001
 40
0.0
 40
0.0
 40
0.0
 40
0.0
 40
1.0
 40
1.0
 40
1.0
 40
1.0
 10
10.57816701820088
 20
-26.45463135691858
 30
0.0
 10
10.57816701820088
 20
-26.46066324908684
 30
0.0
 10
10.58305683294219
 20
-26.46555306382813
 30
0.0
 10
10.58908872511046
 20
-26.46555306382813
 30
0.0
  0
SPLINE
  5
35A
330
70
100
AcDbEntity
  8
Layer 1
 62
    18
420
        0
370
     5
100
AcDbSpline
210
0.0
220
0.0
230
1.0
 70
     8
 71
     3
 72
     8
 73
     4
 74
     0
 42
0.0000000001
 43
0.0000000001
 40
0.0
 40
0.0
 40
0.0
 40
0.0
 40
1.0
 40
1.0
 40
1.0
 40
1.0
 10
13.03555107285494
 20
-26.32357087400371
 30
0.0
 10
13.03555107285494
 20
-26.31753898183539
 30
0.0
 10
13.03066125811364
 20
-26.3126491670941
 30
0.0
 10
13.02462936594535
 20
-26.3126491670941
 30
0.0
  0
SPLINE
  5
35B
330
70
100
AcDbEntity
  8
Layer 1
 62
    18
420
        0
370
     5
100
AcDbSpline
210
0.0
220
0.0
230
1.0
 70
     8
 71
     3
 72
     8
 73
     4
 74
     0
 42
0.0000000001
 43
0.0000000001
 40
0.0
 40
0.0
 40
0.0
 40
0.0
 40
1.0
 40
1.0
 40
1.0
 40
1.0
 10
10.58908872511046
 20
-26.3126491670941
 30
0.0
 10
10.58305683294219
 20
-26.3126491670941
 30
0.0
 10
10.57816701820088
 20
-26.31753898183539
 30
0.0
 10
10.57816701820088
 20
-26.32357087400371
 30
0.0
  0
SPLINE
  5
35C
330
70
100
AcDbEntity
  8
Layer 1
 62
    18
420
        0
370
     5
100
AcDbSpline
210
0.0
220
0.0
230
1.0
 70
     8
 71
     3
 72
     8
 73
     4
 74
     0
 42
0.0000000001
 43
0.0000000001
 40
0.0
 40
0.0
 40
0.0
 40
0.0
 40
1.0
 40
1.0
 40
1.0
 40
1.0
 10
12.93234094255945
 20
-26.3126491670941
 30
0.0
 10
12.93837283472774
 20
-26.3126491670941
 30
0.0
 10
12.94326264946903
 20
-26.30775935235281
 30
0.0
 10
12.94326264946903
 20
-26.30172746018454
 30
0.0
  0
SPLINE
  5
35D
330
70
100
AcDbEntity
  8
Layer 1
 62
    18
420
        0
370
     5
100
AcDbSpline
210
0.0
220
0.0
230
1.0
 70
     8
 71
     3
 72
     8
 73
     4
 74
     0
 42
0.0000000001
 43
0.0000000001
 40
0.0
 40
0.0
 40
0.0
 40
0.0
 40
1.0
 40
1.0
 40
1.0
 40
1.0
 10
10.67045544158678
 20
-26.30172746018454
 30
0.0
 10
10.67045544158678
 20
-26.30775935235281
 30
0.0
 10
10.67534525632807
 20
-26.3126491670941
 30
0.0
 10
10.68137714849634
 20
-26.3126491670941
 30
0.0
  0
SPLINE
  5
35E
330
70
100
AcDbEntity
  8
Layer 1
 62
    18
420
        0
370
     5
100
AcDbSpline
210
0.0
220
0.0
230
1.0
 70
     8
 71
     3
 72
     8
 73
     4
 74
     0
 42
0.0000000001
 43
0.0000000001
 40
0.0
 40
0.0
 40
0.0
 40
0.0
 40
1.0
 40
1.0
 40
1.0
 40
1.0
 10
12.45123975319274
 20
-21.58732352498601
 30
0.0
 10
12.45123975319274
 20
-21.58129163281774
 30
0.0
 10
12.44634993845145
 20
-21.57640181807645
 30
0.0
 10
12.44031804628318
 20
-21.57640181807645
 30
0.0
  0
SPLINE
  5
35F
330
70
100
AcDbEntity
  8
Layer 1
 62
    18
420
        0
370
     5
100
AcDbSpline
210
0.0
220
0.0
230
1.0
 70
     8
 71
     3
 72
     8
 73
     4
 74
     0
 42
0.0000000001
 43
0.0000000001
 40
0.0
 40
0.0
 40
0.0
 40
0.0
 40
1.0
 40
1.0
 40
1.0
 40
1.0
 10
11.17340004477266
 20
-21.57640181807645
 30
0.0
 10
11.16736815260436
 20
-21.57640181807645
 30
0.0
 10
11.16247833786309
 20
-21.58129163281774
 30
0.0
 10
11.16247833786309
 20
-21.58732352498601
 30
0.0
  0
SPLINE
  5
360
330
70
100
AcDbEntity
  8
Layer 1
 62
    18
420
        0
370
     5
100
AcDbSpline
210
0.0
220
0.0
230
1.0
 70
     8
 71
     3
 72
     8
 73
     4
 74
     0
 42
0.0000000001
 43
0.0000000001
 40
0.0
 40
0.0
 40
0.0
 40
0.0
 40
1.0
 40
1.0
 40
1.0
 40
1.0
 10
12.94326264946903
 20
-26.19251039108879
 30
0.0
 10
12.94326264946903
 20
-26.18647849892053
 30
0.0
 10
12.93837283472774
 20
-26.18158868417918
 30
0.0
 10
12.93234094255945
 20
-26.18158868417918
 30
0.0
  0
SPLINE
  5
361
330
70
100
AcDbEntity
  8
Layer 1
 62
    18
420
        0
370
     5
100
AcDbSpline
210
0.0
220
0.0
230
1.0
 70
     8
 71
     3
 72
     8
 73
     4
 74
     0
 42
0.0000000001
 43
0.0000000001
 40
0.0
 40
0.0
 40
0.0
 40
0.0
 40
1.0
 40
1.0
 40
1.0
 40
1.0
 10
10.68137714849634
 20
-26.18158868417918
 30
0.0
 10
10.67534525632807
 20
-26.18158868417918
 30
0.0
 10
10.67045544158678
 20
-26.18647849892053
 30
0.0
 10
10.67045544158678
 20
-26.19251039108879
 30
0.0
  0
SPLINE
  5
362
330
70
100
AcDbEntity
  8
Layer 1
 62
    18
420
        0
370
     5
100
AcDbSpline
210
0.0
220
0.0
230
1.0
 70
     8
 71
     3
 72
     8
 73
     4
 74
     0
 42
0.0000000001
 43
0.0000000001
 40
0.0
 40
0.0
 40
0.0
 40
0.0
 40
1.0
 40
1.0
 40
1.0
 40
1.0
 10
3.90539210387692
 20
-6.844409463221065
 30
0.0
 10
4.136148730744758
 20
-6.804272818527945
 30
0.0
 10
4.350625855456946
 20
-6.699016356354276
 30
0.0
 10
4.523552613069328
 20
-6.541041967315044
 30
0.0
  0
SPLINE
  5
363
330
70
100
AcDbEntity
  8
Layer 1
 62
    18
420
        0
370
     5
100
AcDbSpline
210
0.0
220
0.0
230
1.0
 70
     8
 71
     3
 72
    14
 73
    10
 74
     0
 42
0.0000000001
 43
0.0000000001
 40
0.0
 40
0.0
 40
0.0
 40
0.0
 40
1.0
 40
1.0
 40
1.0
 40
2.0
 40
2.0
 40
2.0
 40
3.0
 40
3.0
 40
3.0
 40
3.0
 10
4.523552613067724
 20
-4.72674226000226
 30
0.0
 10
4.022547583081669
 20
-4.269057373000817
 30
0.0
 10
3.245375850292993
 20
-4.304175287554256
 30
0.0
 10
2.787690963291563
 20
-4.805180317540348
 30
0.0
 10
2.330006076290133
 20
-5.306185347526403
 30
0.0
 10
2.365123990843572
 20
-6.08335708031508
 30
0.0
 10
2.866129020829639
 20
-6.541041967316509
 30
0.0
 10
2.895878626513687
 20
-6.568219229221881
 30
0.0
 10
2.926947124170181
 20
-6.593916601477783
 30
0.0
 10
2.959221878830059
 20
-6.618040921461455
 30
0.0
  0
SPLINE
  5
364
330
70
100
AcDbEntity
  8
Layer 1
 62
    18
420
        0
370
     5
100
AcDbSpline
210
0.0
220
0.0
230
1.0
 70
     8
 71
     3
 72
     8
 73
     4
 74
     0
 42
0.0000000001
 43
0.0000000001
 40
0.0
 40
0.0
 40
0.0
 40
0.0
 40
1.0
 40
1.0
 40
1.0
 40
1.0
 10
3.905547469340149
 20
-6.750590755947617
 30
0.0
 10
4.07726097523808
 20
-6.718190628797805
 30
0.0
 10
4.239189550848992
 20
-6.646627470649857
 30
0.0
 10
4.378745891486965
 20
-6.541464149407058
 30
0.0
  0
SPLINE
  5
365
330
70
100
AcDbEntity
  8
Layer 1
 62
    18
420
        0
370
     5
100
AcDbSpline
210
0.0
220
0.0
230
1.0
 70
     8
 71
     3
 72
    11
 73
     7
 74
     0
 42
0.0000000001
 43
0.0000000001
 40
0.0
 40
0.0
 40
0.0
 40
0.0
 40
1.0
 40
1.0
 40
1.0
 40
2.0
 40
2.0
 40
2.0
 40
2.0
 10
4.378745891480623
 20
-4.726320077906936
 30
0.0
 10
3.877507696761666
 20
-4.348609734911039
 30
0.0
 10
3.164979124192111
 20
-4.448748844408492
 30
0.0
 10
2.787268781196239
 20
-4.949987039127474
 30
0.0
 10
2.425382385685186
 20
-5.430226161362143
 30
0.0
 10
2.500255749662086
 20
-6.109256232884805
 30
0.0
 10
2.958083026408972
 20
-6.499109490466745
 30
0.0
  0
SPLINE
  5
366
330
70
100
AcDbEntity
  8
Layer 1
 62
    18
420
        0
370
     5
100
AcDbSpline
210
0.0
220
0.0
230
1.0
 70
     8
 71
     3
 72
    11
 73
     7
 74
     0
 42
0.0000000001
 43
0.0000000001
 40
0.0
 40
0.0
 40
0.0
 40
0.0
 40
1.0
 40
1.0
 40
1.0
 40
2.0
 40
2.0
 40
2.0
 40
2.0
 10
3.694850127373405
 20
-4.72739044021259
 30
0.0
 10
3.194203077432676
 20
-4.727385298207005
 30
0.0
 10
2.788344285507504
 20
-5.133235753293888
 30
0.0
 10
2.788339143501906
 20
-5.633882803234667
 30
0.0
 10
2.788337184212625
 20
-5.824647355836784
 30
0.0
 10
2.84851654905852
 20
-6.010550622340701
 30
0.0
 10
2.960309536249496
 20
-6.165125660908541
 30
0.0
  0
SPLINE
  5
367
330
70
100
AcDbEntity
  8
Layer 1
 62
    18
420
        0
370
     5
100
AcDbSpline
210
0.0
220
0.0
230
1.0
 70
     8
 71
     3
 72
    14
 73
    10
 74
     0
 42
0.0000000001
 43
0.0000000001
 40
0.0
 40
0.0
 40
0.0
 40
0.0
 40
1.0
 40
1.0
 40
1.0
 40
2.0
 40
2.0
 40
2.0
 40
3.0
 40
3.0
 40
3.0
 40
3.0
 10
3.905160047728448
 20
-6.07210069075274
 30
0.0
 10
4.147175962102159
 20
-5.811179174958245
 30
0.0
 10
4.131849944006805
 20
-5.403467831423565
 30
0.0
 10
3.870928428212285
 20
-5.161451917049854
 30
0.0
 10
3.610006912417778
 20
-4.919436002676143
 30
0.0
 10
3.202295568883123
 20
-4.934762020771535
 30
0.0
 10
2.960279654509374
 20
-5.19568353656603
 30
0.0
 10
2.731118930329153
 20
-5.442745650924948
 30
0.0
 10
2.731013239444854
 20
-5.824650215458151
 30
0.0
 10
2.960037181210711
 20
-6.071839130978951
 30
0.0
  0
SPLINE
  5
368
330
70
100
AcDbEntity
  8
Layer 1
 62
    18
420
        0
370
     5
100
AcDbSpline
210
0.0
220
0.0
230
1.0
 70
     8
 71
     3
 72
    14
 73
    10
 74
     0
 42
0.0000000001
 43
0.0000000001
 40
0.0
 40
0.0
 40
0.0
 40
0.0
 40
1.0
 40
1.0
 40
1.0
 40
2.0
 40
2.0
 40
2.0
 40
3.0
 40
3.0
 40
3.0
 40
3.0
 10
3.907329793380742
 20
-5.771682521380663
 30
0.0
 10
3.983429334238154
 20
-5.50956268815139
 30
0.0
 10
3.832630092069469
 20
-5.235381712255009
 30
0.0
 10
3.570510258840183
 20
-5.159282171397586
 30
0.0
 10
3.308390425610935
 20
-5.083182630540136
 30
0.0
 10
3.03420944971453
 20
-5.233981872708846
 30
0.0
 10
2.958109908857105
 20
-5.496101705938118
 30
0.0
 10
2.931980181099497
 20
-5.586103824281874
 30
0.0
 10
2.931980181673073
 20
-5.681680409047089
 30
0.0
 10
2.958109910510959
 20
-5.77168252707722
 30
0.0
  0
SPLINE
  5
369
330
70
100
AcDbEntity
  8
Layer 1
 62
    18
420
        0
370
     5
100
AcDbSpline
210
0.0
220
0.0
230
1.0
 70
     8
 71
     3
 72
    11
 73
     7
 74
     0
 42
0.0000000001
 43
0.0000000001
 40
0.0
 40
0.0
 40
0.0
 40
0.0
 40
1.0
 40
1.0
 40
1.0
 40
2.0
 40
2.0
 40
2.0
 40
2.0
 10
3.905083674957987
 20
-5.633892113659372
 30
0.0
 10
3.905083674957987
 20
-5.373012777381315
 30
0.0
 10
3.693599187397012
 20
-5.161528289820327
 30
0.0
 10
3.43271985111893
 20
-5.161528289820327
 30
0.0
 10
3.171840514840861
 20
-5.161528289820327
 30
0.0
 10
2.96035602727986
 20
-5.373012777381315
 30
0.0
 10
2.96035602727986
 20
-5.633892113659372
 30
0.0
  0
SPLINE
  5
36A
330
70
100
AcDbEntity
  8
Layer 1
 62
    18
420
        0
370
     5
100
AcDbSpline
210
0.0
220
0.0
230
1.0
 70
     8
 71
     3
 72
     8
 73
     4
 74
     0
 42
0.0000000001
 43
0.0000000001
 40
0.0
 40
0.0
 40
0.0
 40
0.0
 40
1.0
 40
1.0
 40
1.0
 40
1.0
 10
6.749642239556426
 20
-6.431176718058243
 30
0.0
 10
6.761706023892959
 20
-6.431176718058243
 30
0.0
 10
6.771485653375545
 20
-6.421397088575645
 30
0.0
 10
6.771485653375545
 20
-6.409333304239086
 30
0.0
  0
SPLINE
  5
36B
330
70
100
AcDbEntity
  8
Layer 1
 62
    18
420
        0
370
     5
100
AcDbSpline
210
0.0
220
0.0
230
1.0
 70
     8
 71
     3
 72
     8
 73
     4
 74
     0
 42
0.0000000001
 43
0.0000000001
 40
0.0
 40
0.0
 40
0.0
 40
0.0
 40
1.0
 40
1.0
 40
1.0
 40
1.0
 10
6.640425170460679
 20
-6.54039378715399
 30
0.0
 10
6.652488954797237
 20
-6.54039378715399
 30
0.0
 10
6.662268584279849
 20
-6.530614157671392
 30
0.0
 10
6.662268584279849
 20
-6.518550373334846
 30
0.0
  0
SPLINE
  5
36C
330
70
100
AcDbEntity
  8
Layer 1
 62
    18
420
        0
370
     5
100
AcDbSpline
210
0.0
220
0.0
230
1.0
 70
     8
 71
     3
 72
     8
 73
     4
 74
     0
 42
0.0000000001
 43
0.0000000001
 40
0.0
 40
0.0
 40
0.0
 40
0.0
 40
1.0
 40
1.0
 40
1.0
 40
1.0
 10
6.684111998098968
 20
-6.431176718058268
 30
0.0
 10
6.672048213762384
 20
-6.431176718058268
 30
0.0
 10
6.662268584279849
 20
-6.440956347540829
 30
0.0
 10
6.662268584279849
 20
-6.453020131877387
 30
0.0
  0
SPLINE
  5
36D
330
70
100
AcDbEntity
  8
Layer 1
 62
    18
420
        0
370
     5
100
AcDbSpline
210
0.0
220
0.0
230
1.0
 70
     8
 71
     3
 72
     8
 73
     4
 74
     0
 42
0.0000000001
 43
0.0000000001
 40
0.0
 40
0.0
 40
0.0
 40
0.0
 40
1.0
 40
1.0
 40
1.0
 40
1.0
 10
6.793640338681269
 20
-5.906934786398728
 30
0.0
 10
6.78165092889349
 20
-5.906934786398728
 30
0.0
 10
6.771902382602497
 20
-5.916598629623964
 30
0.0
 10
6.771797756592377
 20
-5.928587582891787
 30
0.0
  0
SPLINE
  5
36E
330
70
100
AcDbEntity
  8
Layer 1
 62
    18
420
        0
370
     5
100
AcDbSpline
210
0.0
220
0.0
230
1.0
 70
     8
 71
     3
 72
     8
 73
     4
 74
     0
 42
0.0000000001
 43
0.0000000001
 40
0.0
 40
0.0
 40
0.0
 40
0.0
 40
1.0
 40
1.0
 40
1.0
 40
1.0
 10
5.71535659521981
 20
-6.54039378715399
 30
0.0
 10
5.721388487388089
 20
-6.54039378715399
 30
0.0
 10
5.726278302129369
 20
-6.535503972412684
 30
0.0
 10
5.726278302129369
 20
-6.529472080244393
 30
0.0
  0
SPLINE
  5
36F
330
70
100
AcDbEntity
  8
Layer 1
 62
    18
420
        0
370
     5
100
AcDbSpline
210
0.0
220
0.0
230
1.0
 70
     8
 71
     3
 72
    11
 73
     7
 74
     0
 42
0.0000000001
 43
0.0000000001
 40
0.0
 40
0.0
 40
0.0
 40
0.0
 40
1.0
 40
1.0
 40
1.0
 40
2.0
 40
2.0
 40
2.0
 40
2.0
 10
5.726278302129369
 20
-6.434452479045337
 30
0.0
 10
5.726278302129369
 20
-6.437468425129483
 30
0.0
 10
5.728723209500016
 20
-6.43991333250013
 30
0.0
 10
5.731739155584161
 20
-6.43991333250013
 30
0.0
 10
5.731741649101599
 20
-6.43991333250013
 30
0.0
 10
5.731744142618759
 20
-6.439913330792251
 30
0.0
 10
5.731746636133872
 20
-6.439913327376504
 30
0.0
  0
SPLINE
  5
370
330
70
100
AcDbEntity
  8
Layer 1
 62
    18
420
        0
370
     5
100
AcDbSpline
210
0.0
220
0.0
230
1.0
 70
     8
 71
     3
 72
     8
 73
     4
 74
     0
 42
0.0000000001
 43
0.0000000001
 40
0.0
 40
0.0
 40
0.0
 40
0.0
 40
1.0
 40
1.0
 40
1.0
 40
1.0
 10
5.731746636133834
 20
-6.439913327339935
 30
0.0
 10
5.759114228244357
 20
-6.439875837810581
 30
0.0
 10
5.786462151904983
 20
-6.438444517017652
 30
0.0
 10
5.81368413594541
 20
-6.435624926924017
 30
0.0
  0
SPLINE
  5
371
330
70
100
AcDbEntity
  8
Layer 1
 62
    18
420
        0
370
     5
100
AcDbSpline
210
0.0
220
0.0
230
1.0
 70
     8
 71
     3
 72
     8
 73
     4
 74
     0
 42
0.0000000001
 43
0.0000000001
 40
0.0
 40
0.0
 40
0.0
 40
0.0
 40
1.0
 40
1.0
 40
1.0
 40
1.0
 10
5.81368413594541
 20
-4.832159300394752
 30
0.0
 10
5.786462151904983
 20
-4.829339710301117
 30
0.0
 10
5.759114228244357
 20
-4.827908389508175
 30
0.0
 10
5.731746636133834
 20
-4.827870899978834
 30
0.0
  0
CIRCLE
  5
372
330
70
100
AcDbEntity
  8
Layer 1
 62
    18
420
        0
370
     5
100
AcDbCircle
 10
7.336873324984613
 20
-5.633892113659375
 30
0.0
 40
0.2730426727393285
  0
CIRCLE
  5
373
330
70
100
AcDbEntity
  8
Layer 1
 62
    18
420
        0
370
     5
100
AcDbCircle
 10
7.336873324984606
 20
-5.633892113659381
 30
0.0
 40
0.2544353202671645
  0
SPLINE
  5
374
330
70
100
AcDbEntity
  8
Layer 1
 62
    18
420
        0
370
     5
100
AcDbSpline
210
0.0
220
0.0
230
1.0
 70
     8
 71
     3
 72
     8
 73
     4
 74
     0
 42
0.0000000001
 43
0.0000000001
 40
0.0
 40
0.0
 40
0.0
 40
0.0
 40
1.0
 40
1.0
 40
1.0
 40
1.0
 10
6.662268584279849
 20
-4.749233853983923
 30
0.0
 10
6.662268584279849
 20
-4.737170069647377
 30
0.0
 10
6.652488954797237
 20
-4.727390440164779
 30
0.0
 10
6.640425170460679
 20
-4.727390440164779
 30
0.0
  0
SPLINE
  5
375
330
70
100
AcDbEntity
  8
Layer 1
 62
    18
420
        0
370
     5
100
AcDbSpline
210
0.0
220
0.0
230
1.0
 70
     8
 71
     3
 72
     8
 73
     4
 74
     0
 42
0.0000000001
 43
0.0000000001
 40
0.0
 40
0.0
 40
0.0
 40
0.0
 40
1.0
 40
1.0
 40
1.0
 40
1.0
 10
6.771485653375545
 20
-4.85845092307967
 30
0.0
 10
6.771485653375545
 20
-4.846387138743099
 30
0.0
 10
6.761706023892959
 20
-4.836607509260513
 30
0.0
 10
6.749642239556426
 20
-4.836607509260513
 30
0.0
  0
SPLINE
  5
376
330
70
100
AcDbEntity
  8
Layer 1
 62
    18
420
        0
370
     5
100
AcDbSpline
210
0.0
220
0.0
230
1.0
 70
     8
 71
     3
 72
     8
 73
     4
 74
     0
 42
0.0000000001
 43
0.0000000001
 40
0.0
 40
0.0
 40
0.0
 40
0.0
 40
1.0
 40
1.0
 40
1.0
 40
1.0
 10
6.662268584279849
 20
-4.814764095441369
 30
0.0
 10
6.662268584279849
 20
-4.82682787977794
 30
0.0
 10
6.672048213762384
 20
-4.836607509260513
 30
0.0
 10
6.684111998098968
 20
-4.836607509260513
 30
0.0
  0
SPLINE
  5
377
330
70
100
AcDbEntity
  8
Layer 1
 62
    18
420
        0
370
     5
100
AcDbSpline
210
0.0
220
0.0
230
1.0
 70
     8
 71
     3
 72
     8
 73
     4
 74
     0
 42
0.0000000001
 43
0.0000000001
 40
0.0
 40
0.0
 40
0.0
 40
0.0
 40
1.0
 40
1.0
 40
1.0
 40
1.0
 10
6.771797756592377
 20
-5.339196644429521
 30
0.0
 10
6.771902382603886
 20
-5.351185597696308
 30
0.0
 10
6.781650928894451
 20
-5.360849440920042
 30
0.0
 10
6.793640338681269
 20
-5.360849440920042
 30
0.0
  0
SPLINE
  5
378
330
70
100
AcDbEntity
  8
Layer 1
 62
    18
420
        0
370
     5
100
AcDbSpline
210
0.0
220
0.0
230
1.0
 70
     8
 71
     3
 72
     8
 73
     4
 74
     0
 42
0.0000000001
 43
0.0000000001
 40
0.0
 40
0.0
 40
0.0
 40
0.0
 40
1.0
 40
1.0
 40
1.0
 40
1.0
 10
5.726278302129369
 20
-4.738312147074363
 30
0.0
 10
5.726278302129369
 20
-4.732280254906072
 30
0.0
 10
5.721388487388089
 20
-4.727390440164779
 30
0.0
 10
5.71535659521981
 20
-4.727390440164779
 30
0.0
  0
SPLINE
  5
379
330
70
100
AcDbEntity
  8
Layer 1
 62
    18
420
        0
370
     5
100
AcDbSpline
210
0.0
220
0.0
230
1.0
 70
     8
 71
     3
 72
    11
 73
     7
 74
     0
 42
0.0000000001
 43
0.0000000001
 40
0.0
 40
0.0
 40
0.0
 40
0.0
 40
1.0
 40
1.0
 40
1.0
 40
2.0
 40
2.0
 40
2.0
 40
2.0
 10
5.731746636133872
 20
-4.82787090005148
 30
0.0
 10
5.728730692879442
 20
-4.827866768657953
 30
0.0
 10
5.726282438646522
 20
-4.830308324578456
 30
0.0
 10
5.726278307252969
 20
-4.833324267832924
 30
0.0
 10
5.726278303837248
 20
-4.833326761348025
 30
0.0
 10
5.726278302129369
 20
-4.833329254865197
 30
0.0
 10
5.726278302129369
 20
-4.833331748382647
 30
0.0
  0
SPLINE
  5
37A
330
70
100
AcDbEntity
  8
Layer 1
 62
    18
420
        0
370
     5
100
AcDbSpline
210
0.0
220
0.0
230
1.0
 70
     8
 71
     3
 72
    53
 73
    49
 74
     0
 42
0.0000000001
 43
0.0000000001
 40
0.0
 40
0.0
 40
0.0
 40
0.0
 40
1.0
 40
1.0
 40
1.0
 40
2.0
 40
2.0
 40
2.0
 40
3.0
 40
3.0
 40
3.0
 40
4.0
 40
4.0
 40
4.0
 40
5.0
 40
5.0
 40
5.0
 40
6.0
 40
6.0
 40
6.0
 40
7.0
 40
7.0
 40
7.0
 40
8.0
 40
8.0
 40
8.0
 40
9.0
 40
9.0
 40
9.0
 40
10.0
 40
10.0
 40
10.0
 40
11.0
 40
11.0
 40
11.0
 40
12.0
 40
12.0
 40
12.0
 40
13.0
 40
13.0
 40
13.0
 40
14.0
 40
14.0
 40
14.0
 40
15.0
 40
15.0
 40
15.0
 40
16.0
 40
16.0
 40
16.0
 40
16.0
 10
11.7829805720395
 20
-22.18454030355997
 30
0.0
 10
11.74822596464792
 20
-22.18540349236506
 30
0.0
 10
11.71348814672534
 20
-22.18814466620921
 30
0.0
 10
11.67900895745235
 20
-22.19275941602589
 30
0.0
 10
11.64507391586858
 20
-22.19730133624575
 30
0.0
 10
11.61138940403922
 20
-22.20365816184813
 30
0.0
 10
11.57814141207409
 20
-22.21180561472304
 30
0.0
 10
11.54574448699863
 20
-22.21974451282616
 30
0.0
 10
11.51376202013835
 20
-22.2293835401662
 30
0.0
 10
11.48238003981226
 20
-22.24068882060167
 30
0.0
 10
11.45201984410543
 20
-22.25162600566687
 30
0.0
 10
11.42222166832622
 20
-22.26412270521072
 30
0.0
 10
11.39315303166927
 20
-22.27813402572752
 30
0.0
 10
11.3651446396553
 20
-22.29163429965855
 30
0.0
 10
11.33781353912066
 20
-22.30654072145484
 30
0.0
 10
11.31131185931927
 20
-22.32279976989503
 30
0.0
 10
11.28580953461005
 20
-22.33844570388454
 30
0.0
 10
11.26107525659583
 20
-22.35534417519541
 30
0.0
 10
11.23724466439572
 20
-22.37343381776009
 30
0.0
 10
11.21429488321789
 20
-22.39085484259062
 30
0.0
 10
11.19218321950949
 20
-22.4093806113724
 30
0.0
 10
11.17102984162625
 20
-22.42894319260535
 30
0.0
 10
11.15061548992144
 20
-22.44782232461673
 30
0.0
 10
11.13109363527653
 20
-22.46766708926078
 30
0.0
 10
11.11256964499527
 20
-22.48840376754045
 30
0.0
 10
11.09463957472596
 20
-22.50847558214728
 30
0.0
 10
11.07764440714234
 20
-22.52938303382431
 30
0.0
 10
11.06167561485343
 20
-22.55104746667747
 30
0.0
 10
11.04616410344475
 20
-22.57209151880645
 30
0.0
 10
11.0316210265954
 20
-22.59384981915976
 30
0.0
 10
11.01812438641355
 20
-22.61623929312181
 30
0.0
 10
11.00496339428524
 20
-22.63807196307516
 30
0.0
 10
10.99279743832772
 20
-22.66050480367443
 30
0.0
 10
10.98169215055317
 20
-22.68345129790709
 30
0.0
 10
10.97081879889348
 20
-22.70591855010369
 30
0.0
 10
10.96096227354484
 20
-22.72887822447107
 30
0.0
 10
10.95217540789629
 20
-22.7522403577358
 30
0.0
 10
10.94353636621329
 20
-22.77520946311981
 30
0.0
 10
10.9359312965838
 20
-22.798567599943
 30
0.0
 10
10.9294010947173
 20
-22.82222293962028
 30
0.0
 10
10.92295350292084
 20
-22.8455790283236
 30
0.0
 10
10.91755375575563
 20
-22.86922484793675
 30
0.0
 10
10.91323219837649
 20
-22.8930652224236
 30
0.0
 10
10.90894642292796
 20
-22.9167082017238
 30
0.0
 10
10.90572105664099
 20
-22.94054252745784
 30
0.0
 10
10.90357202954316
 20
-22.96447718855178
 30
0.0
 10
10.90143258407397
 20
-22.98830513482865
 30
0.0
 10
10.90035990128219
 20
-23.01223252375181
 30
0.0
 10
10.9003573721425
 20
-23.03614622072796
 30
0.0
  0
SPLINE
  5
37B
330
70
100
AcDbEntity
  8
Layer 1
 62
    18
420
        0
370
     5
100
AcDbSpline
210
0.0
220
0.0
230
1.0
 70
     8
 71
     3
 72
    29
 73
    25
 74
     0
 42
0.0000000001
 43
0.0000000001
 40
0.0
 40
0.0
 40
0.0
 40
0.0
 40
1.0
 40
1.0
 40
1.0
 40
2.0
 40
2.0
 40
2.0
 40
3.0
 40
3.0
 40
3.0
 40
4.0
 40
4.0
 40
4.0
 40
5.0
 40
5.0
 40
5.0
 40
6.0
 40
6.0
 40
6.0
 40
7.0
 40
7.0
 40
7.0
 40
8.0
 40
8.0
 40
8.0
 40
8.0
 10
11.80688497802879
 20
-22.18424395582138
 30
0.0
 10
11.83166809639134
 20
-22.18157016327748
 30
0.0
 10
11.85655584814248
 20
-22.17976079164378
 30
0.0
 10
11.88147548644019
 20
-22.17891243486702
 30
0.0
 10
11.90614756488526
 20
-22.17807250594448
 30
0.0
 10
11.93085089948103
 20
-22.17817459264936
 30
0.0
 10
11.95551256352029
 20
-22.17926356088143
 30
0.0
 10
11.97968821993259
 20
-22.18033106880719
 30
0.0
 10
12.00382383200902
 20
-22.18234694456608
 30
0.0
 10
12.02783315733498
 20
-22.18538077476382
 30
0.0
 10
12.0511555483648
 20
-22.18832780360491
 30
0.0
 10
12.07435877568329
 20
-22.19223537049528
 30
0.0
 10
12.09733932080765
 20
-22.19719029358228
 30
0.0
 10
12.11950214738481
 20
-22.2019689052509
 30
0.0
 10
12.14145785725367
 20
-22.2077216629159
 30
0.0
 10
12.1630833086161
 20
-22.21453551215407
 30
0.0
 10
12.18384886227871
 20
-22.22107842076821
 30
0.0
 10
12.20430989954535
 20
-22.22859971381538
 30
0.0
 10
12.22432514294898
 20
-22.2371676786678
 30
0.0
 10
12.24352862983654
 20
-22.24538815330202
 30
0.0
 10
12.26232174963828
 20
-22.25457212181578
 30
0.0
 10
12.28056415474622
 20
-22.26475739213402
 30
0.0
 10
12.29811734497538
 20
-22.27455785355197
 30
0.0
 10
12.31516064743914
 20
-22.28528538582062
 30
0.0
 10
12.33154488253803
 20
-22.29691449354348
 30
0.0
  0
SPLINE
  5
37C
330
70
100
AcDbEntity
  8
Layer 1
 62
    18
420
        0
370
     5
100
AcDbSpline
210
0.0
220
0.0
230
1.0
 70
     8
 71
     3
 72
    29
 73
    25
 74
     0
 42
0.0000000001
 43
0.0000000001
 40
0.0
 40
0.0
 40
0.0
 40
0.0
 40
1.0
 40
1.0
 40
1.0
 40
2.0
 40
2.0
 40
2.0
 40
3.0
 40
3.0
 40
3.0
 40
4.0
 40
4.0
 40
4.0
 40
5.0
 40
5.0
 40
5.0
 40
6.0
 40
6.0
 40
6.0
 40
7.0
 40
7.0
 40
7.0
 40
8.0
 40
8.0
 40
8.0
 40
8.0
 10
11.28211688483841
 20
-22.29695444591182
 30
0.0
 10
11.29850168557249
 20
-22.28532313014754
 30
0.0
 10
11.31554586402108
 20
-22.2745937037634
 30
0.0
 10
11.33309998146337
 20
-22.26479132023729
 30
0.0
 10
11.35134399966705
 20
-22.25460368966697
 30
0.0
 10
11.3701388271109
 20
-22.24541740196027
 30
0.0
 10
11.38934414051206
 20
-22.23719472394845
 30
0.0
 10
11.40936146292266
 20
-22.2286243875315
 30
0.0
 10
11.42982471613962
 20
-22.22110086706673
 30
0.0
 10
11.45059249566781
 20
-22.21455554336393
 30
0.0
 10
11.4722203326364
 20
-22.20773915773361
 30
0.0
 10
11.49417844092863
 20
-22.20198366676964
 30
0.0
 10
11.51634383058813
 20
-22.19720244466619
 30
0.0
 10
11.53932701777762
 20
-22.19224481819143
 30
0.0
 10
11.56253306389256
 20
-22.18833467859071
 30
0.0
 10
11.58585842798864
 20
-22.1853864303304
 30
0.0
 10
11.60987079450496
 20
-22.18235134725445
 30
0.0
 10
11.63400961105827
 20
-22.18033565115103
 30
0.0
 10
11.65818843062266
 20
-22.17926630137168
 30
0.0
 10
11.68285333228398
 20
-22.17817545377753
 30
0.0
 10
11.70755986153553
 20
-22.17806938497592
 30
0.0
 10
11.73223531773614
 20
-22.17890740012848
 30
0.0
 10
11.75715839148425
 20
-22.17975382474085
 30
0.0
 10
11.78204976541787
 20
-22.18156337609202
 30
0.0
 10
11.80683550903114
 20
-22.18424395593062
 30
0.0
  0
SPLINE
  5
37D
330
70
100
AcDbEntity
  8
Layer 1
 62
    18
420
        0
370
     5
100
AcDbSpline
210
0.0
220
0.0
230
1.0
 70
     8
 71
     3
 72
    53
 73
    49
 74
     0
 42
0.0000000001
 43
0.0000000001
 40
0.0
 40
0.0
 40
0.0
 40
0.0
 40
1.0
 40
1.0
 40
1.0
 40
2.0
 40
2.0
 40
2.0
 40
3.0
 40
3.0
 40
3.0
 40
4.0
 40
4.0
 40
4.0
 40
5.0
 40
5.0
 40
5.0
 40
6.0
 40
6.0
 40
6.0
 40
7.0
 40
7.0
 40
7.0
 40
8.0
 40
8.0
 40
8.0
 40
9.0
 40
9.0
 40
9.0
 40
10.0
 40
10.0
 40
10.0
 40
11.0
 40
11.0
 40
11.0
 40
12.0
 40
12.0
 40
12.0
 40
13.0
 40
13.0
 40
13.0
 40
14.0
 40
14.0
 40
14.0
 40
15.0
 40
15.0
 40
15.0
 40
16.0
 40
16.0
 40
16.0
 40
16.0
 10
12.71336071902253
 20
-23.03614308303082
 30
0.0
 10
12.71335939957114
 20
-23.01756731351381
 30
0.0
 10
12.71271241658423
 20
-22.99898509681366
 30
0.0
 10
12.71142059265167
 20
-22.98044955695145
 30
0.0
 10
12.71012513221619
 20
-22.96186183927835
 30
0.0
 10
12.70818119525208
 20
-22.94332106160502
 30
0.0
 10
12.70559513628424
 20
-22.92486983179449
 30
0.0
 10
12.70299607206091
 20
-22.90632581099928
 30
0.0
 10
12.69974841114847
 20
-22.88787224100163
 30
0.0
 10
12.69586179915937
 20
-22.86955442347168
 30
0.0
 10
12.69194552240916
 20
-22.85109679427993
 30
0.0
 10
12.68738050370739
 20
-22.83277699773917
 30
0.0
 10
12.68218299214651
 20
-22.81463848309689
 30
0.0
 10
12.67693177289346
 20
-22.79631253688295
 30
0.0
 10
12.67103492170822
 20
-22.77817163842186
 30
0.0
 10
12.66451089751988
 20
-22.76025923998734
 30
0.0
 10
12.65790281040368
 20
-22.74211603789318
 30
0.0
 10
12.65065128374016
 20
-22.72420726226973
 30
0.0
 10
12.64278002274073
 20
-22.70657525410024
 30
0.0
 10
12.6347872927107
 20
-22.68867114938363
 30
0.0
 10
12.62615555331962
 20
-22.67105242016376
 30
0.0
 10
12.61691297084139
 20
-22.65376029875632
 30
0.0
 10
12.60750422080423
 20
-22.63615729133739
 30
0.0
 10
12.59746246618258
 20
-22.61889274112122
 30
0.0
 10
12.58682014362092
 20
-22.60200683020159
 30
0.0
 10
12.57596026585495
 20
-22.58477572980114
 30
0.0
 10
12.56447501500853
 20
-22.56793890756222
 30
0.0
 10
12.5524017009853
 20
-22.55153505784872
 30
0.0
 10
12.54005295903486
 20
-22.53475698790731
 30
0.0
 10
12.52708901694796
 20
-22.51843187058582
 30
0.0
 10
12.51355199716595
 20
-22.50259684205038
 30
0.0
 10
12.49967606735981
 20
-22.48636537101942
 30
0.0
 10
12.4851980057497
 20
-22.47064883548041
 30
0.0
 10
12.47016492061958
 20
-22.45548262864744
 30
0.0
 10
12.45472550172066
 20
-22.43990648985922
 30
0.0
 10
12.43870065001644
 20
-22.42491083183733
 30
0.0
 10
12.42214279497084
 20
-22.41052911416348
 30
0.0
 10
12.40510984159709
 20
-22.3957347385698
 30
0.0
 10
12.38751285888558
 20
-22.38159004064422
 30
0.0
 10
12.36940946870931
 20
-22.36812617060706
 30
0.0
 10
12.35076490941714
 20
-22.35425982177589
 30
0.0
 10
12.33158321380438
 20
-22.34111561353777
 30
0.0
 10
12.31192882104402
 20
-22.32872272750162
 30
0.0
 10
12.29167694505819
 20
-22.31595310423376
 30
0.0
 10
12.27092319560155
 20
-22.30398117708718
 30
0.0
 10
12.24973361007798
 20
-22.29283150730988
 30
0.0
 10
12.22791004830742
 20
-22.28134824791171
 30
0.0
 10
12.20562418056076
 20
-22.27073718456283
 30
0.0
 10
12.1829648392204
 20
-22.26102704914052
 30
0.0
  0
SPLINE
  5
37E
330
70
100
AcDbEntity
  8
Layer 1
 62
    18
420
        0
370
     5
100
AcDbSpline
210
0.0
220
0.0
230
1.0
 70
     8
 71
     3
 72
    17
 73
    13
 74
     0
 42
0.0000000001
 43
0.0000000001
 40
0.0
 40
0.0
 40
0.0
 40
0.0
 40
1.0
 40
1.0
 40
1.0
 40
2.0
 40
2.0
 40
2.0
 40
3.0
 40
3.0
 40
3.0
 40
4.0
 40
4.0
 40
4.0
 40
4.0
 10
12.1829648392204
 20
-22.26102704914052
 30
0.0
 10
12.15614712088326
 20
-22.24953493762991
 30
0.0
 10
12.1287752873255
 20
-22.23929149065392
 30
0.0
 10
12.1009932148765
 20
-22.23033534702128
 30
0.0
 10
12.07242390698093
 20
-22.22112542125115
 30
0.0
 10
12.04342078166279
 20
-22.21327678674425
 30
0.0
 10
12.01411322469173
 20
-22.20680811071128
 30
0.0
 10
11.98416764388783
 20
-22.20019861197241
 30
0.0
 10
11.95390423223239
 20
-22.19502980894524
 30
0.0
 10
11.92345800214593
 20
-22.1913200738152
 30
0.0
 10
11.8926047487456
 20
-22.18756074473928
 30
0.0
 10
11.86156375618998
 20
-22.18529975569931
 30
0.0
 10
11.83050709819561
 20
-22.18453482796228
 30
0.0
  0
LINE
  5
37F
330
70
100
AcDbEntity
  8
Layer 1
 62
    18
420
        0
370
     5
100
AcDbLine
 10
11.83050709819561
 20
-22.18453482796228
 30
0.0
 11
11.82863680241381
 21
-22.18449057659149
 31
0.0
  0
SPLINE
  5
380
330
70
100
AcDbEntity
  8
Layer 1
 62
    18
420
        0
370
     5
100
AcDbSpline
210
0.0
220
0.0
230
1.0
 70
     8
 71
     3
 72
    29
 73
    25
 74
     0
 42
0.0000000001
 43
0.0000000001
 40
0.0
 40
0.0
 40
0.0
 40
0.0
 40
1.0
 40
1.0
 40
1.0
 40
2.0
 40
2.0
 40
2.0
 40
3.0
 40
3.0
 40
3.0
 40
4.0
 40
4.0
 40
4.0
 40
5.0
 40
5.0
 40
5.0
 40
6.0
 40
6.0
 40
6.0
 40
7.0
 40
7.0
 40
7.0
 40
8.0
 40
8.0
 40
8.0
 40
8.0
 10
2.788339144109386
 20
-5.63391804616026
 30
0.0
 10
2.788342432307672
 20
-5.656025939597055
 30
0.0
 10
2.78931370773801
 20
-5.678146148165296
 30
0.0
 10
2.79125770647613
 20
-5.700177480497952
 30
0.0
 10
2.793207142346482
 20
-5.722270431835213
 30
0.0
 10
2.796134750315546
 20
-5.74427400908923
 30
0.0
 10
2.800032416564034
 20
-5.766105285832294
 30
0.0
 10
2.803923065949485
 20
-5.787897260318686
 30
0.0
 10
2.808780284018957
 20
-5.809517554111544
 30
0.0
 10
2.814584079421036
 20
-5.830880339572811
 30
0.0
 10
2.820350444412257
 20
-5.852105350046977
 30
0.0
 10
2.827051216587328
 20
-5.873076162975254
 30
0.0
 10
2.83465695509234
 20
-5.893713214301239
 30
0.0
 10
2.842179019980903
 20
-5.914123229591723
 30
0.0
 10
2.850586248971555
 20
-5.93420678656077
 30
0.0
 10
2.859840716436679
 20
-5.953891812174384
 30
0.0
 10
2.86895325793364
 20
-5.973274949394218
 30
0.0
 10
2.878887250769265
 20
-5.992271685234363
 30
0.0
 10
2.889597626715701
 20
-6.010818807397324
 30
0.0
 10
2.900101172471686
 20
-6.029007762412043
 30
0.0
 10
2.911351405093126
 20
-6.046764301236091
 30
0.0
 10
2.923301996615868
 20
-6.064038621670621
 30
0.0
 10
2.934980179624163
 20
-6.080919181515254
 30
0.0
 10
2.94732715668417
 20
-6.097339256328672
 30
0.0
 10
2.960286297860546
 20
-6.113248820830019
 30
0.0
  0
SPLINE
  5
381
330
70
100
AcDbEntity
  8
Layer 1
 62
    18
420
        0
370
     5
100
AcDbSpline
210
0.0
220
0.0
230
1.0
 70
     8
 71
     3
 72
    32
 73
    28
 74
     0
 42
0.0000000001
 43
0.0000000001
 40
0.0
 40
0.0
 40
0.0
 40
0.0
 40
1.0
 40
1.0
 40
1.0
 40
2.0
 40
2.0
 40
2.0
 40
3.0
 40
3.0
 40
3.0
 40
4.0
 40
4.0
 40
4.0
 40
5.0
 40
5.0
 40
5.0
 40
6.0
 40
6.0
 40
6.0
 40
7.0
 40
7.0
 40
7.0
 40
8.0
 40
8.0
 40
8.0
 40
9.0
 40
9.0
 40
9.0
 40
9.0
 10
3.000187260292818
 20
-5.109149952969876
 30
0.0
 10
2.984673427021915
 20
-5.125505522847586
 30
0.0
 10
2.969835876214978
 20
-5.142518821611739
 30
0.0
 10
2.955753297316201
 20
-5.160133049575557
 30
0.0
 10
2.941257487012269
 20
-5.178264139701101
 30
0.0
 10
2.927561605632023
 20
-5.197031943117141
 30
0.0
 10
2.914733797483563
 20
-5.216377208654635
 30
0.0
 10
2.901580845356028
 20
-5.236212814906669
 30
0.0
 10
2.889340529932749
 20
-5.256655527918837
 30
0.0
 10
2.878081121490645
 20
-5.277625563779476
 30
0.0
 10
2.866590875509043
 20
-5.299025522002996
 30
0.0
 10
2.856122169417921
 20
-5.320974646799097
 30
0.0
 10
2.846734880452269
 20
-5.343376898728428
 30
0.0
 10
2.837205952833187
 20
-5.366117163561069
 30
0.0
 10
2.82879132212209
 20
-5.389324332562018
 30
0.0
 10
2.821538337674332
 20
-5.4128914960787
 30
0.0
 10
2.814217871067979
 20
-5.436677929756115
 30
0.0
 10
2.808080767322394
 20
-5.460831087929123
 30
0.0
 10
2.803161117606236
 20
-5.485221498745469
 30
0.0
 10
2.800692591827075
 20
-5.497459841176072
 30
0.0
 10
2.798530586559687
 20
-5.509757917116037
 30
0.0
 10
2.796676600642285
 20
-5.522101795993913
 30
0.0
 10
2.794822184944135
 20
-5.534448536361347
 30
0.0
 10
2.793275931419177
 20
-5.54684110090467
 30
0.0
 10
2.792039784759203
 20
-5.559268385853707
 30
0.0
 10
2.78957466981808
 20
-5.584050789752773
 30
0.0
 10
2.788342789556723
 20
-5.608971269951502
 30
0.0
 10
2.788339144000171
 20
-5.633868577162565
 30
0.0
  0
SPLINE
  5
382
330
70
100
AcDbEntity
  8
Layer 1
 62
    18
420
        0
370
     5
100
AcDbSpline
210
0.0
220
0.0
230
1.0
 70
     8
 71
     3
 72
    38
 73
    34
 74
     0
 42
0.0000000001
 43
0.0000000001
 40
0.0
 40
0.0
 40
0.0
 40
0.0
 40
1.0
 40
1.0
 40
1.0
 40
2.0
 40
2.0
 40
2.0
 40
3.0
 40
3.0
 40
3.0
 40
4.0
 40
4.0
 40
4.0
 40
5.0
 40
5.0
 40
5.0
 40
6.0
 40
6.0
 40
6.0
 40
7.0
 40
7.0
 40
7.0
 40
8.0
 40
8.0
 40
8.0
 40
9.0
 40
9.0
 40
9.0
 40
10.0
 40
10.0
 40
10.0
 40
11.0
 40
11.0
 40
11.0
 40
11.0
 10
3.905221624853614
 20
-6.150980037540256
 30
0.0
 10
3.925194114128291
 20
-6.136641979752968
 30
0.0
 10
3.944484538058493
 20
-6.121322139737736
 30
0.0
 10
3.962953132046625
 20
-6.10507366370301
 30
0.0
 10
3.981490246670924
 20
-6.088764903928449
 30
0.0
 10
3.999199421870962
 20
-6.071520604656003
 30
0.0
 10
4.015955489154255
 20
-6.053386957743984
 30
0.0
 10
4.032855616948065
 20
-6.035097406562322
 30
0.0
 10
4.048786177658143
 20
-6.015903149646709
 30
0.0
 10
4.063596071336052
 20
-5.995890980720913
 30
0.0
 10
4.071070596791729
 20
-5.985790876742245
 30
0.0
 10
4.078259665728561
 20
-5.975482434061341
 30
0.0
 10
4.085147218372336
 20
-5.96497628876999
 30
0.0
 10
4.09208328513417
 20
-5.954396140941071
 30
0.0
 10
4.098713573039718
 20
-5.943615495561971
 30
0.0
 10
4.105021001202948
 20
-5.932645499275862
 30
0.0
 10
4.117774441601151
 20
-5.910464478710587
 30
0.0
 10
4.129207912233697
 20
-5.887509321764619
 30
0.0
 10
4.139171779512214
 20
-5.863928788523012
 30
0.0
 10
4.14928672915673
 20
-5.839990703072619
 30
0.0
 10
4.157887170295932
 20
-5.815408132349274
 30
0.0
 10
4.164846587316055
 20
-5.790382967592639
 30
0.0
 10
4.16836289846046
 20
-5.777738766868575
 30
0.0
 10
4.171460277314142
 20
-5.764981577596649
 30
0.0
 10
4.17412828188272
 20
-5.752134057431627
 30
0.0
 10
4.176810113949701
 20
-5.739219952274033
 30
0.0
 10
4.179058109552139
 20
-5.726214577479077
 30
0.0
 10
4.180862220124859
 20
-5.713148392836425
 30
0.0
 10
4.182672921529981
 20
-5.700034474404762
 30
0.0
 10
4.1840364887523
 20
-5.686859301009008
 30
0.0
 10
4.184947049603364
 20
-5.673651566283322
 30
0.0
 10
4.185859343476673
 20
-5.660418693975644
 30
0.0
 10
4.186316904971704
 20
-5.647153136275581
 30
0.0
 10
4.186317606145305
 20
-5.633892113659372
 30
0.0
  0
SPLINE
  5
383
330
70
100
AcDbEntity
  8
Layer 1
 62
    18
420
        0
370
     5
100
AcDbSpline
210
0.0
220
0.0
230
1.0
 70
     8
 71
     3
 72
    68
 73
    64
 74
     0
 42
0.0000000001
 43
0.0000000001
 40
0.0
 40
0.0
 40
0.0
 40
0.0
 40
1.0
 40
1.0
 40
1.0
 40
2.0
 40
2.0
 40
2.0
 40
3.0
 40
3.0
 40
3.0
 40
4.0
 40
4.0
 40
4.0
 40
5.0
 40
5.0
 40
5.0
 40
6.0
 40
6.0
 40
6.0
 40
7.0
 40
7.0
 40
7.0
 40
8.0
 40
8.0
 40
8.0
 40
9.0
 40
9.0
 40
9.0
 40
10.0
 40
10.0
 40
10.0
 40
11.0
 40
11.0
 40
11.0
 40
12.0
 40
12.0
 40
12.0
 40
13.0
 40
13.0
 40
13.0
 40
14.0
 40
14.0
 40
14.0
 40
15.0
 40
15.0
 40
15.0
 40
16.0
 40
16.0
 40
16.0
 40
17.0
 40
17.0
 40
17.0
 40
18.0
 40
18.0
 40
18.0
 40
19.0
 40
19.0
 40
19.0
 40
20.0
 40
20.0
 40
20.0
 40
21.0
 40
21.0
 40
21.0
 40
21.0
 10
4.186317606145305
 20
-5.633892113659372
 30
0.0
 10
4.186318473328823
 20
-5.616793389559461
 30
0.0
 10
4.185560899833275
 20
-5.599684943716598
 30
0.0
 10
4.184049583815875
 20
-5.582646105028654
 30
0.0
 10
4.182542963584018
 20
-5.565660207440739
 30
0.0
 10
4.180287277436099
 20
-5.54874348512923
 30
0.0
 10
4.1772979967335
 20
-5.531956979116102
 30
0.0
 10
4.17432619501887
 20
-5.515268627530897
 30
0.0
 10
4.170629352648461
 20
-5.498708973888962
 30
0.0
 10
4.16623225372968
 20
-5.482338136777254
 30
0.0
 10
4.161870182412636
 20
-5.466097710914696
 30
0.0
 10
4.15681896669677
 20
-5.450043105312627
 30
0.0
 10
4.151109854216707
 20
-5.434225966676775
 30
0.0
 10
4.145453943991141
 20
-5.418556225283118
 30
0.0
 10
4.139152341526735
 20
-5.403119545648437
 30
0.0
 10
4.132242599589718
 20
-5.387962469548697
 30
0.0
 10
4.125401137734911
 20
-5.372955171315045
 30
0.0
 10
4.117963495942401
 20
-5.358221977995728
 30
0.0
 10
4.109963137011908
 20
-5.343794396957756
 30
0.0
 10
4.094200067491379
 20
-5.315367801989926
 30
0.0
 10
4.076252494291477
 20
-5.288127613313955
 30
0.0
 10
4.056449326121474
 20
-5.262330103580628
 30
0.0
 10
4.036945656321007
 20
-5.236922749202145
 30
0.0
 10
4.015642094270989
 20
-5.212914766286441
 30
0.0
 10
3.992831498161409
 20
-5.190443055139742
 30
0.0
 10
3.97020836255913
 20
-5.168156019498761
 30
0.0
 10
3.94610286112763
 20
-5.14738010881236
 30
0.0
 10
3.920782951848612
 20
-5.128208456277471
 30
0.0
 10
3.895452465888613
 20
-5.109028795323196
 30
0.0
 10
3.868906557299636
 20
-5.091454733067911
 30
0.0
 10
3.841409218668559
 20
-5.075563200468169
 30
0.0
 10
3.827569633057414
 20
-5.067564890927857
 30
0.0
 10
3.81348903375768
 20
-5.059992795255652
 30
0.0
 10
3.79919296249491
 20
-5.052851762356074
 30
0.0
 10
3.784794688865152
 20
-5.045659678335456
 30
0.0
 10
3.770177851449311
 20
-5.038904842438884
 30
0.0
 10
3.755367923753523
 20
-5.032594364563553
 30
0.0
 10
3.725328173948254
 20
-5.01979449271942
 30
0.0
 10
3.694494009651167
 20
-5.008822804312709
 30
0.0
 10
3.663110452020443
 20
-4.999749682478636
 30
0.0
 10
3.631012455159053
 20
-4.990470013182377
 30
0.0
 10
3.59833976663218
 20
-4.983176335194898
 30
0.0
 10
3.565357180412964
 20
-4.977929508206734
 30
0.0
 10
3.548605125369463
 20
-4.975264613042794
 30
0.0
 10
3.531773126466279
 20
-4.973127741072099
 30
0.0
 10
3.514890587167251
 20
-4.971525008903022
 30
0.0
 10
3.497897701023955
 20
-4.969911801032758
 30
0.0
 10
3.480853611646251
 20
-4.968839738221238
 30
0.0
 10
3.463787328091736
 20
-4.968316916126708
 30
0.0
 10
3.429639981206289
 20
-4.96727081916227
 30
0.0
 10
3.395403780714433
 20
-4.968423588095902
 30
0.0
 10
3.361395390854429
 20
-4.971826220594405
 30
0.0
 10
3.327848646880738
 20
-4.975182664158283
 30
0.0
 10
3.294523570699286
 20
-4.980728304447501
 30
0.0
 10
3.261717113019686
 20
-4.988488522468527
 30
0.0
 10
3.22969938764331
 20
-4.996062169458569
 30
0.0
 10
3.198175643304529
 20
-5.005745188562817
 30
0.0
 10
3.167456001585732
 20
-5.017523628808096
 30
0.0
 10
3.137457509696004
 20
-5.02902556777619
 30
0.0
 10
3.108225810610633
 20
-5.04252570176709
 30
0.0
 10
3.080046421973217
 20
-5.057975801820007
 30
0.0
 10
3.052296363357565
 20
-5.073190510258288
 30
0.0
 10
3.025566794284334
 20
-5.090296219568231
 30
0.0
 10
3.00018722752769
 20
-5.109150010527273
 30
0.0
  0
SPLINE
  5
384
330
70
100
AcDbEntity
  8
Layer 1
 62
    18
420
        0
370
     5
100
AcDbSpline
210
0.0
220
0.0
230
1.0
 70
     8
 71
     3
 72
    29
 73
    25
 74
     0
 42
0.0000000001
 43
0.0000000001
 40
0.0
 40
0.0
 40
0.0
 40
0.0
 40
1.0
 40
1.0
 40
1.0
 40
2.0
 40
2.0
 40
2.0
 40
3.0
 40
3.0
 40
3.0
 40
4.0
 40
4.0
 40
4.0
 40
5.0
 40
5.0
 40
5.0
 40
6.0
 40
6.0
 40
6.0
 40
7.0
 40
7.0
 40
7.0
 40
8.0
 40
8.0
 40
8.0
 40
8.0
 10
3.00018722752769
 20
-5.109150010527273
 30
0.0
 10
3.021760231133093
 20
-5.076812964681039
 30
0.0
 10
3.04544190468544
 20
-5.045822674351673
 30
0.0
 10
3.071045425165935
 20
-5.016528053505908
 30
0.0
 10
3.095447309334518
 20
-4.988608301408362
 30
0.0
 10
3.121594879574483
 20
-4.962228789876235
 30
0.0
 10
3.149326053740019
 20
-4.93762764887957
 30
0.0
 10
3.175888879658385
 20
-4.914062984008688
 30
0.0
 10
3.203904682126196
 20
-4.892129996505218
 30
0.0
 10
3.233185026946266
 20
-4.872039344985497
 30
0.0
 10
3.261409839056568
 20
-4.852672945176928
 30
0.0
 10
3.290809665392973
 20
-4.835018446109643
 30
0.0
 10
3.321186060390687
 20
-4.819242315988591
 30
0.0
 10
3.350673382562237
 20
-4.80392793021191
 30
0.0
 10
3.381080944486383
 20
-4.790383568236797
 30
0.0
 10
3.412200206264325
 20
-4.778737256370314
 30
0.0
 10
3.442629798462853
 20
-4.767349051751517
 30
0.0
 10
3.473739894483982
 20
-4.757775699766953
 30
0.0
 10
3.50531115664488
 20
-4.750109031231077
 30
0.0
 10
3.536415684685809
 20
-4.742555702978304
 30
0.0
 10
3.567967844345452
 20
-4.736853099930385
 30
0.0
 10
3.599756425932708
 20
-4.733055549507954
 30
0.0
 10
3.631306795014905
 20
-4.729286456599323
 30
0.0
 10
3.663090055974571
 20
-4.727393971698701
 30
0.0
 10
3.694841177146574
 20
-4.727390440164779
 30
0.0
  0
SPLINE
  5
385
330
70
100
AcDbEntity
  8
Layer 1
 62
    18
420
        0
370
     5
100
AcDbSpline
210
0.0
220
0.0
230
1.0
 70
     8
 71
     3
 72
    50
 73
    46
 74
     0
 42
0.0000000001
 43
0.0000000001
 40
0.0
 40
0.0
 40
0.0
 40
0.0
 40
1.0
 40
1.0
 40
1.0
 40
2.0
 40
2.0
 40
2.0
 40
3.0
 40
3.0
 40
3.0
 40
4.0
 40
4.0
 40
4.0
 40
5.0
 40
5.0
 40
5.0
 40
6.0
 40
6.0
 40
6.0
 40
7.0
 40
7.0
 40
7.0
 40
8.0
 40
8.0
 40
8.0
 40
9.0
 40
9.0
 40
9.0
 40
10.0
 40
10.0
 40
10.0
 40
11.0
 40
11.0
 40
11.0
 40
12.0
 40
12.0
 40
12.0
 40
13.0
 40
13.0
 40
13.0
 40
14.0
 40
14.0
 40
14.0
 40
15.0
 40
15.0
 40
15.0
 40
15.0
 10
3.43271985111893
 20
-12.01111687982748
 30
0.0
 10
3.401865993603829
 20
-12.01111687982748
 30
0.0
 10
3.370905944840122
 20
-12.00813616258816
 30
0.0
 10
3.340583251950988
 20
-12.00225731944105
 30
0.0
 10
3.325410205114419
 20
-11.99931562944199
 30
0.0
 10
3.310396743273157
 20
-11.9956482892562
 30
0.0
 10
3.295590159479085
 20
-11.99126459397372
 30
0.0
 10
3.280811401258183
 20
-11.98688913683961
 30
0.0
 10
3.266238744255562
 20
-11.98180001452862
 30
0.0
 10
3.251945890301802
 20
-11.97602186333679
 30
0.0
 10
3.237679367014303
 20
-11.97025435680497
 30
0.0
 10
3.22369161680438
 20
-11.96380035774763
 30
0.0
 10
3.210049759574985
 20
-11.95668251786872
 30
0.0
 10
3.196432590406061
 20
-11.94957755934887
 30
0.0
 10
3.183160063405605
 20
-11.94181116057684
 30
0.0
 10
3.170294267364902
 20
-11.93342102685008
 30
0.0
 10
3.157455217603392
 20
-11.92504833509565
 30
0.0
 10
3.145021209480217
 20
-11.91605449901501
 30
0.0
 10
3.133056946514051
 20
-11.90647355568743
 30
0.0
 10
3.12112091179175
 20
-11.89691521744685
 30
0.0
 10
3.109652408226616
 20
-11.88677253910945
 30
0.0
 10
3.098709293200449
 20
-11.87609157068703
 30
0.0
 10
3.087792364219239
 20
-11.86543616101258
 30
0.0
 10
3.077398312355487
 20
-11.85424503434553
 30
0.0
 10
3.06757957083332
 20
-11.84256971333879
 30
0.0
 10
3.057784114967236
 20
-11.83092208096294
 30
0.0
 10
3.048561243921603
 20
-11.81879254810822
 30
0.0
 10
3.039964031774944
 20
-11.80623457793264
 30
0.0
 10
3.031385816872102
 20
-11.79370435708059
 30
0.0
 10
3.023430498888488
 20
-11.78074759024996
 30
0.0
 10
3.016136136558012
 20
-11.76742869364986
 30
0.0
 10
3.00885635032364
 20
-11.75413641178429
 30
0.0
 10
3.002234880847607
 20
-11.74048344596837
 30
0.0
 10
2.996313298829805
 20
-11.72653320310025
 30
0.0
 10
2.990401989489504
 20
-11.71260716091795
 30
0.0
 10
2.985188141403821
 20
-11.69838487221291
 30
0.0
 10
2.980698542068151
 20
-11.68393736259207
 30
0.0
 10
2.976214915545293
 20
-11.66950907345488
 30
0.0
 10
2.972453612021644
 20
-11.65485616225603
 30
0.0
 10
2.969435345534053
 20
-11.64005235482629
 30
0.0
 10
2.966419958438084
 20
-11.62526267005921
 30
0.0
 10
2.964146191356753
 20
-11.61032237683043
 30
0.0
 10
2.962631105316088
 20
-11.59530259412333
 30
0.0
 10
2.961116722345359
 20
-11.58028978128915
 30
0.0
 10
2.960360316452604
 20
-11.56519755273311
 30
0.0
 10
2.960360316452604
 20
-11.55011652082258
 30
0.0
  0
SPLINE
  5
386
330
70
100
AcDbEntity
  8
Layer 1
 62
    18
420
        0
370
     5
100
AcDbSpline
210
0.0
220
0.0
230
1.0
 70
     8
 71
     3
 72
    50
 73
    46
 74
     0
 42
0.0000000001
 43
0.0000000001
 40
0.0
 40
0.0
 40
0.0
 40
0.0
 40
1.0
 40
1.0
 40
1.0
 40
2.0
 40
2.0
 40
2.0
 40
3.0
 40
3.0
 40
3.0
 40
4.0
 40
4.0
 40
4.0
 40
5.0
 40
5.0
 40
5.0
 40
6.0
 40
6.0
 40
6.0
 40
7.0
 40
7.0
 40
7.0
 40
8.0
 40
8.0
 40
8.0
 40
9.0
 40
9.0
 40
9.0
 40
10.0
 40
10.0
 40
10.0
 40
11.0
 40
11.0
 40
11.0
 40
12.0
 40
12.0
 40
12.0
 40
13.0
 40
13.0
 40
13.0
 40
14.0
 40
14.0
 40
14.0
 40
15.0
 40
15.0
 40
15.0
 40
15.0
 10
3.905079385676028
 20
-11.55011652082258
 30
0.0
 10
3.905079385676028
 20
-11.56519755273311
 30
0.0
 10
3.904322979783273
 20
-11.58028978128915
 30
0.0
 10
3.902808596812519
 20
-11.59530259412333
 30
0.0
 10
3.901293510771905
 20
-11.61032237683043
 30
0.0
 10
3.899019743690574
 20
-11.62526267005921
 30
0.0
 10
3.896004356594605
 20
-11.64005235482629
 30
0.0
 10
3.892986090106976
 20
-11.65485616225603
 30
0.0
 10
3.889224786583326
 20
-11.66950907345488
 30
0.0
 10
3.884741160078634
 20
-11.68393736259207
 30
0.0
 10
3.880251560761153
 20
-11.69838487221291
 30
0.0
 10
3.875037712711875
 20
-11.71260716091795
 30
0.0
 10
3.869126403389777
 20
-11.72653320310025
 30
0.0
 10
3.863204821390253
 20
-11.74048344596837
 30
0.0
 10
3.85658335191422
 20
-11.75413641178429
 30
0.0
 10
3.849303565661683
 20
-11.76742869364986
 30
0.0
 10
3.84200920331303
 20
-11.78074759024996
 30
0.0
 10
3.834053885293024
 20
-11.79370435708059
 30
0.0
 10
3.825475670390106
 20
-11.80623457793264
 30
0.0
 10
3.816878458243333
 20
-11.81879254810822
 30
0.0
 10
3.807655587234118
 20
-11.83092208096294
 30
0.0
 10
3.797860131368111
 20
-11.84256971333879
 30
0.0
 10
3.788041389846044
 20
-11.85424503434553
 30
0.0
 10
3.777647337945886
 20
-11.86543616101258
 30
0.0
 10
3.766730408946449
 20
-11.87609157068703
 30
0.0
 10
3.755787293902017
 20
-11.88677253910945
 30
0.0
 10
3.744318790336882
 20
-11.89691521744685
 30
0.0
 10
3.732382755632708
 20
-11.90647355568743
 30
0.0
 10
3.720418492684732
 20
-11.91605449901501
 30
0.0
 10
3.707984484597962
 20
-11.92504833509569
 30
0.0
 10
3.695145434836515
 20
-11.93342102685008
 30
0.0
 10
3.682279638795913
 20
-11.94181116057684
 30
0.0
 10
3.669007111759039
 20
-11.94957755934887
 30
0.0
 10
3.655389942590052
 20
-11.95668251786872
 30
0.0
 10
3.641748085360606
 20
-11.96380035774763
 30
0.0
 10
3.627760335187076
 20
-11.97025435680497
 30
0.0
 10
3.613493811899628
 20
-11.97602186333679
 30
0.0
 10
3.599200957945943
 20
-11.98180001452862
 30
0.0
 10
3.584628300906918
 20
-11.98688913683961
 30
0.0
 10
3.5698495426678
 20
-11.99126459397372
 30
0.0
 10
3.555042958855488
 20
-11.9956482892562
 30
0.0
 10
3.5400294970142
 20
-11.99931562944199
 30
0.0
 10
3.524856450177606
 20
-12.00225731944105
 30
0.0
 10
3.494533757288523
 20
-12.00813616258816
 30
0.0
 10
3.463573708524791
 20
-12.01111687982748
 30
0.0
 10
3.43271985111893
 20
-12.01111687982748
 30
0.0
  0
LINE
  5
387
330
70
100
AcDbEntity
  8
Layer 1
 62
    18
420
        0
370
     5
100
AcDbLine
 10
4.710559559539041
 20
-23.94263876771664
 30
0.0
 11
5.71535659521981
 21
-23.94263876771664
 31
0.0
  0
LINE
  5
388
330
70
100
AcDbEntity
  8
Layer 1
 62
    18
420
        0
370
     5
100
AcDbLine
 10
4.186317606145305
 20
-22.12963542072743
 30
0.0
 11
5.71535659521981
 21
-22.12963542072743
 31
0.0
  0
LINE
  5
389
330
70
100
AcDbEntity
  8
Layer 1
 62
    18
420
        0
370
     5
100
AcDbLine
 10
11.16247833786309
 20
-22.36601399610991
 30
0.0
 11
11.16247833786309
 21
-21.58732352498601
 31
0.0
  0
LINE
  5
38A
330
70
100
AcDbEntity
  8
Layer 1
 62
    18
420
        0
370
     5
100
AcDbLine
 10
12.45123975319274
 20
-22.36605066683306
 30
0.0
 11
12.45123975319274
 21
-21.58732352498601
 31
0.0
  0
LINE
  5
38B
330
70
100
AcDbEntity
  8
Layer 1
 62
    18
420
        0
370
     5
100
AcDbLine
 10
6.408243638740032
 20
-23.94263876771664
 30
0.0
 11
6.579737606201761
 21
-23.94263876771664
 31
0.0
  0
ENDSEC
  0
SECTION
  2
OBJECTS
  0
DICTIONARY
  5
C
330
0
100
AcDbDictionary
281
     1
  3
ACAD_COLOR
350
63
  3
ACAD_DETAILVIEWSTYLE
350
6A
  3
ACAD_GROUP
350
D
  3
ACAD_LAYOUT
350
62
  3
ACAD_MATERIAL
350
10
  3
ACAD_MLEADERSTYLE
350
66
  3
ACAD_MLINESTYLE
350
5F
  3
ACAD_PLOTSETTINGS
350
61
  3
ACAD_PLOTSTYLENAME
350
E
  3
ACAD_SCALELIST
350
42
  3
ACAD_SECTIONVIEWSTYLE
350
68
  3
ACAD_TABLESTYLE
350
64
  3
ACAD_VISUALSTYLE
350
29
  3
ACDB_RECOMPOSE_DATA
350
394
  3
AcDbVariableDictionary
350
38C
  0
DICTIONARY
  5
63
102
{ACAD_REACTORS
330
C
102
}
330
C
100
AcDbDictionary
281
     1
  0
DICTIONARY
  5
6A
102
{ACAD_REACTORS
330
C
102
}
330
C
100
AcDbDictionary
281
     1
  3
Imperial24
350
6B
  0
DICTIONARY
  5
D
102
{ACAD_REACTORS
330
C
102
}
330
C
100
AcDbDictionary
281
     1
  0
DICTIONARY
  5
62
102
{ACAD_REACTORS
330
C
102
}
330
C
100
AcDbDictionary
281
     1
  3
Layout1
350
6F
  3
Layout2
350
77
  3
Model
350
73
  0
DICTIONARY
  5
10
102
{ACAD_REACTORS
330
C
102
}
330
C
100
AcDbDictionary
281
     1
  3
ByBlock
350
19
  3
ByLayer
350
11
  3
Global
350
21
  0
DICTIONARY
  5
66
102
{ACAD_REACTORS
330
C
102
}
330
C
100
AcDbDictionary
281
     1
  3
Standard
350
67
  0
DICTIONARY
  5
5F
102
{ACAD_REACTORS
330
C
102
}
330
C
100
AcDbDictionary
281
     1
  3
Standard
350
60
  0
DICTIONARY
  5
61
102
{ACAD_REACTORS
330
C
102
}
330
C
100
AcDbDictionary
281
     1
  0
ACDBDICTIONARYWDFLT
  5
E
102
{ACAD_REACTORS
330
C
102
}
330
C
100
AcDbDictionary
281
     1
  3
Normal
350
F
100
AcDbDictionaryWithDefault
340
F
  0
DICTIONARY
  5
42
102
{ACAD_REACTORS
330
C
102
}
330
C
100
AcDbDictionary
281
     1
  3
A0
350
43
  3
A1
350
44
  3
A2
350
45
  3
A3
350
46
  3
A4
350
47
  3
A5
350
48
  3
A6
350
49
  3
A7
350
4A
  3
A8
350
4B
  3
A9
350
4C
  3
B0
350
4D
  3
B1
350
4E
  3
B2
350
4F
  3
B3
350
50
  3
B4
350
51
  3
B5
350
52
  3
B6
350
53
  0
DICTIONARY
  5
68
102
{ACAD_REACTORS
330
C
102
}
330
C
100
AcDbDictionary
281
     1
  3
Imperial24
350
69
  0
DICTIONARY
  5
64
102
{ACAD_REACTORS
330
C
102
}
330
C
100
AcDbDictionary
281
     1
  3
Standard
350
65
  0
DICTIONARY
  5
29
102
{ACAD_REACTORS
330
C
102
}
330
C
100
AcDbDictionary
281
     1
  3
2dWireframe
350
2F
  3
Basic
350
2E
  3
Brighten
350
35
  3
ColorChange
350
39
  3
Conceptual
350
32
  3
Dim
350
34
  3
EdgeColorOff
350
41
  3
Facepattern
350
38
  3
Flat
350
2A
  3
FlatWithEdges
350
2B
  3
Gouraud
350
2C
  3
GouraudWithEdges
350
2D
  3
Hidden
350
31
  3
JitterOff
350
3F
  3
Linepattern
350
37
  3
OverhangOff
350
40
  3
Realistic
350
33
  3
Shaded
350
3E
  3
Shaded with edges
350
3D
  3
Shades of Gray
350
3A
  3
Sketchy
350
3B
  3
Thicken
350
36
  3
Wireframe
350
30
  3
X-Ray
350
3C
  0
XRECORD
  5
394
102
{ACAD_REACTORS
330
C
102
}
330
C
100
AcDbXrecord
280
     1
 90
        1
330
65
  0
DICTIONARY
  5
38C
102
{ACAD_REACTORS
330
C
102
}
330
C
100
AcDbDictionary
281
     1
  3
CANNOSCALE
350
391
  3
CMLEADERSTYLE
350
38E
  3
CTABLESTYLE
350
38D
  3
CVIEWDETAILSTYLE
350
38F
  3
CVIEWSECTIONSTYLE
350
390
  0
ACDBDETAILVIEWSTYLE
  5
6B
102
{ACAD_REACTORS
330
6A
102
}
330
6A
100
AcDbModelDocViewStyle
 70
     0
  3
Imperial24
290
     1
300
Imperial24
 90
        0
100
AcDbDetailViewStyle
 70
     0
 71
     0
 90
        3
 71
     1
340
55
 62
   256
 40
0.24
340
0
 62
   256
 40
0.24
300

 40
0.36
280
     3
 71
     2
340
5D
 90
       25
 62
   256
 71
     3
340
55
 62
   256
 40
0.24
 90
        1
 40
0.75
 90
        1
300
%<\AcVar ViewType \f "%tc1">% %<\AcVar ViewDetailId>%\PSCALE %<\AcVar ViewScale \f "%sn">%
 71
     4
340
5D
 90
       25
 62
   256
340
5D
 90
       25
 62
   256
280
     0
  0
LAYOUT
  5
6F
102
{ACAD_REACTORS
330
62
102
}
330
62
100
AcDbPlotSettings
  1

  2

  4

  6

 40
0.0
 41
0.0
 42
0.0
 43
0.0
 44
0.0
 45
0.0
 46
0.0
 47
0.0
 48
0.0
 49
0.0
140
0.0
141
0.0
142
1.0
143
1.0
 70
   688
 72
     0
 73
     0
 74
     5
  7

 75
    16
147
1.0
 76
     0
 77
     2
 78
   300
148
0.0
149
0.0
100
AcDbLayout
  1
Layout1
 70
     1
 71
     1
 10
0.0
 20
0.0
 11
12.0
 21
9.0
 12
0.0
 22
0.0
 32
0.0
 14
0.0
 24
0.0
 34
0.0
 15
0.0
 25
0.0
 35
0.0
146
0.0
 13
0.0
 23
0.0
 33
0.0
 16
1.0
 26
0.0
 36
0.0
 17
0.0
 27
1.0
 37
0.0
 76
     0
330
6C
  0
LAYOUT
  5
77
102
{ACAD_REACTORS
330
62
102
}
330
62
100
AcDbPlotSettings
  1

  2

  4

  6

 40
0.0
 41
0.0
 42
0.0
 43
0.0
 44
0.0
 45
0.0
 46
0.0
 47
0.0
 48
0.0
 49
0.0
140
0.0
141
0.0
142
1.0
143
1.0
 70
   688
 72
     0
 73
     0
 74
     5
  7

 75
    16
147
1.0
 76
     0
 77
     2
 78
   300
148
0.0
149
0.0
100
AcDbLayout
  1
Layout2
 70
     1
 71
     2
 10
0.0
 20
0.0
 11
12.0
 21
9.0
 12
0.0
 22
0.0
 32
0.0
 14
0.0
 24
0.0
 34
0.0
 15
0.0
 25
0.0
 35
0.0
146
0.0
 13
0.0
 23
0.0
 33
0.0
 16
1.0
 26
0.0
 36
0.0
 17
0.0
 27
1.0
 37
0.0
 76
     0
330
74
  0
LAYOUT
  5
73
102
{ACAD_REACTORS
330
62
102
}
330
62
100
AcDbPlotSettings
  1

  2

  4

  6

 40
0.0
 41
0.0
 42
0.0
 43
0.0
 44
0.0
 45
0.0
 46
0.0
 47
0.0
 48
0.0
 49
0.0
140
0.0
141
0.0
142
1.0
143
1.0
 70
  1712
 72
     0
 73
     0
 74
     0
  7

 75
     0
147
1.0
 76
     0
 77
     2
 78
   300
148
0.0
149
0.0
100
AcDbLayout
  1
Model
 70
     1
 71
     0
 10
0.0
 20
0.0
 11
12.0
 21
9.0
 12
0.0
 22
0.0
 32
0.0
 14
0.0
 24
0.0
 34
0.0
 15
0.0
 25
0.0
 35
0.0
146
0.0
 13
0.0
 23
0.0
 33
0.0
 16
1.0
 26
0.0
 36
0.0
 17
0.0
 27
1.0
 37
0.0
 76
     0
330
70
  0
MATERIAL
  5
19
102
{ACAD_XDICTIONARY
360
1A
102
}
102
{ACAD_REACTORS
330
10
102
}
330
10
100
AcDbMaterial
  1
ByBlock
 72
     0
 43
0.0208333333333333
 43
0.0
 43
0.0
 43
0.0
 43
0.0
 43
0.0208333333333333
 43
0.0
 43
0.0
 43
0.0
 43
0.0
 43
1.0
 43
0.0
 43
0.0
 43
0.0
 43
0.0
 43
1.0
 77
     0
 47
0.0208333333333333
 47
0.0
 47
0.0
 47
0.0
 47
0.0
 47
0.0208333333333333
 47
0.0
 47
0.0
 47
0.0
 47
0.0
 47
1.0
 47
0.0
 47
0.0
 47
0.0
 47
0.0
 47
1.0
171
     0
 49
0.0208333333333333
 49
0.0
 49
0.0
 49
0.0
 49
0.0
 49
0.0208333333333333
 49
0.0
 49
0.0
 49
0.0
 49
0.0
 49
1.0
 49
0.0
 49
0.0
 49
0.0
 49
0.0
 49
1.0
175
     0
142
0.0208333333333333
142
0.0
142
0.0
142
0.0
142
0.0
142
0.0208333333333333
142
0.0
142
0.0
142
0.0
142
0.0
142
1.0
142
0.0
142
0.0
142
0.0
142
0.0
142
1.0
179
     0
144
0.0208333333333333
144
0.0
144
0.0
144
0.0
144
0.0
144
0.0208333333333333
144
0.0
144
0.0
144
0.0
144
0.0
144
1.0
144
0.0
144
0.0
144
0.0
144
0.0
144
1.0
147
0.0208333333333333
147
0.0
147
0.0
147
0.0
147
0.0
147
0.0208333333333333
147
0.0
147
0.0
147
0.0
147
0.0
147
1.0
147
0.0
147
0.0
147
0.0
147
0.0
147
1.0
  0
MATERIAL
  5
11
102
{ACAD_XDICTIONARY
360
12
102
}
102
{ACAD_REACTORS
330
10
102
}
330
10
100
AcDbMaterial
  1
ByLayer
 72
     0
 43
0.0208333333333333
 43
0.0
 43
0.0
 43
0.0
 43
0.0
 43
0.0208333333333333
 43
0.0
 43
0.0
 43
0.0
 43
0.0
 43
1.0
 43
0.0
 43
0.0
 43
0.0
 43
0.0
 43
1.0
 77
     0
 47
0.0208333333333333
 47
0.0
 47
0.0
 47
0.0
 47
0.0
 47
0.0208333333333333
 47
0.0
 47
0.0
 47
0.0
 47
0.0
 47
1.0
 47
0.0
 47
0.0
 47
0.0
 47
0.0
 47
1.0
171
     0
 49
0.0208333333333333
 49
0.0
 49
0.0
 49
0.0
 49
0.0
 49
0.0208333333333333
 49
0.0
 49
0.0
 49
0.0
 49
0.0
 49
1.0
 49
0.0
 49
0.0
 49
0.0
 49
0.0
 49
1.0
175
     0
142
0.0208333333333333
142
0.0
142
0.0
142
0.0
142
0.0
142
0.0208333333333333
142
0.0
142
0.0
142
0.0
142
0.0
142
1.0
142
0.0
142
0.0
142
0.0
142
0.0
142
1.0
179
     0
144
0.0208333333333333
144
0.0
144
0.0
144
0.0
144
0.0
144
0.0208333333333333
144
0.0
144
0.0
144
0.0
144
0.0
144
1.0
144
0.0
144
0.0
144
0.0
144
0.0
144
1.0
147
0.0208333333333333
147
0.0
147
0.0
147
0.0
147
0.0
147
0.0208333333333333
147
0.0
147
0.0
147
0.0
147
0.0
147
1.0
147
0.0
147
0.0
147
0.0
147
0.0
147
1.0
  0
MATERIAL
  5
21
102
{ACAD_XDICTIONARY
360
22
102
}
102
{ACAD_REACTORS
330
10
102
}
330
10
100
AcDbMaterial
  1
Global
 72
     0
 43
0.0208333333333333
 43
0.0
 43
0.0
 43
0.0
 43
0.0
 43
0.0208333333333333
 43
0.0
 43
0.0
 43
0.0
 43
0.0
 43
1.0
 43
0.0
 43
0.0
 43
0.0
 43
0.0
 43
1.0
 77
     0
 47
0.0208333333333333
 47
0.0
 47
0.0
 47
0.0
 47
0.0
 47
0.0208333333333333
 47
0.0
 47
0.0
 47
0.0
 47
0.0
 47
1.0
 47
0.0
 47
0.0
 47
0.0
 47
0.0
 47
1.0
171
     0
 49
0.0208333333333333
 49
0.0
 49
0.0
 49
0.0
 49
0.0
 49
0.0208333333333333
 49
0.0
 49
0.0
 49
0.0
 49
0.0
 49
1.0
 49
0.0
 49
0.0
 49
0.0
 49
0.0
 49
1.0
175
     0
142
0.0208333333333333
142
0.0
142
0.0
142
0.0
142
0.0
142
0.0208333333333333
142
0.0
142
0.0
142
0.0
142
0.0
142
1.0
142
0.0
142
0.0
142
0.0
142
0.0
142
1.0
179
     0
144
0.0208333333333333
144
0.0
144
0.0
144
0.0
144
0.0
144
0.0208333333333333
144
0.0
144
0.0
144
0.0
144
0.0
144
1.0
144
0.0
144
0.0
144
0.0
144
0.0
144
1.0
147
0.0208333333333333
147
0.0
147
0.0
147
0.0
147
0.0
147
0.0208333333333333
147
0.0
147
0.0
147
0.0
147
0.0
147
1.0
147
0.0
147
0.0
147
0.0
147
0.0
147
1.0
  0
MLEADERSTYLE
  5
67
102
{ACAD_REACTORS
330
66
102
}
330
66
100
AcDbMLeaderStyle
179
     2
170
     2
171
     1
172
     0
 90
        2
 40
0.0
 41
0.0
173
     1
 91
-1056964608
340
5B
 92
       -2
290
     1
 42
0.09
291
     1
 43
0.36
  3
Standard
 44
0.18
300

342
55
174
     1
178
     6
175
     1
176
     0
 93
-1056964608
 45
0.18
292
     0
297
     0
 46
0.18
 94
-1056964608
 47
1.0
 49
1.0
140
1.0
293
     1
141
0.0
294
     1
177
     0
142
1.0
295
     1
296
     0
143
0.125
271
     0
272
     9
273
     9
298
     1
  0
MLINESTYLE
  5
60
102
{ACAD_REACTORS
330
5F
102
}
330
5F
100
AcDbMlineStyle
  2
STANDARD
 70
     0
  3

 62
   256
 51
90.0
 52
90.0
 71
     2
 49
0.5
 62
   256
  6
BYLAYER
 49
-0.5
 62
   256
  6
BYLAYER
  0
ACDBPLACEHOLDER
  5
F
102
{ACAD_REACTORS
330
E
102
}
330
E
  0
SCALE
  5
43
102
{ACAD_REACTORS
330
42
102
}
330
42
100
AcDbScale
 70
     0
300
1:1
140
1.0
141
1.0
290
     1
  0
SCALE
  5
44
102
{ACAD_REACTORS
330
42
102
}
330
42
100
AcDbScale
 70
     0
300
1/128" = 1'-0"
140
0.0078125
141
12.0
290
     0
  0
SCALE
  5
45
102
{ACAD_REACTORS
330
42
102
}
330
42
100
AcDbScale
 70
     0
300
1/64" = 1'-0"
140
0.015625
141
12.0
290
     0
  0
SCALE
  5
46
102
{ACAD_REACTORS
330
42
102
}
330
42
100
AcDbScale
 70
     0
300
1/32" = 1'-0"
140
0.03125
141
12.0
290
     0
  0
SCALE
  5
47
102
{ACAD_REACTORS
330
42
102
}
330
42
100
AcDbScale
 70
     0
300
1/16" = 1'-0"
140
0.0625
141
12.0
290
     0
  0
SCALE
  5
48
102
{ACAD_REACTORS
330
42
102
}
330
42
100
AcDbScale
 70
     0
300
3/32" = 1'-0"
140
0.09375
141
12.0
290
     0
  0
SCALE
  5
49
102
{ACAD_REACTORS
330
42
102
}
330
42
100
AcDbScale
 70
     0
300
1/8" = 1'-0"
140
0.125
141
12.0
290
     0
  0
SCALE
  5
4A
102
{ACAD_REACTORS
330
42
102
}
330
42
100
AcDbScale
 70
     0
300
3/16" = 1'-0"
140
0.1875
141
12.0
290
     0
  0
SCALE
  5
4B
102
{ACAD_REACTORS
330
42
102
}
330
42
100
AcDbScale
 70
     0
300
1/4" = 1'-0"
140
0.25
141
12.0
290
     0
  0
SCALE
  5
4C
102
{ACAD_REACTORS
330
42
102
}
330
42
100
AcDbScale
 70
     0
300
3/8" = 1'-0"
140
0.375
141
12.0
290
     0
  0
SCALE
  5
4D
102
{ACAD_REACTORS
330
42
102
}
330
42
100
AcDbScale
 70
     0
300
1/2" = 1'-0"
140
0.5
141
12.0
290
     0
  0
SCALE
  5
4E
102
{ACAD_REACTORS
330
42
102
}
330
42
100
AcDbScale
 70
     0
300
3/4" = 1'-0"
140
0.75
141
12.0
290
     0
  0
SCALE
  5
4F
102
{ACAD_REACTORS
330
42
102
}
330
42
100
AcDbScale
 70
     0
300
1" = 1'-0"
140
1.0
141
12.0
290
     0
  0
SCALE
  5
50
102
{ACAD_REACTORS
330
42
102
}
330
42
100
AcDbScale
 70
     0
300
1-1/2" = 1'-0"
140
1.5
141
12.0
290
     0
  0
SCALE
  5
51
102
{ACAD_REACTORS
330
42
102
}
330
42
100
AcDbScale
 70
     0
300
3" = 1'-0"
140
3.0
141
12.0
290
     0
  0
SCALE
  5
52
102
{ACAD_REACTORS
330
42
102
}
330
42
100
AcDbScale
 70
     0
300
6" = 1'-0"
140
6.0
141
12.0
290
     0
  0
SCALE
  5
53
102
{ACAD_REACTORS
330
42
102
}
330
42
100
AcDbScale
 70
     0
300
1'-0" = 1'-0"
140
12.0
141
12.0
290
     0
  0
ACDBSECTIONVIEWSTYLE
  5
69
102
{ACAD_REACTORS
330
68
102
}
330
68
100
AcDbModelDocViewStyle
 70
     0
  3
Imperial24
290
     1
300
Imperial24
 90
        0
100
AcDbSectionViewStyle
 70
     0
 71
     0
 90
       78
 71
     1
340
55
 62
   256
 40
0.24
340
0
340
0
 62
   256
 40
0.24
300
I, O, Q, S, X, Z
 40
0.48
 90
        3
 40
0.18
 90
        1
 71
     2
340
5D
 90
       25
 62
   256
340
5D
 90
       50
 62
   256
 40
0.24
 40
0.0
 40
0.24
 71
     3
340
55
 62
   256
 40
0.24
 90
        1
 40
0.75
 90
        1
300
%<\AcVar ViewType \f "%tc1">% %<\AcVar ViewSectionStartId>%-%<\AcVar ViewSectionEndId>%\PSCALE %<\AcVar ViewScale \f "%sn">%
 71
     4
 62
   256
 62
   257
300
ANSI31
 40
1.0
 90
        0
290
     0
290
     0
 90
        6
 40
0.0
 40
1.570796326794896
 40
0.2617993877991494
 40
1.308996938995747
 40
-0.2617993877991494
 40
1.832595714594046
  0
TABLESTYLE
  5
65
102
{ACAD_XDICTIONARY
360
392
102
}
102
{ACAD_REACTORS
330
64
102
}
330
64
100
AcDbTableStyle
280
     0
  3
Standard
 70
     0
 71
     0
 40
0.06
 41
0.06
280
     0
281
     0
  7
Standard
140
0.18
170
     2
 62
     0
 63
     7
283
     0
 90
      512
 91
        0
  1

274
    -2
284
     1
 64
     0
275
    -2
285
     1
 65
     0
276
    -2
286
     1
 66
     0
277
    -2
287
     1
 67
     0
278
    -2
288
     1
 68
     0
279
    -2
289
     1
 69
     0
  7
Standard
140
0.25
170
     5
 62
     0
 63
     7
283
     0
 90
      512
 91
        0
  1

274
    -2
284
     1
 64
     0
275
    -2
285
     1
 65
     0
276
    -2
286
     1
 66
     0
277
    -2
287
     1
 67
     0
278
    -2
288
     1
 68
     0
279
    -2
289
     1
 69
     0
  7
Standard
140
0.18
170
     5
 62
     0
 63
     7
283
     0
 90
      512
 91
        0
  1

274
    -2
284
     1
 64
     0
275
    -2
285
     1
 65
     0
276
    -2
286
     1
 66
     0
277
    -2
287
     1
 67
     0
278
    -2
288
     1
 68
     0
279
    -2
289
     1
 69
     0
  0
VISUALSTYLE
  5
2F
102
{ACAD_REACTORS
330
29
102
}
330
29
100
AcDbVisualStyle
  2
2dWireframe
 70
     4
177
     3
291
     0
 70
    58
 90
        0
176
     1
 90
        2
176
     1
 90
        0
176
     1
 90
        0
176
     1
 40
0.6
176
     1
 40
30.0
176
     1
 62
     7
420
 16777215
176
     1
 90
        1
176
     1
 90
        4
176
     1
 62
     7
176
     1
 62
   257
176
     1
 90
        1
176
     1
 90
        1
176
     1
 40
1.0
176
     1
 90
        0
176
     1
 62
   257
176
     1
 40
1.0
176
     1
 90
        1
176
     1
 90
        6
176
     1
 90
        2
176
     1
 62
     7
176
     1
 90
        5
176
     1
 90
        0
176
     1
 90
        0
176
     1
290
     0
176
     1
 90
        1
176
     1
 40
0.0
176
     1
 90
        0
176
     1
290
     1
176
     1
290
     1
176
     1
290
     0
176
     1
290
     0
176
     1
290
     0
176
     1
290
     0
176
     1
290
     0
176
     1
290
     0
176
     1
290
     0
176
     1
 90
       50
176
     1
 40
0.0
176
     1
 40
1.0
176
     1
 90
        0
176
     1
 62
    18
420
        0
176
     1
 90
       50
176
     1
 90
        3
176
     1
 62
     5
420
      255
176
     1
290
     0
176
     1
 90
       50
176
     1
 90
       50
176
     1
 90
       50
176
     1
290
     0
176
     1
 90
       50
176
     1
 62
   256
176
     0
 40
1.0
176
     0
 90
        2
176
     1
  1
strokes_ogs.tif
176
     1
290
     0
176
     1
 40
1.0
176
     1
 40
1.0
176
     1
  0
VISUALSTYLE
  5
2E
102
{ACAD_REACTORS
330
29
102
}
330
29
100
AcDbVisualStyle
  2
Basic
 70
     7
177
     3
291
     1
 70
    58
 90
        1
176
     1
 90
        0
176
     1
 90
        1
176
     1
 90
        0
176
     1
 40
0.6
176
     1
 40
30.0
176
     1
 62
     7
420
 16777215
176
     1
 90
        0
176
     1
 90
        4
176
     1
 62
     7
176
     1
 62
   257
176
     1
 90
        1
176
     1
 90
        1
176
     1
 40
1.0
176
     1
 90
        8
176
     1
 62
     7
176
     1
 40
1.0
176
     1
 90
        1
176
     1
 90
        6
176
     1
 90
        2
176
     1
 62
     7
176
     1
 90
        5
176
     1
 90
        0
176
     1
 90
        0
176
     1
290
     0
176
     1
 90
        1
176
     1
 40
0.0
176
     1
 90
        0
176
     1
290
     0
176
     1
290
     1
176
     1
290
     1
176
     1
290
     0
176
     1
290
     0
176
     1
290
     0
176
     1
290
     0
176
     1
290
     0
176
     1
290
     0
176
     1
 90
       50
176
     1
 40
0.0
176
     1
 40
1.0
176
     1
 90
        0
176
     1
 62
    18
420
        0
176
     1
 90
       50
176
     1
 90
        3
176
     1
 62
     5
420
      255
176
     1
290
     0
176
     1
 90
       50
176
     1
 90
       50
176
     1
 90
       50
176
     1
290
     0
176
     1
 90
       50
176
     1
 62
   256
176
     0
 40
1.0
176
     0
 90
        2
176
     1
  1
strokes_ogs.tif
176
     1
290
     0
176
     1
 40
1.0
176
     1
 40
1.0
176
     1
  0
VISUALSTYLE
  5
35
102
{ACAD_REACTORS
330
29
102
}
330
29
100
AcDbVisualStyle
  2
Brighten
 70
    12
177
     3
291
     1
 70
    58
 90
        2
176
     1
 90
        2
176
     1
 90
        0
176
     1
 90
        0
176
     1
 40
0.6
176
     1
 40
30.0
176
     1
 62
     7
420
 16777215
176
     1
 90
        1
176
     1
 90
        4
176
     1
 62
     7
176
     1
 62
   257
176
     1
 90
        1
176
     1
 90
        1
176
     1
 40
1.0
176
     1
 90
        8
176
     1
 62
     7
176
     1
 40
1.0
176
     1
 90
        1
176
     1
 90
        6
176
     1
 90
        2
176
     1
 62
     7
176
     1
 90
        5
176
     1
 90
        0
176
     1
 90
        0
176
     1
290
     0
176
     1
 90
        1
176
     1
 40
50.0
176
     1
 90
        0
176
     1
290
     0
176
     1
290
     1
176
     1
290
     1
176
     1
290
     0
176
     1
290
     0
176
     1
290
     0
176
     1
290
     0
176
     1
290
     0
176
     1
290
     0
176
     1
 90
       50
176
     1
 40
0.0
176
     1
 40
1.0
176
     1
 90
        0
176
     1
 62
    18
420
        0
176
     1
 90
       50
176
     1
 90
        3
176
     1
 62
     5
420
      255
176
     1
290
     0
176
     1
 90
       50
176
     1
 90
       50
176
     1
 90
       50
176
     1
290
     0
176
     1
 90
       50
176
     1
 62
   256
176
     0
 40
1.0
176
     0
 90
        2
176
     1
  1
strokes_ogs.tif
176
     1
290
     0
176
     1
 40
1.0
176
     1
 40
1.0
176
     1
  0
VISUALSTYLE
  5
39
102
{ACAD_REACTORS
330
29
102
}
330
29
100
AcDbVisualStyle
  2
ColorChange
 70
    16
177
     3
291
     1
 70
    58
 90
        2
176
     1
 90
        2
176
     1
 90
        3
176
     1
 90
        0
176
     1
 40
0.6
176
     1
 40
30.0
176
     1
 62
     8
420
  8421504
176
     1
 90
        1
176
     1
 90
        4
176
     1
 62
     7
176
     1
 62
   257
176
     1
 90
        1
176
     1
 90
        1
176
     1
 40
1.0
176
     1
 90
        8
176
     1
 62
     8
420
  8421504
176
     1
 40
1.0
176
     1
 90
        1
176
     1
 90
        6
176
     1
 90
        2
176
     1
 62
     7
176
     1
 90
        5
176
     1
 90
        0
176
     1
 90
        0
176
     1
290
     0
176
     1
 90
        1
176
     1
 40
0.0
176
     1
 90
        0
176
     1
290
     0
176
     1
290
     1
176
     1
290
     1
176
     1
290
     0
176
     1
290
     0
176
     1
290
     0
176
     1
290
     0
176
     1
290
     0
176
     1
290
     0
176
     1
 90
       50
176
     1
 40
0.0
176
     1
 40
1.0
176
     1
 90
        0
176
     1
 62
    18
420
        0
176
     1
 90
       50
176
     1
 90
        3
176
     1
 62
     5
420
      255
176
     1
290
     0
176
     1
 90
       50
176
     1
 90
       50
176
     1
 90
       50
176
     1
290
     0
176
     1
 90
       50
176
     1
 62
   256
176
     0
 40
1.0
176
     0
 90
        2
176
     1
  1
strokes_ogs.tif
176
     1
290
     0
176
     1
 40
1.0
176
     1
 40
1.0
176
     1
  0
VISUALSTYLE
  5
32
102
{ACAD_REACTORS
330
29
102
}
330
29
100
AcDbVisualStyle
  2
Conceptual
 70
     9
177
     3
291
     0
 70
    58
 90
        3
176
     1
 90
        2
176
     1
 90
        0
176
     1
 90
        0
176
     1
 40
0.6
176
     1
 40
30.0
176
     1
 62
     7
420
 16777215
176
     1
 90
        2
176
     1
 90
        2
176
     1
 62
     7
176
     1
 62
   257
176
     1
 90
        1
176
     1
 90
        1
176
     1
 40
179.0
176
     1
 90
        8
176
     1
 62
     7
176
     1
 40
1.0
176
     1
 90
        1
176
     1
 90
        6
176
     1
 90
        2
176
     1
 62
     7
176
     1
 90
        3
176
     1
 90
        0
176
     1
 90
        0
176
     1
290
     0
176
     1
 90
        1
176
     1
 40
0.0
176
     1
 90
        0
176
     1
290
     0
176
     1
290
     1
176
     1
290
     1
176
     1
290
     0
176
     1
290
     0
176
     1
290
     0
176
     1
290
     0
176
     1
290
     0
176
     1
290
     0
176
     1
 90
       50
176
     1
 40
0.0
176
     1
 40
1.0
176
     1
 90
        0
176
     1
 62
    18
420
        0
176
     1
 90
       50
176
     1
 90
        3
176
     1
 62
     5
420
      255
176
     1
290
     0
176
     1
 90
       50
176
     1
 90
       50
176
     1
 90
       50
176
     1
290
     0
176
     1
 90
       50
176
     1
 62
   256
176
     0
 40
1.0
176
     0
 90
        2
176
     1
  1
strokes_ogs.tif
176
     1
290
     0
176
     1
 40
1.0
176
     1
 40
1.0
176
     1
  0
VISUALSTYLE
  5
34
102
{ACAD_REACTORS
330
29
102
}
330
29
100
AcDbVisualStyle
  2
Dim
 70
    11
177
     3
291
     1
 70
    58
 90
        2
176
     1
 90
        2
176
     1
 90
        0
176
     1
 90
        0
176
     1
 40
0.6
176
     1
 40
30.0
176
     1
 62
     7
420
 16777215
176
     1
 90
        1
176
     1
 90
        4
176
     1
 62
     7
176
     1
 62
   257
176
     1
 90
        1
176
     1
 90
        1
176
     1
 40
1.0
176
     1
 90
        8
176
     1
 62
     7
176
     1
 40
1.0
176
     1
 90
        1
176
     1
 90
        6
176
     1
 90
        2
176
     1
 62
     7
176
     1
 90
        5
176
     1
 90
        0
176
     1
 90
        0
176
     1
290
     0
176
     1
 90
        1
176
     1
 40
-50.0
176
     1
 90
        0
176
     1
290
     0
176
     1
290
     1
176
     1
290
     1
176
     1
290
     0
176
     1
290
     0
176
     1
290
     0
176
     1
290
     0
176
     1
290
     0
176
     1
290
     0
176
     1
 90
       50
176
     1
 40
0.0
176
     1
 40
1.0
176
     1
 90
        0
176
     1
 62
    18
420
        0
176
     1
 90
       50
176
     1
 90
        3
176
     1
 62
     5
420
      255
176
     1
290
     0
176
     1
 90
       50
176
     1
 90
       50
176
     1
 90
       50
176
     1
290
     0
176
     1
 90
       50
176
     1
 62
   256
176
     0
 40
1.0
176
     0
 90
        2
176
     1
  1
strokes_ogs.tif
176
     1
290
     0
176
     1
 40
1.0
176
     1
 40
1.0
176
     1
  0
VISUALSTYLE
  5
41
102
{ACAD_REACTORS
330
29
102
}
330
29
100
AcDbVisualStyle
  2
EdgeColorOff
 70
    22
177
     3
291
     1
 70
    58
 90
        2
176
     0
 90
        2
176
     0
 90
        0
176
     0
 90
        0
176
     0
 40
0.6
176
     0
 40
30.0
176
     0
 62
     7
420
 16777215
176
     0
 90
        1
176
     0
 90
        4
176
     0
 62
     7
176
     0
 62
   257
176
     0
 90
        1
176
     0
 90
        1
176
     0
 40
1.0
176
     0
 90
        8
176
     2
 62
     7
176
     0
 40
1.0
176
     0
 90
        1
176
     0
 90
        6
176
     0
 90
        2
176
     0
 62
     7
176
     0
 90
        5
176
     0
 90
        0
176
     0
 90
        0
176
     0
290
     0
176
     0
 90
        1
176
     0
 40
0.0
176
     0
 90
        0
176
     0
290
     0
176
     0
290
     1
176
     0
290
     1
176
     0
290
     0
176
     0
290
     0
176
     0
290
     0
176
     0
290
     0
176
     0
290
     0
176
     0
290
     0
176
     0
 90
       50
176
     0
 40
0.0
176
     0
 40
1.0
176
     0
 90
        0
176
     0
 62
    18
420
        0
176
     0
 90
       50
176
     0
 90
        3
176
     0
 62
     5
420
      255
176
     0
290
     0
176
     0
 90
       50
176
     0
 90
       50
176
     0
 90
       50
176
     0
290
     0
176
     0
 90
       50
176
     0
 62
   256
176
     0
 40
1.0
176
     0
 90
        2
176
     0
  1
strokes_ogs.tif
176
     0
290
     0
176
     0
 40
1.0
176
     0
 40
1.0
176
     0
  0
VISUALSTYLE
  5
38
102
{ACAD_REACTORS
330
29
102
}
330
29
100
AcDbVisualStyle
  2
Facepattern
 70
    15
177
     3
291
     1
 70
    58
 90
        2
176
     1
 90
        2
176
     1
 90
        0
176
     1
 90
        0
176
     1
 40
0.6
176
     1
 40
30.0
176
     1
 62
     7
420
 16777215
176
     1
 90
        1
176
     1
 90
        4
176
     1
 62
     7
176
     1
 62
   257
176
     1
 90
        1
176
     1
 90
        1
176
     1
 40
1.0
176
     1
 90
        8
176
     1
 62
     7
176
     1
 40
1.0
176
     1
 90
        1
176
     1
 90
        6
176
     1
 90
        2
176
     1
 62
     7
176
     1
 90
        5
176
     1
 90
        0
176
     1
 90
        0
176
     1
290
     0
176
     1
 90
        1
176
     1
 40
0.0
176
     1
 90
        0
176
     1
290
     0
176
     1
290
     1
176
     1
290
     1
176
     1
290
     0
176
     1
290
     0
176
     1
290
     0
176
     1
290
     0
176
     1
290
     0
176
     1
290
     0
176
     1
 90
       50
176
     1
 40
0.0
176
     1
 40
1.0
176
     1
 90
        0
176
     1
 62
    18
420
        0
176
     1
 90
       50
176
     1
 90
        3
176
     1
 62
     5
420
      255
176
     1
290
     0
176
     1
 90
       50
176
     1
 90
       50
176
     1
 90
       50
176
     1
290
     0
176
     1
 90
       50
176
     1
 62
   256
176
     0
 40
1.0
176
     0
 90
        2
176
     1
  1
strokes_ogs.tif
176
     1
290
     0
176
     1
 40
1.0
176
     1
 40
1.0
176
     1
  0
VISUALSTYLE
  5
2A
102
{ACAD_REACTORS
330
29
102
}
330
29
100
AcDbVisualStyle
  2
Flat
 70
     0
177
     3
291
     1
 70
    58
 90
        2
176
     1
 90
        1
176
     1
 90
        1
176
     1
 90
        2
176
     1
 40
0.6
176
     1
 40
30.0
176
     1
 62
     7
420
 16777215
176
     1
 90
        0
176
     1
 90
        0
176
     1
 62
     7
176
     1
 62
   257
176
     1
 90
        1
176
     1
 90
        1
176
     1
 40
1.0
176
     1
 90
        8
176
     1
 62
     7
176
     1
 40
1.0
176
     1
 90
        1
176
     1
 90
        6
176
     1
 90
        2
176
     1
 62
     7
176
     1
 90
        5
176
     1
 90
        0
176
     1
 90
        0
176
     1
290
     0
176
     1
 90
       13
176
     1
 40
0.0
176
     1
 90
        0
176
     1
290
     0
176
     1
290
     1
176
     1
290
     1
176
     1
290
     0
176
     1
290
     0
176
     1
290
     0
176
     1
290
     0
176
     1
290
     0
176
     1
290
     0
176
     1
 90
       50
176
     1
 40
0.0
176
     1
 40
1.0
176
     1
 90
        0
176
     1
 62
    18
420
        0
176
     1
 90
       50
176
     1
 90
        3
176
     1
 62
     5
420
      255
176
     1
290
     0
176
     1
 90
       50
176
     1
 90
       50
176
     1
 90
       50
176
     1
290
     0
176
     1
 90
       50
176
     1
 62
   256
176
     0
 40
1.0
176
     0
 90
        2
176
     1
  1
strokes_ogs.tif
176
     1
290
     0
176
     1
 40
1.0
176
     1
 40
1.0
176
     1
  0
VISUALSTYLE
  5
2B
102
{ACAD_REACTORS
330
29
102
}
330
29
100
AcDbVisualStyle
  2
FlatWithEdges
 70
     1
177
     3
291
     1
 70
    58
 90
        2
176
     1
 90
        1
176
     1
 90
        1
176
     1
 90
        2
176
     1
 40
0.6
176
     1
 40
30.0
176
     1
 62
     7
420
 16777215
176
     1
 90
        1
176
     1
 90
        0
176
     1
 62
     7
176
     1
 62
   257
176
     1
 90
        1
176
     1
 90
        1
176
     1
 40
1.0
176
     1
 90
        0
176
     1
 62
   257
176
     1
 40
1.0
176
     1
 90
        1
176
     1
 90
        6
176
     1
 90
        2
176
     1
 62
     7
176
     1
 90
        5
176
     1
 90
        0
176
     1
 90
        0
176
     1
290
     0
176
     1
 90
       13
176
     1
 40
0.0
176
     1
 90
        0
176
     1
290
     0
176
     1
290
     1
176
     1
290
     1
176
     1
290
     0
176
     1
290
     0
176
     1
290
     0
176
     1
290
     0
176
     1
290
     0
176
     1
290
     0
176
     1
 90
       50
176
     1
 40
0.0
176
     1
 40
1.0
176
     1
 90
        0
176
     1
 62
    18
420
        0
176
     1
 90
       50
176
     1
 90
        3
176
     1
 62
     5
420
      255
176
     1
290
     0
176
     1
 90
       50
176
     1
 90
       50
176
     1
 90
       50
176
     1
290
     0
176
     1
 90
       50
176
     1
 62
   256
176
     0
 40
1.0
176
     0
 90
        2
176
     1
  1
strokes_ogs.tif
176
     1
290
     0
176
     1
 40
1.0
176
     1
 40
1.0
176
     1
  0
VISUALSTYLE
  5
2C
102
{ACAD_REACTORS
330
29
102
}
330
29
100
AcDbVisualStyle
  2
Gouraud
 70
     2
177
     3
291
     1
 70
    58
 90
        2
176
     1
 90
        2
176
     1
 90
        1
176
     1
 90
        2
176
     1
 40
0.6
176
     1
 40
30.0
176
     1
 62
     7
420
 16777215
176
     1
 90
        0
176
     1
 90
        0
176
     1
 62
     7
176
     1
 62
   257
176
     1
 90
        1
176
     1
 90
        1
176
     1
 40
1.0
176
     1
 90
        0
176
     1
 62
     7
176
     1
 40
1.0
176
     1
 90
        1
176
     1
 90
        6
176
     1
 90
        2
176
     1
 62
     7
176
     1
 90
        5
176
     1
 90
        0
176
     1
 90
        0
176
     1
290
     0
176
     1
 90
       13
176
     1
 40
0.0
176
     1
 90
        0
176
     1
290
     0
176
     1
290
     1
176
     1
290
     1
176
     1
290
     0
176
     1
290
     0
176
     1
290
     0
176
     1
290
     0
176
     1
290
     0
176
     1
290
     0
176
     1
 90
       50
176
     1
 40
0.0
176
     1
 40
1.0
176
     1
 90
        0
176
     1
 62
    18
420
        0
176
     1
 90
       50
176
     1
 90
        3
176
     1
 62
     5
420
      255
176
     1
290
     0
176
     1
 90
       50
176
     1
 90
       50
176
     1
 90
       50
176
     1
290
     0
176
     1
 90
       50
176
     1
 62
   256
176
     0
 40
1.0
176
     0
 90
        2
176
     1
  1
strokes_ogs.tif
176
     1
290
     0
176
     1
 40
1.0
176
     1
 40
1.0
176
     1
  0
VISUALSTYLE
  5
2D
102
{ACAD_REACTORS
330
29
102
}
330
29
100
AcDbVisualStyle
  2
GouraudWithEdges
 70
     3
177
     3
291
     1
 70
    58
 90
        2
176
     1
 90
        2
176
     1
 90
        1
176
     1
 90
        2
176
     1
 40
0.6
176
     1
 40
30.0
176
     1
 62
     7
420
 16777215
176
     1
 90
        1
176
     1
 90
        0
176
     1
 62
     7
176
     1
 62
   257
176
     1
 90
        1
176
     1
 90
        1
176
     1
 40
1.0
176
     1
 90
        0
176
     1
 62
   257
176
     1
 40
1.0
176
     1
 90
        1
176
     1
 90
        6
176
     1
 90
        2
176
     1
 62
     7
176
     1
 90
        5
176
     1
 90
        0
176
     1
 90
        0
176
     1
290
     0
176
     1
 90
       13
176
     1
 40
0.0
176
     1
 90
        0
176
     1
290
     0
176
     1
290
     1
176
     1
290
     1
176
     1
290
     0
176
     1
290
     0
176
     1
290
     0
176
     1
290
     0
176
     1
290
     0
176
     1
290
     0
176
     1
 90
       50
176
     1
 40
0.0
176
     1
 40
1.0
176
     1
 90
        0
176
     1
 62
    18
420
        0
176
     1
 90
       50
176
     1
 90
        3
176
     1
 62
     5
420
      255
176
     1
290
     0
176
     1
 90
       50
176
     1
 90
       50
176
     1
 90
       50
176
     1
290
     0
176
     1
 90
       50
176
     1
 62
   256
176
     0
 40
1.0
176
     0
 90
        2
176
     1
  1
strokes_ogs.tif
176
     1
290
     0
176
     1
 40
1.0
176
     1
 40
1.0
176
     1
  0
VISUALSTYLE
  5
31
102
{ACAD_REACTORS
330
29
102
}
330
29
100
AcDbVisualStyle
  2
Hidden
 70
     6
177
     3
291
     0
 70
    58
 90
        1
176
     1
 90
        2
176
     1
 90
        2
176
     1
 90
        0
176
     1
 40
0.6
176
     1
 40
30.0
176
     1
 62
     7
420
 16777215
176
     1
 90
        2
176
     1
 90
        2
176
     1
 62
     7
176
     1
 62
   257
176
     1
 90
        2
176
     1
 90
        1
176
     1
 40
40.0
176
     1
 90
        0
176
     1
 62
   257
176
     1
 40
1.0
176
     1
 90
        1
176
     1
 90
        6
176
     1
 90
        2
176
     1
 62
     7
176
     1
 90
        3
176
     1
 90
        0
176
     1
 90
        0
176
     1
290
     0
176
     1
 90
        1
176
     1
 40
0.0
176
     1
 90
        0
176
     1
290
     0
176
     1
290
     1
176
     1
290
     1
176
     1
290
     0
176
     1
290
     0
176
     1
290
     0
176
     1
290
     0
176
     1
290
     0
176
     1
290
     0
176
     1
 90
       50
176
     1
 40
0.0
176
     1
 40
1.0
176
     1
 90
        0
176
     1
 62
    18
420
        0
176
     1
 90
       50
176
     1
 90
        3
176
     1
 62
     5
420
      255
176
     1
290
     0
176
     1
 90
       50
176
     1
 90
       50
176
     1
 90
       50
176
     1
290
     0
176
     1
 90
       50
176
     1
 62
   256
176
     0
 40
1.0
176
     0
 90
        2
176
     1
  1
strokes_ogs.tif
176
     1
290
     0
176
     1
 40
1.0
176
     1
 40
1.0
176
     1
  0
VISUALSTYLE
  5
3F
102
{ACAD_REACTORS
330
29
102
}
330
29
100
AcDbVisualStyle
  2
JitterOff
 70
    20
177
     3
291
     1
 70
    58
 90
        2
176
     0
 90
        2
176
     0
 90
        0
176
     0
 90
        0
176
     0
 40
0.6
176
     0
 40
30.0
176
     0
 62
     7
420
 16777215
176
     0
 90
        1
176
     0
 90
        4
176
     0
 62
     7
176
     0
 62
   257
176
     0
 90
        1
176
     0
 90
        1
176
     0
 40
1.0
176
     0
 90
       10
176
     2
 62
     7
176
     0
 40
1.0
176
     0
 90
        1
176
     0
 90
        6
176
     0
 90
        2
176
     0
 62
     7
176
     0
 90
        5
176
     0
 90
        0
176
     0
 90
        0
176
     0
290
     0
176
     0
 90
        1
176
     0
 40
0.0
176
     0
 90
        0
176
     0
290
     0
176
     0
290
     1
176
     0
290
     1
176
     0
290
     0
176
     0
290
     0
176
     0
290
     0
176
     0
290
     0
176
     0
290
     0
176
     0
290
     0
176
     0
 90
       50
176
     0
 40
0.0
176
     0
 40
1.0
176
     0
 90
        0
176
     0
 62
    18
420
        0
176
     0
 90
       50
176
     0
 90
        3
176
     0
 62
     5
420
      255
176
     0
290
     0
176
     0
 90
       50
176
     0
 90
       50
176
     0
 90
       50
176
     0
290
     0
176
     0
 90
       50
176
     0
 62
   256
176
     0
 40
1.0
176
     0
 90
        2
176
     0
  1
strokes_ogs.tif
176
     0
290
     0
176
     0
 40
1.0
176
     0
 40
1.0
176
     0
  0
VISUALSTYLE
  5
37
102
{ACAD_REACTORS
330
29
102
}
330
29
100
AcDbVisualStyle
  2
Linepattern
 70
    14
177
     3
291
     1
 70
    58
 90
        2
176
     1
 90
        2
176
     1
 90
        0
176
     1
 90
        0
176
     1
 40
0.6
176
     1
 40
30.0
176
     1
 62
     7
420
 16777215
176
     1
 90
        1
176
     1
 90
        4
176
     1
 62
     7
176
     1
 62
   257
176
     1
 90
        7
176
     1
 90
        7
176
     1
 40
1.0
176
     1
 90
        8
176
     1
 62
     7
176
     1
 40
1.0
176
     1
 90
        1
176
     1
 90
        6
176
     1
 90
        2
176
     1
 62
     7
176
     1
 90
        5
176
     1
 90
        0
176
     1
 90
        0
176
     1
290
     0
176
     1
 90
        1
176
     1
 40
0.0
176
     1
 90
        0
176
     1
290
     0
176
     1
290
     1
176
     1
290
     1
176
     1
290
     0
176
     1
290
     0
176
     1
290
     0
176
     1
290
     0
176
     1
290
     0
176
     1
290
     0
176
     1
 90
       50
176
     1
 40
0.0
176
     1
 40
1.0
176
     1
 90
        0
176
     1
 62
    18
420
        0
176
     1
 90
       50
176
     1
 90
        3
176
     1
 62
     5
420
      255
176
     1
290
     0
176
     1
 90
       50
176
     1
 90
       50
176
     1
 90
       50
176
     1
290
     0
176
     1
 90
       50
176
     1
 62
   256
176
     0
 40
1.0
176
     0
 90
        2
176
     1
  1
strokes_ogs.tif
176
     1
290
     0
176
     1
 40
1.0
176
     1
 40
1.0
176
     1
  0
VISUALSTYLE
  5
40
102
{ACAD_REACTORS
330
29
102
}
330
29
100
AcDbVisualStyle
  2
OverhangOff
 70
    21
177
     3
291
     1
 70
    58
 90
        2
176
     0
 90
        2
176
     0
 90
        0
176
     0
 90
        0
176
     0
 40
0.6
176
     0
 40
30.0
176
     0
 62
     7
420
 16777215
176
     0
 90
        1
176
     0
 90
        4
176
     0
 62
     7
176
     0
 62
   257
176
     0
 90
        1
176
     0
 90
        1
176
     0
 40
1.0
176
     0
 90
        9
176
     2
 62
     7
176
     0
 40
1.0
176
     0
 90
        1
176
     0
 90
        6
176
     0
 90
        2
176
     0
 62
     7
176
     0
 90
        5
176
     0
 90
        0
176
     0
 90
        0
176
     0
290
     0
176
     0
 90
        1
176
     0
 40
0.0
176
     0
 90
        0
176
     0
290
     0
176
     0
290
     1
176
     0
290
     1
176
     0
290
     0
176
     0
290
     0
176
     0
290
     0
176
     0
290
     0
176
     0
290
     0
176
     0
290
     0
176
     0
 90
       50
176
     0
 40
0.0
176
     0
 40
1.0
176
     0
 90
        0
176
     0
 62
    18
420
        0
176
     0
 90
       50
176
     0
 90
        3
176
     0
 62
     5
420
      255
176
     0
290
     0
176
     0
 90
       50
176
     0
 90
       50
176
     0
 90
       50
176
     0
290
     0
176
     0
 90
       50
176
     0
 62
   256
176
     0
 40
1.0
176
     0
 90
        2
176
     0
  1
strokes_ogs.tif
176
     0
290
     0
176
     0
 40
1.0
176
     0
 40
1.0
176
     0
  0
VISUALSTYLE
  5
33
102
{ACAD_REACTORS
330
29
102
}
330
29
100
AcDbVisualStyle
  2
Realistic
 70
     8
177
     3
291
     0
 70
    58
 90
        2
176
     1
 90
        3
176
     1
 90
        0
176
     1
 90
        2
176
     1
 40
0.6
176
     1
 40
30.0
176
     1
 62
     7
420
 16777215
176
     1
 90
        0
176
     1
 90
        0
176
     1
 62
     7
176
     1
 62
   257
176
     1
 90
        1
176
     1
 90
        1
176
     1
 40
1.0
176
     1
 90
        8
176
     1
 62
   257
176
     1
 40
1.0
176
     1
 90
        1
176
     1
 90
        6
176
     1
 90
        2
176
     1
 62
     7
176
     1
 90
        3
176
     1
 90
        0
176
     1
 90
        0
176
     1
290
     0
176
     1
 90
       13
176
     1
 40
0.0
176
     1
 90
        0
176
     1
290
     0
176
     1
290
     1
176
     1
290
     1
176
     1
290
     0
176
     1
290
     0
176
     1
290
     0
176
     1
290
     0
176
     1
290
     0
176
     1
290
     0
176
     1
 90
       50
176
     1
 40
0.0
176
     1
 40
1.0
176
     1
 90
        0
176
     1
 62
    18
420
        0
176
     1
 90
       50
176
     1
 90
        3
176
     1
 62
     5
420
      255
176
     1
290
     0
176
     1
 90
       50
176
     1
 90
       50
176
     1
 90
       50
176
     1
290
     0
176
     1
 90
       50
176
     1
 62
   256
176
     0
 40
1.0
176
     0
 90
        2
176
     1
  1
strokes_ogs.tif
176
     1
290
     0
176
     1
 40
1.0
176
     1
 40
1.0
176
     1
  0
VISUALSTYLE
  5
3E
102
{ACAD_REACTORS
330
29
102
}
330
29
100
AcDbVisualStyle
  2
Shaded
 70
    27
177
     3
291
     0
 70
    58
 90
        2
176
     1
 90
        2
176
     1
 90
        1
176
     1
 90
        2
176
     1
 40
0.6
176
     1
 40
30.0
176
     1
 62
     7
420
 16777215
176
     1
 90
        0
176
     1
 90
        4
176
     1
 62
     7
176
     1
 62
   257
176
     1
 90
        1
176
     1
 90
        1
176
     1
 40
1.0
176
     1
 90
        8
176
     1
 62
   257
176
     1
 40
1.0
176
     1
 90
        1
176
     1
 90
        6
176
     1
 90
        2
176
     1
 62
     8
420
  7895160
176
     1
 90
        3
176
     1
 90
        0
176
     1
 90
        0
176
     1
290
     0
176
     1
 90
        5
176
     1
 40
0.0
176
     1
 90
        0
176
     1
290
     0
176
     1
290
     1
176
     1
290
     1
176
     1
290
     0
176
     1
290
     0
176
     1
290
     0
176
     1
290
     0
176
     1
290
     0
176
     1
290
     0
176
     1
 90
       50
176
     1
 40
0.0
176
     1
 40
1.0
176
     1
 90
        0
176
     1
 62
    18
420
        0
176
     1
 90
       50
176
     1
 90
        3
176
     1
 62
     5
420
      255
176
     1
290
     0
176
     1
 90
       50
176
     1
 90
       50
176
     1
 90
       50
176
     1
290
     0
176
     1
 90
       50
176
     1
 62
   256
176
     0
 40
1.0
176
     0
 90
        2
176
     1
  1
strokes_ogs.tif
176
     1
290
     0
176
     1
 40
1.0
176
     1
 40
1.0
176
     1
  0
VISUALSTYLE
  5
3D
102
{ACAD_REACTORS
330
29
102
}
330
29
100
AcDbVisualStyle
  2
Shaded with edges
 70
    26
177
     3
291
     0
 70
    58
 90
        2
176
     1
 90
        2
176
     1
 90
        1
176
     1
 90
        2
176
     1
 40
0.6
176
     1
 40
30.0
176
     1
 62
     7
420
 16777215
176
     1
 90
        1
176
     1
 90
        2
176
     1
 62
     7
176
     1
 62
   257
176
     1
 90
        2
176
     1
 90
        1
176
     1
 40
1.0
176
     1
 90
        8
176
     1
 62
   257
176
     1
 40
1.0
176
     1
 90
        1
176
     1
 90
        6
176
     1
 90
        2
176
     1
 62
     7
176
     1
 90
        3
176
     1
 90
        0
176
     1
 90
        0
176
     1
290
     0
176
     1
 90
        5
176
     1
 40
0.0
176
     1
 90
        0
176
     1
290
     0
176
     1
290
     1
176
     1
290
     1
176
     1
290
     0
176
     1
290
     0
176
     1
290
     0
176
     1
290
     0
176
     1
290
     0
176
     1
290
     0
176
     1
 90
       50
176
     1
 40
0.0
176
     1
 40
1.0
176
     1
 90
        0
176
     1
 62
    18
420
        0
176
     1
 90
       50
176
     1
 90
        3
176
     1
 62
     5
420
      255
176
     1
290
     0
176
     1
 90
       50
176
     1
 90
       50
176
     1
 90
       50
176
     1
290
     0
176
     1
 90
       50
176
     1
 62
   256
176
     0
 40
1.0
176
     0
 90
        2
176
     1
  1
strokes_ogs.tif
176
     1
290
     0
176
     1
 40
1.0
176
     1
 40
1.0
176
     1
  0
VISUALSTYLE
  5
3A
102
{ACAD_REACTORS
330
29
102
}
330
29
100
AcDbVisualStyle
  2
Shades of Gray
 70
    23
177
     3
291
     0
 70
    58
 90
        2
176
     1
 90
        2
176
     1
 90
        3
176
     1
 90
        0
176
     1
 40
0.6
176
     1
 40
30.0
176
     1
 62
     7
420
 16777215
176
     1
 90
        2
176
     1
 90
        2
176
     1
 62
     7
176
     1
 62
     7
176
     1
 90
        1
176
     1
 90
        1
176
     1
 40
40.0
176
     1
 90
        8
176
     1
 62
     7
176
     1
 40
1.0
176
     1
 90
        1
176
     1
 90
        6
176
     1
 90
        2
176
     1
 62
     7
176
     1
 90
        3
176
     1
 90
        0
176
     1
 90
        0
176
     1
290
     0
176
     1
 90
        1
176
     1
 40
0.0
176
     1
 90
        0
176
     1
290
     0
176
     1
290
     1
176
     1
290
     1
176
     1
290
     0
176
     1
290
     0
176
     1
290
     0
176
     1
290
     0
176
     1
290
     0
176
     1
290
     0
176
     1
 90
       50
176
     1
 40
0.0
176
     1
 40
1.0
176
     1
 90
        0
176
     1
 62
    18
420
        0
176
     1
 90
       50
176
     1
 90
        3
176
     1
 62
     5
420
      255
176
     1
290
     0
176
     1
 90
       50
176
     1
 90
       50
176
     1
 90
       50
176
     1
290
     0
176
     1
 90
       50
176
     1
 62
   256
176
     0
 40
1.0
176
     0
 90
        2
176
     1
  1
strokes_ogs.tif
176
     1
290
     0
176
     1
 40
1.0
176
     1
 40
1.0
176
     1
  0
VISUALSTYLE
  5
3B
102
{ACAD_REACTORS
330
29
102
}
330
29
100
AcDbVisualStyle
  2
Sketchy
 70
    24
177
     3
291
     0
 70
    58
 90
        1
176
     1
 90
        2
176
     1
 90
        2
176
     1
 90
        0
176
     1
 40
0.6
176
     1
 40
30.0
176
     1
 62
     7
420
 16777215
176
     1
 90
        2
176
     1
 90
        2
176
     1
 62
     7
176
     1
 62
     7
176
     1
 90
        1
176
     1
 90
        1
176
     1
 40
40.0
176
     1
 90
       11
176
     1
 62
     7
176
     1
 40
1.0
176
     1
 90
        1
176
     1
 90
        6
176
     1
 90
        2
176
     1
 62
     7
176
     1
 90
        6
176
     1
 90
        0
176
     1
 90
        0
176
     1
290
     0
176
     1
 90
        1
176
     1
 40
0.0
176
     1
 90
        0
176
     1
290
     0
176
     1
290
     1
176
     1
290
     1
176
     1
290
     0
176
     1
290
     0
176
     1
290
     0
176
     1
290
     0
176
     1
290
     0
176
     1
290
     0
176
     1
 90
       50
176
     1
 40
0.0
176
     1
 40
1.0
176
     1
 90
        0
176
     1
 62
    18
420
        0
176
     1
 90
       50
176
     1
 90
        3
176
     1
 62
     5
420
      255
176
     1
290
     0
176
     1
 90
       50
176
     1
 90
       50
176
     1
 90
       50
176
     1
290
     0
176
     1
 90
       50
176
     1
 62
   256
176
     0
 40
1.0
176
     0
 90
        2
176
     1
  1
strokes_ogs.tif
176
     1
290
     0
176
     1
 40
1.0
176
     1
 40
1.0
176
     1
  0
VISUALSTYLE
  5
36
102
{ACAD_REACTORS
330
29
102
}
330
29
100
AcDbVisualStyle
  2
Thicken
 70
    13
177
     3
291
     1
 70
    58
 90
        2
176
     1
 90
        2
176
     1
 90
        0
176
     1
 90
        0
176
     1
 40
0.6
176
     1
 40
30.0
176
     1
 62
     7
420
 16777215
176
     1
 90
        1
176
     1
 90
        4
176
     1
 62
     7
176
     1
 62
   257
176
     1
 90
        1
176
     1
 90
        1
176
     1
 40
1.0
176
     1
 90
       12
176
     1
 62
     7
176
     1
 40
1.0
176
     1
 90
        1
176
     1
 90
        6
176
     1
 90
        2
176
     1
 62
     7
176
     1
 90
        5
176
     1
 90
        0
176
     1
 90
        0
176
     1
290
     0
176
     1
 90
        1
176
     1
 40
0.0
176
     1
 90
        0
176
     1
290
     0
176
     1
290
     1
176
     1
290
     1
176
     1
290
     0
176
     1
290
     0
176
     1
290
     0
176
     1
290
     0
176
     1
290
     0
176
     1
290
     0
176
     1
 90
       50
176
     1
 40
0.0
176
     1
 40
1.0
176
     1
 90
        0
176
     1
 62
    18
420
        0
176
     1
 90
       50
176
     1
 90
        3
176
     1
 62
     5
420
      255
176
     1
290
     0
176
     1
 90
       50
176
     1
 90
       50
176
     1
 90
       50
176
     1
290
     0
176
     1
 90
       50
176
     1
 62
   256
176
     0
 40
1.0
176
     0
 90
        2
176
     1
  1
strokes_ogs.tif
176
     1
290
     0
176
     1
 40
1.0
176
     1
 40
1.0
176
     1
  0
VISUALSTYLE
  5
30
102
{ACAD_REACTORS
330
29
102
}
330
29
100
AcDbVisualStyle
  2
Wireframe
 70
     5
177
     3
291
     0
 70
    58
 90
        0
176
     1
 90
        2
176
     1
 90
        0
176
     1
 90
        0
176
     1
 40
0.6
176
     1
 40
30.0
176
     1
 62
     7
420
 16777215
176
     1
 90
        1
176
     1
 90
        4
176
     1
 62
     7
176
     1
 62
   257
176
     1
 90
        1
176
     1
 90
        1
176
     1
 40
1.0
176
     1
 90
        0
176
     1
 62
   257
176
     1
 40
1.0
176
     1
 90
        1
176
     1
 90
        6
176
     1
 90
        2
176
     1
 62
     7
176
     1
 90
        3
176
     1
 90
        0
176
     1
 90
        0
176
     1
290
     0
176
     1
 90
        1
176
     1
 40
0.0
176
     1
 90
        0
176
     1
290
     0
176
     1
290
     1
176
     1
290
     1
176
     1
290
     0
176
     1
290
     0
176
     1
290
     0
176
     1
290
     0
176
     1
290
     0
176
     1
290
     0
176
     1
 90
       50
176
     1
 40
0.0
176
     1
 40
1.0
176
     1
 90
        0
176
     1
 62
    18
420
        0
176
     1
 90
       50
176
     1
 90
        3
176
     1
 62
     5
420
      255
176
     1
290
     0
176
     1
 90
       50
176
     1
 90
       50
176
     1
 90
       50
176
     1
290
     0
176
     1
 90
       50
176
     1
 62
   256
176
     0
 40
1.0
176
     0
 90
        2
176
     1
  1
strokes_ogs.tif
176
     1
290
     0
176
     1
 40
1.0
176
     1
 40
1.0
176
     1
  0
VISUALSTYLE
  5
3C
102
{ACAD_REACTORS
330
29
102
}
330
29
100
AcDbVisualStyle
  2
X-Ray
 70
    25
177
     3
291
     0
 70
    58
 90
        2
176
     1
 90
        2
176
     1
 90
        1
176
     1
 90
        1
176
     1
 40
0.5
176
     1
 40
30.0
176
     1
 62
     7
420
 16777215
176
     1
 90
        1
176
     1
 90
        0
176
     1
 62
     7
176
     1
 62
   257
176
     1
 90
        1
176
     1
 90
        1
176
     1
 40
1.0
176
     1
 90
        8
176
     1
 62
     7
176
     1
 40
1.0
176
     1
 90
        1
176
     1
 90
        6
176
     1
 90
        2
176
     1
 62
     7
176
     1
 90
        3
176
     1
 90
        0
176
     1
 90
        0
176
     1
290
     0
176
     1
 90
       13
176
     1
 40
0.0
176
     1
 90
        0
176
     1
290
     0
176
     1
290
     1
176
     1
290
     1
176
     1
290
     0
176
     1
290
     0
176
     1
290
     0
176
     1
290
     0
176
     1
290
     0
176
     1
290
     0
176
     1
 90
       50
176
     1
 40
0.0
176
     1
 40
1.0
176
     1
 90
        0
176
     1
 62
    18
420
        0
176
     1
 90
       50
176
     1
 90
        3
176
     1
 62
     5
420
      255
176
     1
290
     0
176
     1
 90
       50
176
     1
 90
       50
176
     1
 90
       50
176
     1
290
     0
176
     1
 90
       50
176
     1
 62
   256
176
     0
 40
1.0
176
     0
 90
        2
176
     1
  1
strokes_ogs.tif
176
     1
290
     0
176
     1
 40
1.0
176
     1
 40
1.0
176
     1
  0
DICTIONARYVAR
  5
391
102
{ACAD_REACTORS
330
38C
102
}
330
38C
100
DictionaryVariables
280
     0
  1
1:1
  0
DICTIONARYVAR
  5
38E
102
{ACAD_REACTORS
330
38C
102
}
330
38C
100
DictionaryVariables
280
     0
  1
STANDARD
  0
DICTIONARYVAR
  5
38D
102
{ACAD_REACTORS
330
38C
102
}
330
38C
100
DictionaryVariables
280
     0
  1
STANDARD
  0
DICTIONARYVAR
  5
38F
102
{ACAD_REACTORS
330
38C
102
}
330
38C
100
DictionaryVariables
280
     0
  1
Imperial24
  0
DICTIONARYVAR
  5
390
102
{ACAD_REACTORS
330
38C
102
}
330
38C
100
DictionaryVariables
280
     0
  1
Imperial24
  0
DICTIONARY
  5
1A
330
19
100
AcDbDictionary
280
     1
281
     1
  3
BUMPTILE
360
1C
  3
DIFFUSETILE
360
1B
  3
OPACITYTILE
360
1F
  3
REFLECTIONTILE
360
1E
  3
REFRACTIONTILE
360
20
  3
SPECULARTILE
360
1D
  0
DICTIONARY
  5
12
330
11
100
AcDbDictionary
280
     1
281
     1
  3
BUMPTILE
360
14
  3
DIFFUSETILE
360
13
  3
OPACITYTILE
360
17
  3
REFLECTIONTILE
360
16
  3
REFRACTIONTILE
360
18
  3
SPECULARTILE
360
15
  0
DICTIONARY
  5
22
330
21
100
AcDbDictionary
280
     1
281
     1
  3
BUMPTILE
360
24
  3
DIFFUSETILE
360
23
  3
OPACITYTILE
360
27
  3
REFLECTIONTILE
360
26
  3
REFRACTIONTILE
360
28
  3
SPECULARTILE
360
25
  0
DICTIONARY
  5
392
330
65
100
AcDbDictionary
280
     1
281
     1
  3
ACAD_ROUNDTRIP_2008_TABLESTYLE_CELLSTYLEMAP
360
393
  0
XRECORD
  5
1C
102
{ACAD_REACTORS
330
1A
102
}
330
1A
100
AcDbXrecord
280
     1
270
     1
271
     1
  0
XRECORD
  5
1B
102
{ACAD_REACTORS
330
1A
102
}
330
1A
100
AcDbXrecord
280
     1
270
     1
271
     1
  0
XRECORD
  5
1F
102
{ACAD_REACTORS
330
1A
102
}
330
1A
100
AcDbXrecord
280
     1
270
     1
271
     1
  0
XRECORD
  5
1E
102
{ACAD_REACTORS
330
1A
102
}
330
1A
100
AcDbXrecord
280
     1
270
     1
271
     1
  0
XRECORD
  5
20
102
{ACAD_REACTORS
330
1A
102
}
330
1A
100
AcDbXrecord
280
     1
270
     1
271
     1
  0
XRECORD
  5
1D
102
{ACAD_REACTORS
330
1A
102
}
330
1A
100
AcDbXrecord
280
     1
270
     1
271
     1
  0
XRECORD
  5
14
102
{ACAD_REACTORS
330
12
102
}
330
12
100
AcDbXrecord
280
     1
270
     1
271
     1
  0
XRECORD
  5
13
102
{ACAD_REACTORS
330
12
102
}
330
12
100
AcDbXrecord
280
     1
270
     1
271
     1
  0
XRECORD
  5
17
102
{ACAD_REACTORS
330
12
102
}
330
12
100
AcDbXrecord
280
     1
270
     1
271
     1
  0
XRECORD
  5
16
102
{ACAD_REACTORS
330
12
102
}
330
12
100
AcDbXrecord
280
     1
270
     1
271
     1
  0
XRECORD
  5
18
102
{ACAD_REACTORS
330
12
102
}
330
12
100
AcDbXrecord
280
     1
270
     1
271
     1
  0
XRECORD
  5
15
102
{ACAD_REACTORS
330
12
102
}
330
12
100
AcDbXrecord
280
     1
270
     1
271
     1
  0
XRECORD
  5
24
102
{ACAD_REACTORS
330
22
102
}
330
22
100
AcDbXrecord
280
     1
270
     1
271
     1
  0
XRECORD
  5
23
102
{ACAD_REACTORS
330
22
102
}
330
22
100
AcDbXrecord
280
     1
270
     1
271
     1
  0
XRECORD
  5
27
102
{ACAD_REACTORS
330
22
102
}
330
22
100
AcDbXrecord
280
     1
270
     1
271
     1
  0
XRECORD
  5
26
102
{ACAD_REACTORS
330
22
102
}
330
22
100
AcDbXrecord
280
     1
270
     1
271
     1
  0
XRECORD
  5
28
102
{ACAD_REACTORS
330
22
102
}
330
22
100
AcDbXrecord
280
     1
270
     1
271
     1
  0
XRECORD
  5
25
102
{ACAD_REACTORS
330
22
102
}
330
22
100
AcDbXrecord
280
     1
270
     1
271
     1
  0
CELLSTYLEMAP
  5
393
102
{ACAD_REACTORS
330
392
102
}
330
392
100
AcDbCellStyleMap
 90
        3
300
CELLSTYLE
  1
TABLEFORMAT_BEGIN
 90
        5
170
     1
 91
        0
 92
    32768
 62
   257
 93
        1
300
CONTENTFORMAT
  1
CONTENTFORMAT_BEGIN
 90
        0
 91
        0
 92
      512
 93
        0
300

 40
0.0
140
1.0
 94
        5
 62
     0
340
55
144
0.25
309
CONTENTFORMAT_END
171
     0
 94
        0
309
TABLEFORMAT_END
  1
CELLSTYLE_BEGIN
 90
        1
 91
        1
300
_TITLE
309
CELLSTYLE_END
300
CELLSTYLE
  1
TABLEFORMAT_BEGIN
 90
        5
170
     1
 91
        0
 92
        0
 62
   257
 93
        1
300
CONTENTFORMAT
  1
CONTENTFORMAT_BEGIN
 90
        0
 91
        0
 92
      512
 93
        0
300

 40
0.0
140
1.0
 94
        5
 62
     0
340
55
144
0.18
309
CONTENTFORMAT_END
171
     0
 94
        0
309
TABLEFORMAT_END
  1
CELLSTYLE_BEGIN
 90
        2
 91
        1
300
_HEADER
309
CELLSTYLE_END
300
CELLSTYLE
  1
TABLEFORMAT_BEGIN
 90
        5
170
     1
 91
        0
 92
        0
 62
   257
 93
        1
300
CONTENTFORMAT
  1
CONTENTFORMAT_BEGIN
 90
        0
 91
        0
 92
      512
 93
        0
300

 40
0.0
140
1.0
 94
        2
 62
     0
340
55
144
0.18
309
CONTENTFORMAT_END
171
     0
 94
        0
309
TABLEFORMAT_END
  1
CELLSTYLE_BEGIN
 90
        3
 91
        2
300
_DATA
309
CELLSTYLE_END
  0
ENDSEC
  0
EOF
