  0
SECTION
  2
HEADER
  9
$ACADVER
  1
AC1032
  9
$ACADMAINTVER
 90
      329
  9
$DWGCODEPAGE
  3
ANSI_936
  9
$REQUIREDVERSIONS
160
                 0
  9
$INSBASE
 10
0.0
 20
0.0
 30
0.0
  9
$EXTMIN
 10
1.000000000000000E+20
 20
1.000000000000000E+20
 30
1.000000000000000E+20
  9
$EXTMAX
 10
-1.000000000000000E+20
 20
-1.000000000000000E+20
 30
-1.000000000000000E+20
  9
$LIMMIN
 10
0.0
 20
0.0
  9
$LIMMAX
 10
12.0
 20
9.0
  9
$ORTHOMODE
 70
     0
  9
$REGENMODE
 70
     1
  9
$FILLMODE
 70
     1
  9
$QTEXTMODE
 70
     0
  9
$MIRRTEXT
 70
     0
  9
$LTSCALE
 40
1.0
  9
$ATTMODE
 70
     1
  9
$TEXTSIZE
 40
0.2
  9
$TRACEWID
 40
0.05
  9
$TEXTSTYLE
  7
Standard
  9
$CLAYER
  8
0
  9
$CELTYPE
  6
ByLayer
  9
$CECOLOR
 62
   256
  9
$CELTSCALE
 40
1.0
  9
$DISPSILH
 70
     0
  9
$DIMSCALE
 40
1.0
  9
$DIMASZ
 40
0.18
  9
$DIMEXO
 40
0.0625
  9
$DIMDLI
 40
0.38
  9
$DIMRND
 40
0.0
  9
$DIMDLE
 40
0.0
  9
$DIMEXE
 40
0.18
  9
$DIMTP
 40
0.0
  9
$DIMTM
 40
0.0
  9
$DIMTXT
 40
0.18
  9
$DIMCEN
 40
0.09
  9
$DIMTSZ
 40
0.0
  9
$DIMTOL
 70
     0
  9
$DIMLIM
 70
     0
  9
$DIMTIH
 70
     1
  9
$DIMTOH
 70
     1
  9
$DIMSE1
 70
     0
  9
$DIMSE2
 70
     0
  9
$DIMTAD
 70
     0
  9
$DIMZIN
 70
     0
  9
$DIMBLK
  1

  9
$DIMASO
 70
     1
  9
$DIMSHO
 70
     1
  9
$DIMPOST
  1

  9
$DIMAPOST
  1

  9
$DIMALT
 70
     0
  9
$DIMALTD
 70
     2
  9
$DIMALTF
 40
25.4
  9
$DIMLFAC
 40
1.0
  9
$DIMTOFL
 70
     0
  9
$DIMTVP
 40
0.0
  9
$DIMTIX
 70
     0
  9
$DIMSOXD
 70
     0
  9
$DIMSAH
 70
     0
  9
$DIMBLK1
  1

  9
$DIMBLK2
  1

  9
$DIMSTYLE
  2
Standard
  9
$DIMCLRD
 70
     0
  9
$DIMCLRE
 70
     0
  9
$DIMCLRT
 70
     0
  9
$DIMTFAC
 40
1.0
  9
$DIMGAP
 40
0.09
  9
$DIMJUST
 70
     0
  9
$DIMSD1
 70
     0
  9
$DIMSD2
 70
     0
  9
$DIMTOLJ
 70
     1
  9
$DIMTZIN
 70
     0
  9
$DIMALTZ
 70
     0
  9
$DIMALTTZ
 70
     0
  9
$DIMUPT
 70
     0
  9
$DIMDEC
 70
     4
  9
$DIMTDEC
 70
     4
  9
$DIMALTU
 70
     2
  9
$DIMALTTD
 70
     2
  9
$DIMTXSTY
  7
Standard
  9
$DIMAUNIT
 70
     0
  9
$DIMADEC
 70
     0
  9
$DIMALTRND
 40
0.0
  9
$DIMAZIN
 70
     0
  9
$DIMDSEP
 70
    46
  9
$DIMATFIT
 70
     3
  9
$DIMFRAC
 70
     0
  9
$DIMLDRBLK
  1

  9
$DIMLUNIT
 70
     2
  9
$DIMLWD
 70
    -2
  9
$DIMLWE
 70
    -2
  9
$DIMTMOVE
 70
     0
  9
$DIMFXL
 40
1.0
  9
$DIMFXLON
 70
     0
  9
$DIMJOGANG
 40
0.7853981633974483
  9
$DIMTFILL
 70
     0
  9
$DIMTFILLCLR
 70
     0
  9
$DIMARCSYM
 70
     0
  9
$DIMLTYPE
  6

  9
$DIMLTEX1
  6

  9
$DIMLTEX2
  6

  9
$DIMTXTDIRECTION
 70
     0
  9
$LUNITS
 70
     2
  9
$LUPREC
 70
     4
  9
$SKETCHINC
 40
0.1
  9
$FILLETRAD
 40
0.0
  9
$AUNITS
 70
     0
  9
$AUPREC
 70
     0
  9
$MENU
  1
.
  9
$ELEVATION
 40
0.0
  9
$PELEVATION
 40
0.0
  9
$THICKNESS
 40
0.0
  9
$LIMCHECK
 70
     0
  9
$CHAMFERA
 40
0.0
  9
$CHAMFERB
 40
0.0
  9
$CHAMFERC
 40
0.0
  9
$CHAMFERD
 40
0.0
  9
$SKPOLY
 70
     0
  9
$TDCREATE
 40
2460900.376574074
  9
$TDUCREATE
 40
2460900.043240741
  9
$TDUPDATE
 40
2460900.376574074
  9
$TDUUPDATE
 40
2460900.043240741
  9
$TDINDWG
 40
0.0000000000
  9
$TDUSRTIMER
 40
0.0000000000
  9
$USRTIMER
 70
     1
  9
$ANGBASE
 50
0.0
  9
$ANGDIR
 70
     0
  9
$PDMODE
 70
     0
  9
$PDSIZE
 40
0.0
  9
$PLINEWID
 40
0.0
  9
$SPLFRAME
 70
     0
  9
$SPLINETYPE
 70
     6
  9
$SPLINESEGS
 70
     8
  9
$HANDSEED
  5
13D
  9
$SURFTAB1
 70
     6
  9
$SURFTAB2
 70
     6
  9
$SURFTYPE
 70
     6
  9
$SURFU
 70
     6
  9
$SURFV
 70
     6
  9
$UCSBASE
  2

  9
$UCSNAME
  2

  9
$UCSORG
 10
0.0
 20
0.0
 30
0.0
  9
$UCSXDIR
 10
1.0
 20
0.0
 30
0.0
  9
$UCSYDIR
 10
0.0
 20
1.0
 30
0.0
  9
$UCSORTHOREF
  2

  9
$UCSORTHOVIEW
 70
     0
  9
$UCSORGTOP
 10
0.0
 20
0.0
 30
0.0
  9
$UCSORGBOTTOM
 10
0.0
 20
0.0
 30
0.0
  9
$UCSORGLEFT
 10
0.0
 20
0.0
 30
0.0
  9
$UCSORGRIGHT
 10
0.0
 20
0.0
 30
0.0
  9
$UCSORGFRONT
 10
0.0
 20
0.0
 30
0.0
  9
$UCSORGBACK
 10
0.0
 20
0.0
 30
0.0
  9
$PUCSBASE
  2

  9
$PUCSNAME
  2

  9
$PUCSORG
 10
0.0
 20
0.0
 30
0.0
  9
$PUCSXDIR
 10
1.0
 20
0.0
 30
0.0
  9
$PUCSYDIR
 10
0.0
 20
1.0
 30
0.0
  9
$PUCSORTHOREF
  2

  9
$PUCSORTHOVIEW
 70
     0
  9
$PUCSORGTOP
 10
0.0
 20
0.0
 30
0.0
  9
$PUCSORGBOTTOM
 10
0.0
 20
0.0
 30
0.0
  9
$PUCSORGLEFT
 10
0.0
 20
0.0
 30
0.0
  9
$PUCSORGRIGHT
 10
0.0
 20
0.0
 30
0.0
  9
$PUCSORGFRONT
 10
0.0
 20
0.0
 30
0.0
  9
$PUCSORGBACK
 10
0.0
 20
0.0
 30
0.0
  9
$USERI1
 70
     0
  9
$USERI2
 70
     0
  9
$USERI3
 70
     0
  9
$USERI4
 70
     0
  9
$USERI5
 70
     0
  9
$USERR1
 40
0.0
  9
$USERR2
 40
0.0
  9
$USERR3
 40
0.0
  9
$USERR4
 40
0.0
  9
$USERR5
 40
0.0
  9
$WORLDVIEW
 70
     1
  9
$SHADEDGE
 70
     3
  9
$SHADEDIF
 70
    70
  9
$TILEMODE
 70
     1
  9
$MAXACTVP
 70
    64
  9
$PINSBASE
 10
0.0
 20
0.0
 30
0.0
  9
$PLIMCHECK
 70
     0
  9
$PEXTMIN
 10
1.000000000000000E+20
 20
1.000000000000000E+20
 30
1.000000000000000E+20
  9
$PEXTMAX
 10
-1.000000000000000E+20
 20
-1.000000000000000E+20
 30
-1.000000000000000E+20
  9
$PLIMMIN
 10
0.0
 20
0.0
  9
$PLIMMAX
 10
12.0
 20
9.0
  9
$UNITMODE
 70
     0
  9
$VISRETAIN
 70
     1
  9
$PLINEGEN
 70
     0
  9
$PSLTSCALE
 70
     1
  9
$TREEDEPTH
 70
  3020
  9
$CMLSTYLE
  2
Standard
  9
$CMLJUST
 70
     0
  9
$CMLSCALE
 40
1.0
  9
$PROXYGRAPHICS
 70
     1
  9
$MEASUREMENT
 70
     0
  9
$CELWEIGHT
370
    -1
  9
$ENDCAPS
280
     0
  9
$JOINSTYLE
280
     0
  9
$LWDISPLAY
290
     1
  9
$INSUNITS
 70
     1
  9
$HYPERLINKBASE
  1

  9
$STYLESHEET
  1

  9
$XEDIT
290
     1
  9
$CEPSNTYPE
380
     0
  9
$PSTYLEMODE
290
     1
  9
$FINGERPRINTGUID
  2
{7452C8DB-DEE4-B748-A500-ED37387A6BB7}
  9
$VERSIONGUID
  2
{B8E5CD66-8741-FB40-BB31-B5031E43A195}
  9
$EXTNAMES
290
     1
  9
$PSVPSCALE
 40
0.0
  9
$OLESTARTUP
290
     0
  9
$SORTENTS
280
   127
  9
$INDEXCTL
280
     0
  9
$HIDETEXT
280
     1
  9
$XCLIPFRAME
280
     2
  9
$HALOGAP
280
     0
  9
$OBSCOLOR
 70
   257
  9
$OBSLTYPE
280
     0
  9
$INTERSECTIONDISPLAY
280
     0
  9
$INTERSECTIONCOLOR
 70
   257
  9
$DIMASSOC
280
     2
  9
$PROJECTNAME
  1

  9
$CAMERADISPLAY
290
     0
  9
$LENSLENGTH
 40
50.0
  9
$CAMERAHEIGHT
 40
0.0
  9
$STEPSPERSEC
 40
2.0
  9
$STEPSIZE
 40
6.0
  9
$3DDWFPREC
 40
2.0
  9
$PSOLWIDTH
 40
0.25
  9
$PSOLHEIGHT
 40
4.0
  9
$LOFTANG1
 40
1.570796326794896
  9
$LOFTANG2
 40
1.570796326794896
  9
$LOFTMAG1
 40
0.0
  9
$LOFTMAG2
 40
0.0
  9
$LOFTPARAM
 70
     7
  9
$LOFTNORMALS
280
     1
  9
$LATITUDE
 40
37.795
  9
$LONGITUDE
 40
-122.394
  9
$NORTHDIRECTION
 40
0.0
  9
$TIMEZONE
 70
 -8000
  9
$LIGHTGLYPHDISPLAY
280
     1
  9
$TILEMODELIGHTSYNCH
280
     1
  9
$CMATERIAL
347
11
  9
$SOLIDHIST
280
     0
  9
$SHOWHIST
280
     1
  9
$DWFFRAME
280
     2
  9
$DGNFRAME
280
     0
  9
$REALWORLDSCALE
290
     1
  9
$INTERFERECOLOR
 62
     1
  9
$INTERFEREOBJVS
345
33
  9
$INTERFEREVPVS
346
30
  9
$CSHADOW
280
     0
  9
$SHADOWPLANELOCATION
 40
0.0
  0
ENDSEC
  0
SECTION
  2
CLASSES
  0
CLASS
  1
ACDBDICTIONARYWDFLT
  2
AcDbDictionaryWithDefault
  3
ObjectDBX Classes
 90
        0
 91
        1
280
     0
281
     0
  0
CLASS
  1
MATERIAL
  2
AcDbMaterial
  3
ObjectDBX Classes
 90
     1153
 91
        3
280
     0
281
     0
  0
CLASS
  1
VISUALSTYLE
  2
AcDbVisualStyle
  3
ObjectDBX Classes
 90
     4095
 91
       24
280
     0
281
     0
  0
CLASS
  1
SCALE
  2
AcDbScale
  3
ObjectDBX Classes
 90
     1153
 91
       17
280
     0
281
     0
  0
CLASS
  1
TABLESTYLE
  2
AcDbTableStyle
  3
ObjectDBX Classes
 90
     4095
 91
        1
280
     0
281
     0
  0
CLASS
  1
MLEADERSTYLE
  2
AcDbMLeaderStyle
  3
ACDB_MLEADERSTYLE_CLASS
 90
     4095
 91
        1
280
     0
281
     0
  0
CLASS
  1
ACDBSECTIONVIEWSTYLE
  2
AcDbSectionViewStyle
  3
ObjectDBX Classes
 90
     1025
 91
        1
280
     0
281
     0
  0
CLASS
  1
ACDBDETAILVIEWSTYLE
  2
AcDbDetailViewStyle
  3
ObjectDBX Classes
 90
     1025
 91
        1
280
     0
281
     0
  0
CLASS
  1
DICTIONARYVAR
  2
AcDbDictionaryVar
  3
ObjectDBX Classes
 90
        0
 91
        5
280
     0
281
     0
  0
CLASS
  1
CELLSTYLEMAP
  2
AcDbCellStyleMap
  3
ObjectDBX Classes
 90
     1152
 91
        1
280
     0
281
     0
  0
ENDSEC
  0
SECTION
  2
TABLES
  0
TABLE
  2
VPORT
  5
8
330
0
100
AcDbSymbolTable
 70
     1
  0
VPORT
  5
57
330
8
100
AcDbSymbolTableRecord
100
AcDbViewportTableRecord
  2
*Active
 70
     0
 10
0.0
 20
0.0
 11
1.0
 21
1.0
 12
0.0
 22
0.0
 13
0.0
 23
0.0
 14
1.0
 24
1.0
 15
0.0
 25
0.0
 16
0.0
 26
0.0
 36
1.0
 17
8.5
 27
-8.5
 37
0.0
 40
17.34
 41
1.0
 42
50.0
 43
0.0
 44
0.0
 50
0.0
 51
0.0
 71
     0
 72
   100
 73
     1
 74
     1
 75
     0
 76
     0
 77
     0
 78
     0
281
     0
 65
     1
110
0.0
120
0.0
130
0.0
111
1.0
121
0.0
131
0.0
112
0.0
122
1.0
132
0.0
 79
     0
146
0.0
 60
     3
 61
     5
292
     1
282
     1
141
0.0
142
0.0
 63
   250
421
  3355443
  0
ENDTAB
  0
TABLE
  2
LTYPE
  5
5
330
0
100
AcDbSymbolTable
 70
     1
  0
LTYPE
  5
5B
330
5
100
AcDbSymbolTableRecord
100
AcDbLinetypeTableRecord
  2
ByBlock
 70
     0
  3

 72
    65
 73
     0
 40
0.0
  0
LTYPE
  5
5C
330
5
100
AcDbSymbolTableRecord
100
AcDbLinetypeTableRecord
  2
ByLayer
 70
     0
  3

 72
    65
 73
     0
 40
0.0
  0
LTYPE
  5
5D
330
5
100
AcDbSymbolTableRecord
100
AcDbLinetypeTableRecord
  2
Continuous
 70
     0
  3
Solid line
 72
    65
 73
     0
 40
0.0
  0
ENDTAB
  0
TABLE
  2
LAYER
  5
2
330
0
100
AcDbSymbolTable
 70
     2
  0
LAYER
  5
54
330
2
100
AcDbSymbolTableRecord
100
AcDbLayerTableRecord
  2
0
 70
     0
 62
     7
  6
Continuous
370
    -3
390
F
347
21
348
0
  0
LAYER
  5
78
330
2
100
AcDbSymbolTableRecord
100
AcDbLayerTableRecord
  2
Layer 1
 70
     0
 62
     7
  6
Continuous
370
     0
390
F
347
21
348
0
  0
ENDTAB
  0
TABLE
  2
STYLE
  5
3
330
0
100
AcDbSymbolTable
 70
     2
  0
STYLE
  5
55
330
3
100
AcDbSymbolTableRecord
100
AcDbTextStyleTableRecord
  2
Standard
 70
     0
 40
0.0
 41
1.0
 50
0.0
 71
     0
 42
0.2
  3
txt
  4

  0
STYLE
  5
5A
330
3
100
AcDbSymbolTableRecord
100
AcDbTextStyleTableRecord
  2
Annotative
 70
     0
 40
0.0
 41
1.0
 50
0.0
 71
     0
 42
0.2
  3
txt
  4

1001
AcadAnnotative
1000
AnnotativeData
1002
{
1070
     1
1070
     1
1002
}
  0
ENDTAB
  0
TABLE
  2
VIEW
  5
6
330
0
100
AcDbSymbolTable
 70
     0
  0
ENDTAB
  0
TABLE
  2
UCS
  5
7
330
0
100
AcDbSymbolTable
 70
     0
  0
ENDTAB
  0
TABLE
  2
APPID
  5
9
330
0
100
AcDbSymbolTable
 70
     2
  0
APPID
  5
56
330
9
100
AcDbSymbolTableRecord
100
AcDbRegAppTableRecord
  2
ACAD
 70
     0
  0
APPID
  5
5E
330
9
100
AcDbSymbolTableRecord
100
AcDbRegAppTableRecord
  2
AcadAnnotative
 70
     0
  0
ENDTAB
  0
TABLE
  2
DIMSTYLE
  5
A
330
0
100
AcDbSymbolTable
 70
     2
100
AcDbDimStyleTable
 71
     0
  0
DIMSTYLE
105
58
330
A
100
AcDbSymbolTableRecord
100
AcDbDimStyleTableRecord
  2
Standard
 70
     0
340
55
  0
DIMSTYLE
105
59
330
A
100
AcDbSymbolTableRecord
100
AcDbDimStyleTableRecord
  2
Annotative
 70
     0
340
55
1001
AcadAnnotative
1000
AnnotativeData
1002
{
1070
     1
1070
     1
1002
}
  0
ENDTAB
  0
TABLE
  2
BLOCK_RECORD
  5
1
330
0
100
AcDbSymbolTable
 70
     1
  0
BLOCK_RECORD
  5
70
330
1
100
AcDbSymbolTableRecord
100
AcDbBlockTableRecord
  2
*Model_Space
340
73
 70
     0
280
     1
281
     0
  0
BLOCK_RECORD
  5
6C
330
1
100
AcDbSymbolTableRecord
100
AcDbBlockTableRecord
  2
*Paper_Space
340
6F
 70
     0
280
     1
281
     0
  0
BLOCK_RECORD
  5
74
330
1
100
AcDbSymbolTableRecord
100
AcDbBlockTableRecord
  2
*Paper_Space0
340
77
 70
     0
280
     1
281
     0
  0
ENDTAB
  0
ENDSEC
  0
SECTION
  2
BLOCKS
  0
BLOCK
  5
71
330
70
100
AcDbEntity
  8
0
100
AcDbBlockBegin
  2
*Model_Space
 70
     0
 10
0.0
 20
0.0
 30
0.0
  3
*Model_Space
  1

  0
ENDBLK
  5
72
330
70
100
AcDbEntity
  8
0
100
AcDbBlockEnd
  0
BLOCK
  5
6D
330
6C
100
AcDbEntity
 67
     1
  8
0
100
AcDbBlockBegin
  2
*Paper_Space
 70
     0
 10
0.0
 20
0.0
 30
0.0
  3
*Paper_Space
  1

  0
ENDBLK
  5
6E
330
6C
100
AcDbEntity
 67
     1
  8
0
100
AcDbBlockEnd
  0
BLOCK
  5
75
330
74
100
AcDbEntity
 67
     1
  8
0
100
AcDbBlockBegin
  2
*Paper_Space0
 70
     0
 10
0.0
 20
0.0
 30
0.0
  3
*Paper_Space0
  1

  0
ENDBLK
  5
76
330
74
100
AcDbEntity
 67
     1
  8
0
100
AcDbBlockEnd
  0
ENDSEC
  0
SECTION
  2
ENTITIES
  0
LINE
  5
79
330
70
100
AcDbEntity
  8
Layer 1
 62
    18
420
        0
370
     5
100
AcDbLine
 10
5.0955706327387
 20
-9.827085099861152
 30
0.0
 11
4.57562688499316
 21
-9.827085099861152
 31
0.0
  0
LINE
  5
7A
330
70
100
AcDbEntity
  8
Layer 1
 62
    18
420
        0
370
     5
100
AcDbLine
 10
5.0955706327387
 20
-7.53212395929481
 30
0.0
 11
4.57562688499316
 21
-7.53212395929481
 31
0.0
  0
LINE
  5
7B
330
70
100
AcDbEntity
  8
Layer 1
 62
    18
420
        0
370
     5
100
AcDbLine
 10
1.345348651058682
 20
-1.532458818651851
 30
0.0
 11
1.345348651058682
 21
-1.157386170633774
 31
0.0
  0
LINE
  5
7C
330
70
100
AcDbEntity
  8
Layer 1
 62
    18
420
        0
370
     5
100
AcDbLine
 10
5.792913283824961
 20
-4.20354619258228
 30
0.0
 11
4.900661255397405
 21
-4.20354619258228
 31
0.0
  0
LINE
  5
7D
330
70
100
AcDbEntity
  8
Layer 1
 62
    18
420
        0
370
     5
100
AcDbLine
 10
4.770536259442551
 20
-4.20354619258228
 30
0.0
 11
3.878284234006653
 21
-4.20354619258228
 31
0.0
  0
LINE
  5
7E
330
70
100
AcDbEntity
  8
Layer 1
 62
    18
420
        0
370
     5
100
AcDbLine
 10
3.847146761651426
 20
-1.701748081889794
 30
0.0
 11
3.916720742782192
 21
-1.632174100883136
 31
0.0
  0
LINE
  5
7F
330
70
100
AcDbEntity
  8
Layer 1
 62
    18
420
        0
370
     5
100
AcDbLine
 10
5.594177791003996
 20
-3.29210891428219
 30
0.0
 11
5.198347219821445
 21
-3.299018162637505
 31
0.0
  0
LINE
  5
80
330
70
100
AcDbEntity
  8
Layer 1
 62
    18
420
        0
370
     5
100
AcDbLine
 10
4.472850298010118
 20
-3.299018162637505
 30
0.0
 11
5.198347219821445
 21
-3.299018162637505
 31
0.0
  0
LINE
  5
81
330
70
100
AcDbEntity
  8
Layer 1
 62
    18
420
        0
370
     5
100
AcDbLine
 10
4.077019726727838
 20
-3.29210891428219
 30
0.0
 11
4.472850298010118
 21
-3.299018162637505
 31
0.0
  0
LINE
  5
82
330
70
100
AcDbEntity
  8
Layer 1
 62
    18
420
        0
370
     5
100
AcDbLine
 10
3.838384442385164
 20
-4.163657619921031
 30
0.0
 11
3.838384442385164
 21
-2.285729304180057
 31
0.0
  0
LINE
  5
83
330
70
100
AcDbEntity
  8
Layer 1
 62
    18
420
        0
370
     5
100
AcDbLine
 10
3.838384442385164
 20
-2.194333102387241
 30
0.0
 11
3.838384442385164
 21
-1.722902192019786
 31
0.0
  0
LINE
  5
84
330
70
100
AcDbEntity
  8
Layer 1
 62
    18
420
        0
370
     5
100
AcDbLine
 10
3.938105874038253
 20
-1.157386170633774
 30
0.0
 11
3.938105874038253
 21
-1.152070383998622
 31
0.0
  0
LINE
  5
85
330
70
100
AcDbEntity
  8
Layer 1
 62
    18
420
        0
370
     5
100
AcDbLine
 10
4.03782730569128
 20
-3.252226416850046
 30
0.0
 11
4.03782730569128
 21
-1.859251291857162
 31
0.0
  0
LINE
  5
86
330
70
100
AcDbEntity
  8
Layer 1
 62
    18
420
        0
370
     5
100
AcDbLine
 10
4.546406607121904
 20
-3.299020440873366
 30
0.0
 11
4.546406607121904
 21
-3.830060105361818
 31
0.0
  0
LWPOLYLINE
  5
87
330
70
100
AcDbEntity
  8
Layer 1
 62
    18
420
        0
370
     5
100
AcDbPolyline
 90
        7
 70
     0
 43
0.0
 10
4.546407427729566
 20
-3.83006024547045
 10
4.546388734548334
 20
-3.831280724105883
 10
4.546292022510012
 20
-3.833091018611222
 10
4.546118970125828
 20
-3.83484666098535
 10
4.545876287551183
 20
-3.836545290223739
 10
4.545570703788775
 20
-3.838184175554614
 10
4.545234556703929
 20
-3.839658215575177
  0
LINE
  5
88
330
70
100
AcDbEntity
  8
Layer 1
 62
    18
420
        0
370
     5
100
AcDbLine
 10
5.820846503648036
 20
-2.267450063801536
 30
0.0
 11
5.633370212140284
 21
-2.267450063801536
 31
0.0
  0
LINE
  5
89
330
70
100
AcDbEntity
  8
Layer 1
 62
    18
420
        0
370
     5
100
AcDbLine
 10
4.03782730569128
 20
-2.267450063801536
 30
0.0
 11
3.850351014183539
 21
-2.267450063801536
 31
0.0
  0
LINE
  5
8A
330
70
100
AcDbEntity
  8
Layer 1
 62
    18
420
        0
370
     5
100
AcDbLine
 10
3.850351014183539
 20
-2.212612342765775
 30
0.0
 11
4.03782730569128
 21
-2.212612342765775
 31
0.0
  0
LINE
  5
8B
330
70
100
AcDbEntity
  8
Layer 1
 62
    18
420
        0
370
     5
100
AcDbLine
 10
5.633370212140284
 20
-2.212612342765775
 30
0.0
 11
5.820846503648036
 21
-2.212612342765775
 31
0.0
  0
LINE
  5
8C
330
70
100
AcDbEntity
  8
Layer 1
 62
    18
420
        0
370
     5
100
AcDbLine
 10
5.124790910709659
 20
-3.299020440873366
 30
0.0
 11
5.124790910709659
 21
-3.830066320400343
 31
0.0
  0
LINE
  5
8D
330
70
100
AcDbEntity
  8
Layer 1
 62
    18
420
        0
370
     5
100
AcDbLine
 10
5.621403640341908
 20
-1.840972051478628
 30
0.0
 11
4.049793877489656
 21
-1.840972051478628
 31
0.0
  0
LINE
  5
8E
330
70
100
AcDbEntity
  8
Layer 1
 62
    18
420
        0
370
     5
100
AcDbLine
 10
4.049793877489656
 20
-1.78613433044288
 30
0.0
 11
5.621403640341908
 21
-1.78613433044288
 31
0.0
  0
LWPOLYLINE
  5
8F
330
70
100
AcDbEntity
  8
Layer 1
 62
    18
420
        0
370
     5
100
AcDbPolyline
 90
        7
 70
     0
 43
0.0
 10
5.125906738882526
 20
-3.839435016374384
 10
5.125534304863978
 20
-3.837731431479432
 10
5.125235465561179
 20
-3.836005101920944
 10
5.125011861591082
 20
-3.834259185677208
 10
5.124865005528337
 20
-3.832496991904134
 10
5.124796262958347
 20
-3.830721850100947
 10
5.124790876006588
 20
-3.830066343635431
  0
LINE
  5
90
330
70
100
AcDbEntity
  8
Layer 1
 62
    18
420
        0
370
     5
100
AcDbLine
 10
5.832813075446412
 20
-1.722902192019786
 30
0.0
 11
5.633370212140284
 21
-1.722902192019786
 31
0.0
  0
LINE
  5
91
330
70
100
AcDbEntity
  8
Layer 1
 62
    18
420
        0
370
     5
100
AcDbLine
 10
4.03782730569128
 20
-1.722902192019786
 30
0.0
 11
3.838384442385164
 21
-1.722902192019786
 31
0.0
  0
LINE
  5
92
330
70
100
AcDbEntity
  8
Layer 1
 62
    18
420
        0
370
     5
100
AcDbLine
 10
1.4439626457982
 20
-1.632174100883136
 30
0.0
 11
8.22723487193366
 21
-1.632174100883136
 31
0.0
  0
LINE
  5
93
330
70
100
AcDbEntity
  8
Layer 1
 62
    18
420
        0
370
     5
100
AcDbLine
 10
5.633370212140284
 20
-3.252226416850046
 30
0.0
 11
5.633370212140284
 21
-1.859251291857162
 31
0.0
  0
LINE
  5
94
330
70
100
AcDbEntity
  8
Layer 1
 62
    18
420
        0
370
     5
100
AcDbLine
 10
5.733091643793323
 20
-1.157386170633774
 30
0.0
 11
5.733091643793323
 21
-1.152070383998622
 31
0.0
  0
LINE
  5
95
330
70
100
AcDbEntity
  8
Layer 1
 62
    18
420
        0
370
     5
100
AcDbLine
 10
5.832813075446412
 20
-4.163657619921031
 30
0.0
 11
5.832813075446412
 21
-2.285729304180057
 31
0.0
  0
LINE
  5
96
330
70
100
AcDbEntity
  8
Layer 1
 62
    18
420
        0
370
     5
100
AcDbLine
 10
5.832813075446412
 20
-2.194333102387241
 30
0.0
 11
5.832813075446412
 21
-1.722902192019786
 31
0.0
  0
LINE
  5
97
330
70
100
AcDbEntity
  8
Layer 1
 62
    18
420
        0
370
     5
100
AcDbLine
 10
5.824050756080433
 20
-1.701748081889794
 30
0.0
 11
5.754476775073777
 21
-1.632174100883136
 31
0.0
  0
LINE
  5
98
330
70
100
AcDbEntity
  8
Layer 1
 62
    18
420
        0
370
     5
100
AcDbLine
 10
8.325848866772918
 20
-1.532458818651851
 30
0.0
 11
8.325848866772918
 21
-1.157386170633774
 31
0.0
  0
LINE
  5
99
330
70
100
AcDbEntity
  8
Layer 1
 62
    18
420
        0
370
     5
100
AcDbLine
 10
12.15661390851091
 20
-7.572006456826708
 30
0.0
 11
12.15661390851091
 21
-9.787202602428907
 31
0.0
  0
LINE
  5
9A
330
70
100
AcDbEntity
  8
Layer 1
 62
    18
420
        0
370
     5
100
AcDbLine
 10
12.16392412387884
 20
-13.02745894965147
 30
0.0
 11
12.16392412387884
 21
-11.11280746191268
 31
0.0
  0
LINE
  5
9B
330
70
100
AcDbEntity
  8
Layer 1
 62
    18
420
        0
370
     5
100
AcDbLine
 10
12.75494249842924
 20
-7.572006456826708
 30
0.0
 11
12.75494249842924
 21
-8.74940953173508
 31
0.0
  0
LINE
  5
9C
330
70
100
AcDbEntity
  8
Layer 1
 62
    18
420
        0
370
     5
100
AcDbLine
 10
12.75494249842924
 20
-9.407570975060883
 30
0.0
 11
12.75494249842924
 21
-9.787202602428907
 31
0.0
  0
LINE
  5
9D
330
70
100
AcDbEntity
  8
Layer 1
 62
    18
420
        0
370
     5
100
AcDbLine
 10
14.08174101218136
 20
-13.06734752231265
 30
0.0
 11
12.20381269654005
 21
-13.06734752231265
 31
0.0
  0
LINE
  5
9E
330
70
100
AcDbEntity
  8
Layer 1
 62
    18
420
        0
370
     5
100
AcDbLine
 10
14.17313721397408
 20
-13.06734752231265
 30
0.0
 11
14.64456812434163
 21
-13.06734752231265
 31
0.0
  0
LINE
  5
9F
330
70
100
AcDbEntity
  8
Layer 1
 62
    18
420
        0
370
     5
100
AcDbLine
 10
13.06845215382357
 20
-9.441238717095883
 30
0.0
 11
13.06845215382357
 21
-8.715741795284531
 31
0.0
  0
LINE
  5
A0
330
70
100
AcDbEntity
  8
Layer 1
 62
    18
420
        0
370
     5
100
AcDbLine
 10
14.10002025255981
 20
-13.05538095051424
 30
0.0
 11
14.10002025255981
 21
-11.08488546104978
 31
0.0
  0
LINE
  5
A1
330
70
100
AcDbEntity
  8
Layer 1
 62
    18
420
        0
370
     5
100
AcDbLine
 10
14.72658285584498
 20
-13.05730291487366
 30
0.0
 11
14.72704964967276
 21
-13.11720823813908
 31
0.0
  0
LINE
  5
A2
330
70
100
AcDbEntity
  8
Layer 1
 62
    18
420
        0
370
     5
100
AcDbLine
 10
14.71683230606628
 20
-11.04922328389984
 30
0.0
 11
14.72662323404986
 21
-13.06547028949714
 31
0.0
  0
LINE
  5
A3
330
70
100
AcDbEntity
  8
Layer 1
 62
    18
420
        0
370
     5
100
AcDbLine
 10
14.7167927396936
 20
-11.02305817342489
 30
0.0
 11
14.71683222349694
 21
-11.04917019201012
 31
0.0
  0
LINE
  5
A4
330
70
100
AcDbEntity
  8
Layer 1
 62
    18
420
        0
370
     5
100
AcDbLine
 10
14.15485797369539
 20
-11.08488546104978
 30
0.0
 11
14.15485797369539
 21
-13.05538095051424
 31
0.0
  0
LINE
  5
A5
330
70
100
AcDbEntity
  8
Layer 1
 62
    18
420
        0
370
     5
100
AcDbLine
 10
14.52649826498244
 20
-9.864295137616307
 30
0.0
 11
14.52649826498244
 21
-8.292685374764106
 31
0.0
  0
LINE
  5
A6
330
70
100
AcDbEntity
  8
Layer 1
 62
    18
420
        0
370
     5
100
AcDbLine
 10
14.58133598601817
 20
-8.292685374764106
 30
0.0
 11
14.58133598601817
 21
-9.864295137616307
 31
0.0
  0
LINE
  5
A7
330
70
100
AcDbEntity
  8
Layer 1
 62
    18
420
        0
370
     5
100
AcDbLine
 10
14.64456812434163
 20
-13.06734752231265
 30
0.0
 11
14.64456812434163
 21
-11.07291888925139
 31
0.0
  0
LINE
  5
A8
330
70
100
AcDbEntity
  8
Layer 1
 62
    18
420
        0
370
     5
100
AcDbLine
 10
14.64456812434163
 20
-11.07291888925139
 30
0.0
 11
14.17313721397408
 21
-11.07291888925139
 31
0.0
  0
LINE
  5
A9
330
70
100
AcDbEntity
  8
Layer 1
 62
    18
420
        0
370
     5
100
AcDbLine
 10
14.08174101218136
 20
-11.07291888925139
 30
0.0
 11
12.20381269654005
 21
-11.07291888925139
 31
0.0
  0
LINE
  5
AA
330
70
100
AcDbEntity
  8
Layer 1
 62
    18
420
        0
370
     5
100
AcDbLine
 10
14.66572223457127
 20
-13.05858520304633
 30
0.0
 11
14.72629402019738
 21
-12.99801341732068
 31
0.0
  0
LINE
  5
AB
330
70
100
AcDbEntity
  8
Layer 1
 62
    18
420
        0
370
     5
100
AcDbLine
 10
14.66572223457127
 20
-11.08168120861733
 30
0.0
 11
14.71722443935563
 21
-11.13318341340161
 31
0.0
  0
LINE
  5
AC
330
70
100
AcDbEntity
  8
Layer 1
 62
    18
420
        0
370
     5
100
AcDbLine
 10
14.508219024604
 20
-9.876261709414746
 30
0.0
 11
13.11524389951134
 21
-9.876261709414746
 31
0.0
  0
LINE
  5
AD
330
70
100
AcDbEntity
  8
Layer 1
 62
    18
420
        0
370
     5
100
AcDbLine
 10
14.59961522639673
 20
-9.876261709414746
 30
0.0
 11
14.71726334936185
 21
-9.876261709414746
 31
0.0
  0
LINE
  5
AE
330
70
100
AcDbEntity
  8
Layer 1
 62
    18
420
        0
370
     5
100
AcDbLine
 10
12.71575007739269
 20
-9.827085099861152
 30
0.0
 11
12.19580632964716
 21
-9.827085099861152
 31
0.0
  0
LINE
  5
AF
330
70
100
AcDbEntity
  8
Layer 1
 62
    18
420
        0
370
     5
100
AcDbLine
 10
14.72509172526636
 20
-8.280718802965729
 30
0.0
 11
14.59961522639673
 21
-8.280718802965729
 31
0.0
  0
LINE
  5
B0
330
70
100
AcDbEntity
  8
Layer 1
 62
    18
420
        0
370
     5
100
AcDbLine
 10
14.508219024604
 20
-8.280718802965729
 30
0.0
 11
13.11524389951134
 21
-8.280718802965729
 31
0.0
  0
LINE
  5
B1
330
70
100
AcDbEntity
  8
Layer 1
 62
    18
420
        0
370
     5
100
AcDbLine
 10
12.71575007739269
 20
-7.53212395929481
 30
0.0
 11
12.19580632964716
 21
-7.53212395929481
 31
0.0
  0
LINE
  5
B2
330
70
100
AcDbEntity
  8
Layer 1
 62
    18
420
        0
370
     5
100
AcDbLine
 10
14.83501149770957
 20
-7.084061623129008
 30
0.0
 11
15.21008414572765
 21
-7.084061623129008
 31
0.0
  0
SPLINE
  5
B3
330
70
100
AcDbEntity
  8
Layer 1
 62
    18
420
        0
370
     5
100
AcDbSpline
210
0.0
220
0.0
230
1.0
 70
     8
 71
     3
 72
     8
 73
     4
 74
     0
 42
0.0000000001
 43
0.0000000001
 40
0.0
 40
0.0
 40
0.0
 40
0.0
 40
1.0
 40
1.0
 40
1.0
 40
1.0
 10
5.585323910281254
 20
-12.72772491687973
 30
0.0
 10
5.591894211808253
 20
-12.72030323191625
 30
0.0
 10
5.598354181884297
 20
-12.71278459892907
 30
0.0
 10
5.604701693233878
 20
-12.70517149381236
 30
0.0
  0
SPLINE
  5
B4
330
70
100
AcDbEntity
  8
Layer 1
 62
    18
420
        0
370
     5
100
AcDbSpline
210
0.0
220
0.0
230
1.0
 70
     8
 71
     3
 72
     8
 73
     4
 74
     0
 42
0.0000000001
 43
0.0000000001
 40
0.0
 40
0.0
 40
0.0
 40
0.0
 40
1.0
 40
1.0
 40
1.0
 40
1.0
 10
5.604701693263993
 20
-12.70517149379722
 30
0.0
 10
5.609002259891781
 20
-12.70001344405199
 30
0.0
 10
5.613250870880884
 20
-12.69481229672563
 30
0.0
 10
5.617446882369575
 20
-12.68956884003362
 30
0.0
  0
LINE
  5
B5
330
70
100
AcDbEntity
  8
Layer 1
 62
    18
420
        0
370
     5
100
AcDbLine
 10
4.496515616768053
 20
-12.1342897636902
 30
0.0
 11
4.496515616768053
 21
-12.1342897636902
 31
0.0
  0
LINE
  5
B6
330
70
100
AcDbEntity
  8
Layer 1
 62
    18
420
        0
370
     5
100
AcDbLine
 10
4.496515616768053
 20
-12.00564800073822
 30
0.0
 11
4.496515616768053
 21
-12.00564800073822
 31
0.0
  0
LINE
  5
B7
330
70
100
AcDbEntity
  8
Layer 1
 62
    18
420
        0
370
     5
100
AcDbLine
 10
5.174687739267028
 20
-12.01238747667591
 30
0.0
 11
5.174687739267028
 21
-12.01238747667591
 31
0.0
  0
LINE
  5
B8
330
70
100
AcDbEntity
  8
Layer 1
 62
    18
420
        0
370
     5
100
AcDbLine
 10
5.174687739267028
 20
-12.12755028775233
 30
0.0
 11
5.174687739267028
 21
-12.12755028775233
 31
0.0
  0
SPLINE
  5
B9
330
70
100
AcDbEntity
  8
Layer 1
 62
    18
420
        0
370
     5
100
AcDbSpline
210
0.0
220
0.0
230
1.0
 70
     8
 71
     3
 72
     8
 73
     4
 74
     0
 42
0.0000000001
 43
0.0000000001
 40
0.0
 40
0.0
 40
0.0
 40
0.0
 40
1.0
 40
1.0
 40
1.0
 40
1.0
 10
4.536434463956601
 20
-9.787202602428907
 30
0.0
 10
4.536434463956601
 20
-9.808961063667966
 30
0.0
 10
4.55387173771559
 20
-9.826705362358298
 30
0.0
 10
4.575626885035553
 20
-9.827085099867366
 30
0.0
  0
SPLINE
  5
BA
330
70
100
AcDbEntity
  8
Layer 1
 62
    18
420
        0
370
     5
100
AcDbSpline
210
0.0
220
0.0
230
1.0
 70
     8
 71
     3
 72
     8
 73
     4
 74
     0
 42
0.0000000001
 43
0.0000000001
 40
0.0
 40
0.0
 40
0.0
 40
0.0
 40
1.0
 40
1.0
 40
1.0
 40
1.0
 10
4.575626885035553
 20
-7.532123959388323
 30
0.0
 10
4.55387173771559
 20
-7.53250369689729
 30
0.0
 10
4.536434463956601
 20
-7.55024799558771
 30
0.0
 10
4.536434463956601
 20
-7.572006456826708
 30
0.0
  0
SPLINE
  5
BB
330
70
100
AcDbEntity
  8
Layer 1
 62
    18
420
        0
370
     5
100
AcDbSpline
210
0.0
220
0.0
230
1.0
 70
     8
 71
     3
 72
     8
 73
     4
 74
     0
 42
0.0000000001
 43
0.0000000001
 40
0.0
 40
0.0
 40
0.0
 40
0.0
 40
1.0
 40
1.0
 40
1.0
 40
1.0
 10
4.069847850691695
 20
-12.70917060780327
 30
0.0
 10
4.075493706911174
 20
-12.715870898637
 30
0.0
 10
4.081227078277619
 20
-12.72249695531316
 30
0.0
 10
4.087046489617326
 20
-12.72904707297364
 30
0.0
  0
SPLINE
  5
BC
330
70
100
AcDbEntity
  8
Layer 1
 62
    18
420
        0
370
     5
100
AcDbSpline
210
0.0
220
0.0
230
1.0
 70
     8
 71
     3
 72
     8
 73
     4
 74
     0
 42
0.0000000001
 43
0.0000000001
 40
0.0
 40
0.0
 40
0.0
 40
0.0
 40
1.0
 40
1.0
 40
1.0
 40
1.0
 10
4.054161489166732
 20
-12.69008196013922
 30
0.0
 10
4.059311638228728
 20
-12.69650905966364
 30
0.0
 10
4.064540822715545
 20
-12.70287242570622
 30
0.0
 10
4.069847850689496
 20
-12.70917060780443
 30
0.0
  0
SPLINE
  5
BD
330
70
100
AcDbEntity
  8
Layer 1
 62
    18
420
        0
370
     5
100
AcDbSpline
210
0.0
220
0.0
230
1.0
 70
     8
 71
     3
 72
    11
 73
     7
 74
     0
 42
0.0000000001
 43
0.0000000001
 40
0.0
 40
0.0
 40
0.0
 40
0.0
 40
1.0
 40
1.0
 40
1.0
 40
2.0
 40
2.0
 40
2.0
 40
2.0
 10
5.174668146580365
 20
-13.00793294103596
 30
0.0
 10
5.692600638756466
 20
-12.82067008909436
 30
0.0
 10
5.960661346111325
 20
-12.24899631029355
 30
0.0
 10
5.773398494169744
 20
-11.73106381811736
 30
0.0
 10
5.672666416730357
 20
-11.45245855621248
 30
0.0
 10
5.453273407220067
 20
-11.23306554703385
 30
0.0
 10
5.174668145162917
 20
-11.13233347001556
 30
0.0
  0
SPLINE
  5
BE
330
70
100
AcDbEntity
  8
Layer 1
 62
    18
420
        0
370
     5
100
AcDbSpline
210
0.0
220
0.0
230
1.0
 70
     8
 71
     3
 72
    11
 73
     7
 74
     0
 42
0.0000000001
 43
0.0000000001
 40
0.0
 40
0.0
 40
0.0
 40
0.0
 40
1.0
 40
1.0
 40
1.0
 40
2.0
 40
2.0
 40
2.0
 40
2.0
 10
4.49652937183882
 20
-11.13233347031554
 30
0.0
 10
3.978596879545357
 20
-11.31959632193267
 30
0.0
 10
3.710536171832308
 20
-11.89127010056551
 30
0.0
 10
3.897799023449376
 20
-12.40920259285899
 30
0.0
 10
3.998531100549573
 20
-12.68780785437166
 30
0.0
 10
4.217924109380811
 20
-12.90720086345077
 30
0.0
 10
4.496529370779815
 20
-13.00793294086558
 30
0.0
  0
SPLINE
  5
BF
330
70
100
AcDbEntity
  8
Layer 1
 62
    18
420
        0
370
     5
100
AcDbSpline
210
0.0
220
0.0
230
1.0
 70
     8
 71
     3
 72
    11
 73
     7
 74
     0
 42
0.0000000001
 43
0.0000000001
 40
0.0
 40
0.0
 40
0.0
 40
0.0
 40
1.0
 40
1.0
 40
1.0
 40
2.0
 40
2.0
 40
2.0
 40
2.0
 10
5.174736780507916
 20
-12.96537506259253
 30
0.0
 10
5.669165205434574
 20
-12.77807430517941
 30
0.0
 10
5.918141373139493
 20
-12.22542360911653
 30
0.0
 10
5.730840615726378
 20
-11.73099518418987
 30
0.0
 10
5.633685413945335
 20
-11.47452909161509
 30
0.0
 10
5.431202895531024
 20
-11.27204656750551
 30
0.0
 10
5.174736805688994
 20
-11.17489135851062
 30
0.0
  0
SPLINE
  5
C0
330
70
100
AcDbEntity
  8
Layer 1
 62
    18
420
        0
370
     5
100
AcDbSpline
210
0.0
220
0.0
230
1.0
 70
     8
 71
     3
 72
    11
 73
     7
 74
     0
 42
0.0000000001
 43
0.0000000001
 40
0.0
 40
0.0
 40
0.0
 40
0.0
 40
1.0
 40
1.0
 40
1.0
 40
2.0
 40
2.0
 40
2.0
 40
2.0
 10
4.496460737323685
 20
-11.17489134897144
 30
0.0
 10
4.002032312396989
 20
-11.36219210638455
 30
0.0
 10
3.753056144692082
 20
-11.91484280244751
 30
0.0
 10
3.940356902105223
 20
-12.40927122737414
 30
0.0
 10
4.037512103886228
 20
-12.6657373199489
 30
0.0
 10
4.239994622300539
 20
-12.86821984405851
 30
0.0
 10
4.496460712142568
 20
-12.96537505305339
 30
0.0
  0
SPLINE
  5
C1
330
70
100
AcDbEntity
  8
Layer 1
 62
    18
420
        0
370
     5
100
AcDbSpline
210
0.0
220
0.0
230
1.0
 70
     8
 71
     3
 72
     8
 73
     4
 74
     0
 42
0.0000000001
 43
0.0000000001
 40
0.0
 40
0.0
 40
0.0
 40
0.0
 40
1.0
 40
1.0
 40
1.0
 40
1.0
 10
4.496477392957179
 20
-11.94209486288549
 30
0.0
 10
4.46532266487678
 20
-12.02461103502327
 30
0.0
 10
4.465322675832238
 20
-12.11565546565213
 30
0.0
 10
4.496477423771125
 20
-12.19817163029218
 30
0.0
  0
SPLINE
  5
C2
330
70
100
AcDbEntity
  8
Layer 1
 62
    18
420
        0
370
     5
100
AcDbSpline
210
0.0
220
0.0
230
1.0
 70
     8
 71
     3
 72
     8
 73
     4
 74
     0
 42
0.0000000001
 43
0.0000000001
 40
0.0
 40
0.0
 40
0.0
 40
0.0
 40
1.0
 40
1.0
 40
1.0
 40
1.0
 10
5.174720124874384
 20
-12.19817154867868
 30
0.0
 10
5.205874852954782
 20
-12.11565537654087
 30
0.0
 10
5.205874841999363
 20
-12.02461094591189
 30
0.0
 10
5.174720094060439
 20
-11.94209478127183
 30
0.0
  0
LINE
  5
C3
330
70
100
AcDbEntity
  8
Layer 1
 62
    18
420
        0
370
     5
100
AcDbLine
 10
4.496381236331646
 20
-12.14568457767541
 30
0.0
 11
4.496381236331646
 21
-12.14568457767541
 31
0.0
  0
LINE
  5
C4
330
70
100
AcDbEntity
  8
Layer 1
 62
    18
420
        0
370
     5
100
AcDbLine
 10
4.496381236336914
 20
-11.99458183386491
 30
0.0
 11
4.496381236336914
 21
-11.99458183386491
 31
0.0
  0
LINE
  5
C5
330
70
100
AcDbEntity
  8
Layer 1
 62
    18
420
        0
370
     5
100
AcDbLine
 10
5.174816281499905
 20
-11.99458183388856
 30
0.0
 11
5.174816281499905
 21
-11.99458183388856
 31
0.0
  0
LINE
  5
C6
330
70
100
AcDbEntity
  8
Layer 1
 62
    18
420
        0
370
     5
100
AcDbLine
 10
5.174816281494637
 20
-12.1456845776991
 30
0.0
 11
5.174816281494637
 21
-12.1456845776991
 31
0.0
  0
SPLINE
  5
C7
330
70
100
AcDbEntity
  8
Layer 1
 62
    18
420
        0
370
     5
100
AcDbSpline
210
0.0
220
0.0
230
1.0
 70
     8
 71
     3
 72
    17
 73
    13
 74
     0
 42
0.0000000001
 43
0.0000000001
 40
0.0
 40
0.0
 40
0.0
 40
0.0
 40
1.0
 40
1.0
 40
1.0
 40
2.0
 40
2.0
 40
2.0
 40
3.0
 40
3.0
 40
3.0
 40
4.0
 40
4.0
 40
4.0
 40
4.0
 10
5.174697927896241
 20
-14.04805000106254
 30
0.0
 10
7.093190599363045
 20
-13.86077070135426
 30
0.0
 10
8.496616328700383
 20
-12.15370523347254
 30
0.0
 10
8.309337028992192
 20
-10.23521256200565
 30
0.0
 10
8.122057729283987
 20
-8.316719890538845
 30
0.0
 10
6.41499226140215
 20
-6.913294161201506
 30
0.0
 10
4.496499589935347
 20
-7.100573460909723
 30
0.0
 10
2.578006918468531
 20
-7.287852760617901
 30
0.0
 10
1.174581189131193
 20
-8.994918228499727
 30
0.0
 10
1.361860488839372
 20
-10.91341089996649
 30
0.0
 10
1.5238566395318
 20
-12.57290251699775
 30
0.0
 10
2.837007973672875
 20
-13.88605385083403
 30
0.0
 10
4.49649959074169
 20
-14.04805000114124
 30
0.0
  0
SPLINE
  5
C8
330
70
100
AcDbEntity
  8
Layer 1
 62
    18
420
        0
370
     5
100
AcDbSpline
210
0.0
220
0.0
230
1.0
 70
     8
 71
     3
 72
    17
 73
    13
 74
     0
 42
0.0000000001
 43
0.0000000001
 40
0.0
 40
0.0
 40
0.0
 40
0.0
 40
1.0
 40
1.0
 40
1.0
 40
2.0
 40
2.0
 40
2.0
 40
3.0
 40
3.0
 40
3.0
 40
4.0
 40
4.0
 40
4.0
 40
4.0
 10
5.174691830518995
 20
-13.94895414343786
 30
0.0
 10
7.03845537104827
 20
-13.76167821121809
 30
0.0
 10
8.397517103587208
 20
-12.09898219991212
 30
0.0
 10
8.210241171367492
 20
-10.2352186593829
 30
0.0
 10
8.022965239147753
 20
-8.371455118853646
 30
0.0
 10
6.360269227841828
 20
-7.012393386314707
 30
0.0
 10
4.496505687312605
 20
-7.199669318534447
 30
0.0
 10
2.632742146783332
 20
-7.386945250754175
 30
0.0
 10
1.273680414244381
 20
-9.049641262060049
 30
0.0
 10
1.460956346464083
 20
-10.91340480258933
 30
0.0
 10
1.622226309102933
 20
-12.51835784159559
 30
0.0
 10
2.891552654565265
 20
-13.78768418458561
 30
0.0
 10
4.496505693885675
 20
-13.9489541440983
 30
0.0
  0
SPLINE
  5
C9
330
70
100
AcDbEntity
  8
Layer 1
 62
    18
420
        0
370
     5
100
AcDbSpline
210
0.0
220
0.0
230
1.0
 70
     8
 71
     3
 72
    17
 73
    13
 74
     0
 42
0.0000000001
 43
0.0000000001
 40
0.0
 40
0.0
 40
0.0
 40
0.0
 40
1.0
 40
1.0
 40
1.0
 40
2.0
 40
2.0
 40
2.0
 40
3.0
 40
3.0
 40
3.0
 40
4.0
 40
4.0
 40
4.0
 40
4.0
 10
4.536409790549706
 20
-8.338946306997222
 30
0.0
 10
4.127970945580778
 20
-8.504183811543446
 30
0.0
 10
3.930817305176623
 20
-8.969240379587365
 30
0.0
 10
4.096054809722823
 20
-9.377679224556256
 30
0.0
 10
4.261292314269022
 20
-9.786118069525173
 30
0.0
 10
4.726348882312966
 20
-9.98327170992939
 30
0.0
 10
5.134787727281895
 20
-9.818034205383153
 30
0.0
 10
5.543226572250798
 20
-9.652796700836965
 30
0.0
 10
5.740380212654978
 20
-9.187740132792997
 30
0.0
 10
5.575142708108753
 20
-8.77930128782413
 30
0.0
 10
5.49407686398893
 20
-8.57892038864707
 30
0.0
 10
5.335168626299187
 20
-8.42001215099588
 30
0.0
 10
5.134787727102485
 20
-8.33894630692464
 30
0.0
  0
SPLINE
  5
CA
330
70
100
AcDbEntity
  8
Layer 1
 62
    18
420
        0
370
     5
100
AcDbSpline
210
0.0
220
0.0
230
1.0
 70
     8
 71
     3
 72
    11
 73
     7
 74
     0
 42
0.0000000001
 43
0.0000000001
 40
0.0
 40
0.0
 40
0.0
 40
0.0
 40
1.0
 40
1.0
 40
1.0
 40
2.0
 40
2.0
 40
2.0
 40
2.0
 10
5.134848708032007
 20
-9.775549519114873
 30
0.0
 10
5.519823908673591
 20
-9.610278335830368
 30
0.0
 10
5.697929205125015
 20
-9.164215507715601
 30
0.0
 10
5.532658021840486
 20
-8.779240307074006
 30
0.0
 10
5.455945400435894
 20
-8.600549405066379
 30
0.0
 10
5.31353860524051
 20
-8.458142840532381
 30
0.0
 10
5.134847578978868
 20
-8.381430508560166
 30
0.0
  0
SPLINE
  5
CB
330
70
100
AcDbEntity
  8
Layer 1
 62
    18
420
        0
370
     5
100
AcDbSpline
210
0.0
220
0.0
230
1.0
 70
     8
 71
     3
 72
    11
 73
     7
 74
     0
 42
0.0000000001
 43
0.0000000001
 40
0.0
 40
0.0
 40
0.0
 40
0.0
 40
1.0
 40
1.0
 40
1.0
 40
2.0
 40
2.0
 40
2.0
 40
2.0
 10
4.536349940328451
 20
-8.381430507926641
 30
0.0
 10
4.151374471641601
 20
-8.546701066837309
 30
0.0
 10
3.973268451741558
 20
-8.992763606090647
 30
0.0
 10
4.138539010652203
 20
-9.37773907477746
 30
0.0
 10
4.215251342463854
 20
-9.556430101708782
 30
0.0
 10
4.357657907277231
 20
-9.698836897486721
 30
0.0
 10
4.536348809791079
 20
-9.775549519111235
 30
0.0
  0
SPLINE
  5
CC
330
70
100
AcDbEntity
  8
Layer 1
 62
    18
420
        0
370
     5
100
AcDbSpline
210
0.0
220
0.0
230
1.0
 70
     8
 71
     3
 72
     8
 73
     4
 74
     0
 42
0.0000000001
 43
0.0000000001
 40
0.0
 40
0.0
 40
0.0
 40
0.0
 40
1.0
 40
1.0
 40
1.0
 40
1.0
 10
4.536324270104336
 20
-8.873499460699097
 30
0.0
 10
4.451692308279815
 20
-8.997057140698643
 30
0.0
 10
4.451692307227378
 20
-9.159923366720096
 30
0.0
 10
4.536324267454978
 20
-9.283481047813387
 30
0.0
  0
SPLINE
  5
CD
330
70
100
AcDbEntity
  8
Layer 1
 62
    18
420
        0
370
     5
100
AcDbSpline
210
0.0
220
0.0
230
1.0
 70
     8
 71
     3
 72
     8
 73
     4
 74
     0
 42
0.0000000001
 43
0.0000000001
 40
0.0
 40
0.0
 40
0.0
 40
0.0
 40
1.0
 40
1.0
 40
1.0
 40
1.0
 10
5.134873257003682
 20
-9.283481038138182
 30
0.0
 10
5.219505210811146
 20
-9.1599233578502
 30
0.0
 10
5.219505207131343
 20
-8.997057137182107
 30
0.0
 10
5.134873247740491
 20
-8.873499460718448
 30
0.0
  0
SPLINE
  5
CE
330
70
100
AcDbEntity
  8
Layer 1
 62
    18
420
        0
370
     5
100
AcDbSpline
210
0.0
220
0.0
230
1.0
 70
     8
 71
     3
 72
     8
 73
     4
 74
     0
 42
0.0000000001
 43
0.0000000001
 40
0.0
 40
0.0
 40
0.0
 40
0.0
 40
1.0
 40
1.0
 40
1.0
 40
1.0
 10
5.095570632796023
 20
-9.827085099867366
 30
0.0
 10
5.117325780115972
 20
-9.826705362358298
 30
0.0
 10
5.134763053874962
 20
-9.808961063667966
 30
0.0
 10
5.134763053874962
 20
-9.787202602428907
 30
0.0
  0
SPLINE
  5
CF
330
70
100
AcDbEntity
  8
Layer 1
 62
    18
420
        0
370
     5
100
AcDbSpline
210
0.0
220
0.0
230
1.0
 70
     8
 71
     3
 72
     8
 73
     4
 74
     0
 42
0.0000000001
 43
0.0000000001
 40
0.0
 40
0.0
 40
0.0
 40
0.0
 40
1.0
 40
1.0
 40
1.0
 40
1.0
 10
5.134763053874962
 20
-7.572006456826708
 30
0.0
 10
5.134763053874962
 20
-7.55024799558771
 30
0.0
 10
5.117325780115972
 20
-7.53250369689729
 30
0.0
 10
5.095570632796023
 20
-7.532123959388323
 30
0.0
  0
SPLINE
  5
D0
330
70
100
AcDbEntity
  8
Layer 1
 62
    18
420
        0
370
     5
100
AcDbSpline
210
0.0
220
0.0
230
1.0
 70
     8
 71
     3
 72
     8
 73
     4
 74
     0
 42
0.0000000001
 43
0.0000000001
 40
0.0
 40
0.0
 40
0.0
 40
0.0
 40
1.0
 40
1.0
 40
1.0
 40
1.0
 10
1.345348651058682
 20
-1.532458818651851
 30
0.0
 10
1.345348651058682
 20
-1.587101450391678
 30
0.0
 10
1.389323383697956
 20
-1.63156727784408
 30
0.0
 10
1.443962645856446
 20
-1.632174100903625
 30
0.0
  0
SPLINE
  5
D1
330
70
100
AcDbEntity
  8
Layer 1
 62
    18
420
        0
370
     5
100
AcDbSpline
210
0.0
220
0.0
230
1.0
 70
     8
 71
     3
 72
     8
 73
     4
 74
     0
 42
0.0000000001
 43
0.0000000001
 40
0.0
 40
0.0
 40
0.0
 40
0.0
 40
1.0
 40
1.0
 40
1.0
 40
1.0
 10
4.03782730569128
 20
-3.252226416850046
 30
0.0
 10
4.03782730569128
 20
-3.273984878089044
 30
0.0
 10
4.055264579450307
 20
-3.291729176779489
 30
0.0
 10
4.077019726770294
 20
-3.29210891428843
 30
0.0
  0
SPLINE
  5
D2
330
70
100
AcDbEntity
  8
Layer 1
 62
    18
420
        0
370
     5
100
AcDbSpline
210
0.0
220
0.0
230
1.0
 70
     8
 71
     3
 72
     8
 73
     4
 74
     0
 42
0.0000000001
 43
0.0000000001
 40
0.0
 40
0.0
 40
0.0
 40
0.0
 40
1.0
 40
1.0
 40
1.0
 40
1.0
 10
3.838384442385164
 20
-4.163657619921031
 30
0.0
 10
3.838384442385164
 20
-4.185687470294358
 30
0.0
 10
3.856243164673085
 20
-4.20354619258228
 30
0.0
 10
3.878273015046412
 20
-4.20354619258228
 30
0.0
  0
SPLINE
  5
D3
330
70
100
AcDbEntity
  8
Layer 1
 62
    18
420
        0
370
     5
100
AcDbSpline
210
0.0
220
0.0
230
1.0
 70
     8
 71
     3
 72
    11
 73
     7
 74
     0
 42
0.0000000001
 43
0.0000000001
 40
0.0
 40
0.0
 40
0.0
 40
0.0
 40
1.0
 40
1.0
 40
1.0
 40
2.0
 40
2.0
 40
2.0
 40
2.0
 10
4.049793877489656
 20
-1.840972051448488
 30
0.0
 10
4.064936896022294
 20
-1.834363096336485
 30
0.0
 10
4.071855121340844
 20
-1.81672963764519
 30
0.0
 10
4.065246166228878
 20
-1.801586619112551
 30
0.0
 10
4.062228209645783
 20
-1.794671611869489
 30
0.0
 10
4.056708884732706
 20
-1.789152286956436
 30
0.0
 10
4.049793877489656
 20
-1.786134330373329
 30
0.0
  0
SPLINE
  5
D4
330
70
100
AcDbEntity
  8
Layer 1
 62
    18
420
        0
370
     5
100
AcDbSpline
210
0.0
220
0.0
230
1.0
 70
     8
 71
     3
 72
     8
 73
     4
 74
     0
 42
0.0000000001
 43
0.0000000001
 40
0.0
 40
0.0
 40
0.0
 40
0.0
 40
1.0
 40
1.0
 40
1.0
 40
1.0
 10
3.847146761715622
 20
-1.701748081854298
 30
0.0
 10
3.841536342871904
 20
-1.707358500698066
 30
0.0
 10
3.838384442385164
 20
-1.71496786160032
 30
0.0
 10
3.838384442385164
 20
-1.722902192019786
 30
0.0
  0
SPLINE
  5
D5
330
70
100
AcDbEntity
  8
Layer 1
 62
    18
420
        0
370
     5
100
AcDbSpline
210
0.0
220
0.0
230
1.0
 70
     8
 71
     3
 72
    11
 73
     7
 74
     0
 42
0.0000000001
 43
0.0000000001
 40
0.0
 40
0.0
 40
0.0
 40
0.0
 40
1.0
 40
1.0
 40
1.0
 40
2.0
 40
2.0
 40
2.0
 40
2.0
 10
3.850351014183539
 20
-2.267450063871087
 30
0.0
 10
3.865494032716178
 20
-2.260841108759109
 30
0.0
 10
3.872412258034728
 20
-2.243207650067776
 30
0.0
 10
3.86580330292275
 20
-2.228064631535137
 30
0.0
 10
3.862785346339667
 20
-2.221149624292125
 30
0.0
 10
3.857266021426589
 20
-2.215630299379035
 30
0.0
 10
3.850351014183539
 20
-2.212612342795965
 30
0.0
  0
SPLINE
  5
D6
330
70
100
AcDbEntity
  8
Layer 1
 62
    18
420
        0
370
     5
100
AcDbSpline
210
0.0
220
0.0
230
1.0
 70
     8
 71
     3
 72
    11
 73
     7
 74
     0
 42
0.0000000001
 43
0.0000000001
 40
0.0
 40
0.0
 40
0.0
 40
0.0
 40
1.0
 40
1.0
 40
1.0
 40
2.0
 40
2.0
 40
2.0
 40
2.0
 10
4.03782730569133
 20
-1.636239004815517
 30
0.0
 10
4.03782730569133
 20
-1.636239004815517
 30
0.0
 10
4.03782730569133
 20
-1.767855090064358
 30
0.0
 10
4.03782730569133
 20
-1.767855090064358
 30
0.0
 10
4.03782730569133
 20
-1.77578538045293
 30
0.0
 10
4.042525646291967
 20
-1.782962214267336
 30
0.0
 10
4.049793877489656
 20
-1.786134330422745
 30
0.0
  0
SPLINE
  5
D7
330
70
100
AcDbEntity
  8
Layer 1
 62
    18
420
        0
370
     5
100
AcDbSpline
210
0.0
220
0.0
230
1.0
 70
     8
 71
     3
 72
     8
 73
     4
 74
     0
 42
0.0000000001
 43
0.0000000001
 40
0.0
 40
0.0
 40
0.0
 40
0.0
 40
1.0
 40
1.0
 40
1.0
 40
1.0
 10
4.049793877489656
 20
-1.840972051498776
 30
0.0
 10
4.042525646291967
 20
-1.84414416765421
 30
0.0
 10
4.03782730569133
 20
-1.851321001468591
 30
0.0
 10
4.03782730569133
 20
-1.859251291857162
 30
0.0
  0
SPLINE
  5
D8
330
70
100
AcDbEntity
  8
Layer 1
 62
    18
420
        0
370
     5
100
AcDbSpline
210
0.0
220
0.0
230
1.0
 70
     8
 71
     3
 72
     8
 73
     4
 74
     0
 42
0.0000000001
 43
0.0000000001
 40
0.0
 40
0.0
 40
0.0
 40
0.0
 40
1.0
 40
1.0
 40
1.0
 40
1.0
 10
3.838384442385164
 20
-2.194333102387241
 30
0.0
 10
3.838384442385164
 20
-2.202263392775825
 30
0.0
 10
3.843082782985852
 20
-2.209440226590231
 30
0.0
 10
3.850351014183539
 20
-2.21261234274564
 30
0.0
  0
SPLINE
  5
D9
330
70
100
AcDbEntity
  8
Layer 1
 62
    18
420
        0
370
     5
100
AcDbSpline
210
0.0
220
0.0
230
1.0
 70
     8
 71
     3
 72
     8
 73
     4
 74
     0
 42
0.0000000001
 43
0.0000000001
 40
0.0
 40
0.0
 40
0.0
 40
0.0
 40
1.0
 40
1.0
 40
1.0
 40
1.0
 10
3.850351014183539
 20
-2.267450063821671
 30
0.0
 10
3.843082782985852
 20
-2.270622179977117
 30
0.0
 10
3.838384442385164
 20
-2.277799013791486
 30
0.0
 10
3.838384442385164
 20
-2.285729304180057
 30
0.0
  0
CIRCLE
  5
DA
330
70
100
AcDbEntity
  8
Layer 1
 62
    18
420
        0
370
     5
100
AcDbCircle
 10
4.835598758915794
 20
-3.911692112891289
 30
0.0
 40
0.2991642949591945
  0
SPLINE
  5
DB
330
70
100
AcDbEntity
  8
Layer 1
 62
    18
420
        0
370
     5
100
AcDbSpline
210
0.0
220
0.0
230
1.0
 70
     8
 71
     3
 72
     8
 73
     4
 74
     0
 42
0.0000000001
 43
0.0000000001
 40
0.0
 40
0.0
 40
0.0
 40
0.0
 40
1.0
 40
1.0
 40
1.0
 40
1.0
 10
5.792924502785151
 20
-4.20354619258228
 30
0.0
 10
5.814954353158478
 20
-4.20354619258228
 30
0.0
 10
5.832813075446412
 20
-4.185687470294358
 30
0.0
 10
5.832813075446412
 20
-4.163657619921031
 30
0.0
  0
SPLINE
  5
DC
330
70
100
AcDbEntity
  8
Layer 1
 62
    18
420
        0
370
     5
100
AcDbSpline
210
0.0
220
0.0
230
1.0
 70
     8
 71
     3
 72
     8
 73
     4
 74
     0
 42
0.0000000001
 43
0.0000000001
 40
0.0
 40
0.0
 40
0.0
 40
0.0
 40
1.0
 40
1.0
 40
1.0
 40
1.0
 10
5.594177791061357
 20
-3.29210891428843
 30
0.0
 10
5.615932938381281
 20
-3.291729176779464
 30
0.0
 10
5.633370212140284
 20
-3.273984878089006
 30
0.0
 10
5.633370212140284
 20
-3.252226416850046
 30
0.0
  0
SPLINE
  5
DD
330
70
100
AcDbEntity
  8
Layer 1
 62
    18
420
        0
370
     5
100
AcDbSpline
210
0.0
220
0.0
230
1.0
 70
     8
 71
     3
 72
    11
 73
     7
 74
     0
 42
0.0000000001
 43
0.0000000001
 40
0.0
 40
0.0
 40
0.0
 40
0.0
 40
1.0
 40
1.0
 40
1.0
 40
2.0
 40
2.0
 40
2.0
 40
2.0
 10
5.621403640341908
 20
-1.786134330373329
 30
0.0
 10
5.606260621809269
 20
-1.792743285485332
 30
0.0
 10
5.599342396490706
 20
-1.810376744176626
 30
0.0
 10
5.605951351602684
 20
-1.825519762709265
 30
0.0
 10
5.60896930818578
 20
-1.832434769952328
 30
0.0
 10
5.614488633098858
 20
-1.837954094865381
 30
0.0
 10
5.621403640341908
 20
-1.840972051448488
 30
0.0
  0
SPLINE
  5
DE
330
70
100
AcDbEntity
  8
Layer 1
 62
    18
420
        0
370
     5
100
AcDbSpline
210
0.0
220
0.0
230
1.0
 70
     8
 71
     3
 72
     8
 73
     4
 74
     0
 42
0.0000000001
 43
0.0000000001
 40
0.0
 40
0.0
 40
0.0
 40
0.0
 40
1.0
 40
1.0
 40
1.0
 40
1.0
 10
5.832813075446412
 20
-1.722902192019786
 30
0.0
 10
5.832813075446412
 20
-1.71496786160032
 30
0.0
 10
5.829661174959672
 20
-1.707358500698066
 30
0.0
 10
5.824050756115942
 20
-1.701748081854298
 30
0.0
  0
SPLINE
  5
DF
330
70
100
AcDbEntity
  8
Layer 1
 62
    18
420
        0
370
     5
100
AcDbSpline
210
0.0
220
0.0
230
1.0
 70
     8
 71
     3
 72
    11
 73
     7
 74
     0
 42
0.0000000001
 43
0.0000000001
 40
0.0
 40
0.0
 40
0.0
 40
0.0
 40
1.0
 40
1.0
 40
1.0
 40
2.0
 40
2.0
 40
2.0
 40
2.0
 10
5.820846503648036
 20
-2.212612342795965
 30
0.0
 10
5.805703485115397
 20
-2.21922129790793
 30
0.0
 10
5.798785259796836
 20
-2.236854756599263
 30
0.0
 10
5.805394214908801
 20
-2.251997775131889
 30
0.0
 10
5.808412171491895
 20
-2.258912782374927
 30
0.0
 10
5.813931496404986
 20
-2.26443210728803
 30
0.0
 10
5.820846503648036
 20
-2.267450063871087
 30
0.0
  0
SPLINE
  5
E0
330
70
100
AcDbEntity
  8
Layer 1
 62
    18
420
        0
370
     5
100
AcDbSpline
210
0.0
220
0.0
230
1.0
 70
     8
 71
     3
 72
    11
 73
     7
 74
     0
 42
0.0000000001
 43
0.0000000001
 40
0.0
 40
0.0
 40
0.0
 40
0.0
 40
1.0
 40
1.0
 40
1.0
 40
2.0
 40
2.0
 40
2.0
 40
2.0
 10
5.621403640341908
 20
-1.786134330422745
 30
0.0
 10
5.628671871539609
 20
-1.782962214267336
 30
0.0
 10
5.633370212140284
 20
-1.77578538045293
 30
0.0
 10
5.633370212140284
 20
-1.767855090064358
 30
0.0
 10
5.633370212140284
 20
-1.767855090064358
 30
0.0
 10
5.633370212140284
 20
-1.632174100883136
 30
0.0
 10
5.633370212140284
 20
-1.632174100883136
 30
0.0
  0
SPLINE
  5
E1
330
70
100
AcDbEntity
  8
Layer 1
 62
    18
420
        0
370
     5
100
AcDbSpline
210
0.0
220
0.0
230
1.0
 70
     8
 71
     3
 72
     8
 73
     4
 74
     0
 42
0.0000000001
 43
0.0000000001
 40
0.0
 40
0.0
 40
0.0
 40
0.0
 40
1.0
 40
1.0
 40
1.0
 40
1.0
 10
5.633370212140284
 20
-1.859251291857162
 30
0.0
 10
5.633370212140284
 20
-1.851321001468591
 30
0.0
 10
5.628671871539609
 20
-1.84414416765421
 30
0.0
 10
5.621403640341908
 20
-1.840972051498776
 30
0.0
  0
SPLINE
  5
E2
330
70
100
AcDbEntity
  8
Layer 1
 62
    18
420
        0
370
     5
100
AcDbSpline
210
0.0
220
0.0
230
1.0
 70
     8
 71
     3
 72
     8
 73
     4
 74
     0
 42
0.0000000001
 43
0.0000000001
 40
0.0
 40
0.0
 40
0.0
 40
0.0
 40
1.0
 40
1.0
 40
1.0
 40
1.0
 10
5.820846503648036
 20
-2.21261234274564
 30
0.0
 10
5.828114734845724
 20
-2.209440226590231
 30
0.0
 10
5.832813075446412
 20
-2.202263392775825
 30
0.0
 10
5.832813075446412
 20
-2.194333102387241
 30
0.0
  0
SPLINE
  5
E3
330
70
100
AcDbEntity
  8
Layer 1
 62
    18
420
        0
370
     5
100
AcDbSpline
210
0.0
220
0.0
230
1.0
 70
     8
 71
     3
 72
     8
 73
     4
 74
     0
 42
0.0000000001
 43
0.0000000001
 40
0.0
 40
0.0
 40
0.0
 40
0.0
 40
1.0
 40
1.0
 40
1.0
 40
1.0
 10
5.832813075446412
 20
-2.285729304180057
 30
0.0
 10
5.832813075446412
 20
-2.277799013791486
 30
0.0
 10
5.828114734845724
 20
-2.270622179977117
 30
0.0
 10
5.820846503648036
 20
-2.267450063821671
 30
0.0
  0
SPLINE
  5
E4
330
70
100
AcDbEntity
  8
Layer 1
 62
    18
420
        0
370
     5
100
AcDbSpline
210
0.0
220
0.0
230
1.0
 70
     8
 71
     3
 72
     8
 73
     4
 74
     0
 42
0.0000000001
 43
0.0000000001
 40
0.0
 40
0.0
 40
0.0
 40
0.0
 40
1.0
 40
1.0
 40
1.0
 40
1.0
 10
8.227234871975104
 20
-1.632174100903625
 30
0.0
 10
8.281874134133607
 20
-1.63156727784408
 30
0.0
 10
8.325848866772918
 20
-1.587101450391678
 30
0.0
 10
8.325848866772918
 20
-1.532458818651851
 30
0.0
  0
SPLINE
  5
E5
330
70
100
AcDbEntity
  8
Layer 1
 62
    18
420
        0
370
     5
100
AcDbSpline
210
0.0
220
0.0
230
1.0
 70
     8
 71
     3
 72
     8
 73
     4
 74
     0
 42
0.0000000001
 43
0.0000000001
 40
0.0
 40
0.0
 40
0.0
 40
0.0
 40
1.0
 40
1.0
 40
1.0
 40
1.0
 10
14.71646305904498
 20
-10.57431173098611
 30
0.0
 10
14.71646305904498
 20
-10.72389393907615
 30
0.0
 10
14.71657295263359
 20
-10.87347612698714
 30
0.0
 10
14.71679273972199
 20
-11.023058173606
 30
0.0
  0
SPLINE
  5
E6
330
70
100
AcDbEntity
  8
Layer 1
 62
    18
420
        0
370
     5
100
AcDbSpline
210
0.0
220
0.0
230
1.0
 70
     8
 71
     3
 72
     8
 73
     4
 74
     0
 42
0.0000000001
 43
0.0000000001
 40
0.0
 40
0.0
 40
0.0
 40
0.0
 40
1.0
 40
1.0
 40
1.0
 40
1.0
 10
14.72704964965621
 20
-13.11720823793563
 30
0.0
 10
14.72940537050105
 20
-13.40012512314782
 30
0.0
 10
14.7321542284286
 20
-13.68303859830638
 30
0.0
 10
14.73529621547674
 20
-13.96594784395986
 30
0.0
  0
SPLINE
  5
E7
330
70
100
AcDbEntity
  8
Layer 1
 62
    18
420
        0
370
     5
100
AcDbSpline
210
0.0
220
0.0
230
1.0
 70
     8
 71
     3
 72
     8
 73
     4
 74
     0
 42
0.0000000001
 43
0.0000000001
 40
0.0
 40
0.0
 40
0.0
 40
0.0
 40
1.0
 40
1.0
 40
1.0
 40
1.0
 10
14.83501149770957
 20
-7.084061623129008
 30
0.0
 10
14.78036886596975
 20
-7.084061623129008
 30
0.0
 10
14.73590303851726
 20
-7.128036355768282
 30
0.0
 10
14.73529621545781
 20
-7.18267561792676
 30
0.0
  0
SPLINE
  5
E8
330
70
100
AcDbEntity
  8
Layer 1
 62
    18
420
        0
370
     5
100
AcDbSpline
210
0.0
220
0.0
230
1.0
 70
     8
 71
     3
 72
     8
 73
     4
 74
     0
 42
0.0000000001
 43
0.0000000001
 40
0.0
 40
0.0
 40
0.0
 40
0.0
 40
1.0
 40
1.0
 40
1.0
 40
1.0
 10
14.73529621545781
 20
-13.96594784404546
 30
0.0
 10
14.73590303851726
 20
-14.02058710620392
 30
0.0
 10
14.78036886596975
 20
-14.06456183884325
 30
0.0
 10
14.83501149770957
 20
-14.06456183884325
 30
0.0
  0
SPLINE
  5
E9
330
70
100
AcDbEntity
  8
Layer 1
 62
    18
420
        0
370
     5
100
AcDbSpline
210
0.0
220
0.0
230
1.0
 70
     8
 71
     3
 72
     8
 73
     4
 74
     0
 42
0.0000000001
 43
0.0000000001
 40
0.0
 40
0.0
 40
0.0
 40
0.0
 40
1.0
 40
1.0
 40
1.0
 40
1.0
 10
13.07536140207293
 20
-9.837069288335744
 30
0.0
 10
13.07574113958192
 20
-9.85882443565568
 30
0.0
 10
13.09348543827236
 20
-9.876261709414746
 30
0.0
 10
13.11524389951134
 20
-9.876261709414746
 30
0.0
  0
SPLINE
  5
EA
330
70
100
AcDbEntity
  8
Layer 1
 62
    18
420
        0
370
     5
100
AcDbSpline
210
0.0
220
0.0
230
1.0
 70
     8
 71
     3
 72
     8
 73
     4
 74
     0
 42
0.0000000001
 43
0.0000000001
 40
0.0
 40
0.0
 40
0.0
 40
0.0
 40
1.0
 40
1.0
 40
1.0
 40
1.0
 10
13.11524389951134
 20
-8.280718802965729
 30
0.0
 10
13.09348543827236
 20
-8.280718802965729
 30
0.0
 10
13.07574113958192
 20
-8.298156076724719
 30
0.0
 10
13.07536140207293
 20
-8.319911224044668
 30
0.0
  0
SPLINE
  5
EB
330
70
100
AcDbEntity
  8
Layer 1
 62
    18
420
        0
370
     5
100
AcDbSpline
210
0.0
220
0.0
230
1.0
 70
     8
 71
     3
 72
     8
 73
     4
 74
     0
 42
0.0000000001
 43
0.0000000001
 40
0.0
 40
0.0
 40
0.0
 40
0.0
 40
1.0
 40
1.0
 40
1.0
 40
1.0
 10
12.79483107109051
 20
-9.367682407984021
 30
0.0
 10
12.77280122292422
 20
-9.367682407984021
 30
0.0
 10
12.75494250155053
 20
-9.385541126827622
 30
0.0
 10
12.75494249842924
 20
-9.407570974993859
 30
0.0
  0
SPLINE
  5
EC
330
70
100
AcDbEntity
  8
Layer 1
 62
    18
420
        0
370
     5
100
AcDbSpline
210
0.0
220
0.0
230
1.0
 70
     8
 71
     3
 72
     8
 73
     4
 74
     0
 42
0.0000000001
 43
0.0000000001
 40
0.0
 40
0.0
 40
0.0
 40
0.0
 40
1.0
 40
1.0
 40
1.0
 40
1.0
 10
12.75494249842924
 20
-8.749409537710764
 30
0.0
 10
12.75494250172955
 20
-8.771439385750657
 30
0.0
 10
12.77280122305124
 20
-8.789298104396696
 30
0.0
 10
12.79483107109116
 20
-8.789298104396316
 30
0.0
  0
SPLINE
  5
ED
330
70
100
AcDbEntity
  8
Layer 1
 62
    18
420
        0
370
     5
100
AcDbSpline
210
0.0
220
0.0
230
1.0
 70
     8
 71
     3
 72
     8
 73
     4
 74
     0
 42
0.0000000001
 43
0.0000000001
 40
0.0
 40
0.0
 40
0.0
 40
0.0
 40
1.0
 40
1.0
 40
1.0
 40
1.0
 10
12.19580632958999
 20
-7.532123959388323
 30
0.0
 10
12.17405118226998
 20
-7.532503696897227
 30
0.0
 10
12.15661390851091
 20
-7.55024799558766
 30
0.0
 10
12.15661390851091
 20
-7.572006456826708
 30
0.0
  0
SPLINE
  5
EE
330
70
100
AcDbEntity
  8
Layer 1
 62
    18
420
        0
370
     5
100
AcDbSpline
210
0.0
220
0.0
230
1.0
 70
     8
 71
     3
 72
     8
 73
     4
 74
     0
 42
0.0000000001
 43
0.0000000001
 40
0.0
 40
0.0
 40
0.0
 40
0.0
 40
1.0
 40
1.0
 40
1.0
 40
1.0
 10
12.15661390851091
 20
-9.787202602428907
 30
0.0
 10
12.15661390851091
 20
-9.808961063667966
 30
0.0
 10
12.17405118226998
 20
-9.826705362358451
 30
0.0
 10
12.19580632958999
 20
-9.827085099867366
 30
0.0
  0
SPLINE
  5
EF
330
70
100
AcDbEntity
  8
Layer 1
 62
    18
420
        0
370
     5
100
AcDbSpline
210
0.0
220
0.0
230
1.0
 70
     8
 71
     3
 72
     8
 73
     4
 74
     0
 42
0.0000000001
 43
0.0000000001
 40
0.0
 40
0.0
 40
0.0
 40
0.0
 40
1.0
 40
1.0
 40
1.0
 40
1.0
 10
12.75494249842924
 20
-7.572006456826708
 30
0.0
 10
12.75494249842924
 20
-7.55024799558766
 30
0.0
 10
12.73750522467026
 20
-7.532503696897227
 30
0.0
 10
12.71575007735022
 20
-7.532123959388323
 30
0.0
  0
SPLINE
  5
F0
330
70
100
AcDbEntity
  8
Layer 1
 62
    18
420
        0
370
     5
100
AcDbSpline
210
0.0
220
0.0
230
1.0
 70
     8
 71
     3
 72
     8
 73
     4
 74
     0
 42
0.0000000001
 43
0.0000000001
 40
0.0
 40
0.0
 40
0.0
 40
0.0
 40
1.0
 40
1.0
 40
1.0
 40
1.0
 10
12.71575007735022
 20
-9.827085099867366
 30
0.0
 10
12.73750522467026
 20
-9.826705362358451
 30
0.0
 10
12.75494249842924
 20
-9.808961063667966
 30
0.0
 10
12.75494249842924
 20
-9.787202602428907
 30
0.0
  0
SPLINE
  5
F1
330
70
100
AcDbEntity
  8
Layer 1
 62
    18
420
        0
370
     5
100
AcDbSpline
210
0.0
220
0.0
230
1.0
 70
     8
 71
     3
 72
     8
 73
     4
 74
     0
 42
0.0000000001
 43
0.0000000001
 40
0.0
 40
0.0
 40
0.0
 40
0.0
 40
1.0
 40
1.0
 40
1.0
 40
1.0
 10
12.16392412387884
 20
-13.02745894965147
 30
0.0
 10
12.16392412387884
 20
-13.04948880002467
 30
0.0
 10
12.18178284616675
 20
-13.06734752231265
 30
0.0
 10
12.20381269654005
 20
-13.06734752231265
 30
0.0
  0
SPLINE
  5
F2
330
70
100
AcDbEntity
  8
Layer 1
 62
    18
420
        0
370
     5
100
AcDbSpline
210
0.0
220
0.0
230
1.0
 70
     8
 71
     3
 72
     8
 73
     4
 74
     0
 42
0.0000000001
 43
0.0000000001
 40
0.0
 40
0.0
 40
0.0
 40
0.0
 40
1.0
 40
1.0
 40
1.0
 40
1.0
 10
12.20381269654005
 20
-11.07291888925139
 30
0.0
 10
12.18178284616675
 20
-11.07291888925139
 30
0.0
 10
12.16392412387884
 20
-11.09077761153932
 30
0.0
 10
12.16392412387884
 20
-11.11280746191268
 30
0.0
  0
SPLINE
  5
F3
330
70
100
AcDbEntity
  8
Layer 1
 62
    18
420
        0
370
     5
100
AcDbSpline
210
0.0
220
0.0
230
1.0
 70
     8
 71
     3
 72
    11
 73
     7
 74
     0
 42
0.0000000001
 43
0.0000000001
 40
0.0
 40
0.0
 40
0.0
 40
0.0
 40
1.0
 40
1.0
 40
1.0
 40
2.0
 40
2.0
 40
2.0
 40
2.0
 10
14.58133598598806
 20
-9.864295137616307
 30
0.0
 10
14.57472703087604
 20
-9.849152119083681
 30
0.0
 10
14.55709357218476
 20
-9.842233893765119
 30
0.0
 10
14.54195055365214
 20
-9.848842848877135
 30
0.0
 10
14.53503554640908
 20
-9.851860805460141
 30
0.0
 10
14.52951622149599
 20
-9.857380130373257
 30
0.0
 10
14.52649826491294
 20
-9.864295137616307
 30
0.0
  0
SPLINE
  5
F4
330
70
100
AcDbEntity
  8
Layer 1
 62
    18
420
        0
370
     5
100
AcDbSpline
210
0.0
220
0.0
230
1.0
 70
     8
 71
     3
 72
    11
 73
     7
 74
     0
 42
0.0000000001
 43
0.0000000001
 40
0.0
 40
0.0
 40
0.0
 40
0.0
 40
1.0
 40
1.0
 40
1.0
 40
2.0
 40
2.0
 40
2.0
 40
2.0
 10
14.52649826491294
 20
-8.292685374764106
 30
0.0
 10
14.53310722002493
 20
-8.307828393296732
 30
0.0
 10
14.55074067871624
 20
-8.314746618615281
 30
0.0
 10
14.56588369724889
 20
-8.308137663503291
 30
0.0
 10
14.57279870449194
 20
-8.305119706920196
 30
0.0
 10
14.57831802940495
 20
-8.299600382007117
 30
0.0
 10
14.58133598598806
 20
-8.292685374764106
 30
0.0
  0
SPLINE
  5
F5
330
70
100
AcDbEntity
  8
Layer 1
 62
    18
420
        0
370
     5
100
AcDbSpline
210
0.0
220
0.0
230
1.0
 70
     8
 71
     3
 72
    11
 73
     7
 74
     0
 42
0.0000000001
 43
0.0000000001
 40
0.0
 40
0.0
 40
0.0
 40
0.0
 40
1.0
 40
1.0
 40
1.0
 40
2.0
 40
2.0
 40
2.0
 40
2.0
 10
14.15485797366515
 20
-13.05538095051424
 30
0.0
 10
14.14824901855316
 20
-13.04023793198159
 30
0.0
 10
14.13061555986185
 20
-13.03331970666302
 30
0.0
 10
14.1154725413292
 20
-13.03992866177512
 30
0.0
 10
14.10855753408615
 20
-13.0429466183582
 30
0.0
 10
14.10303820917314
 20
-13.04846594327119
 30
0.0
 10
14.10002025259003
 20
-13.05538095051424
 30
0.0
  0
SPLINE
  5
F6
330
70
100
AcDbEntity
  8
Layer 1
 62
    18
420
        0
370
     5
100
AcDbSpline
210
0.0
220
0.0
230
1.0
 70
     8
 71
     3
 72
    11
 73
     7
 74
     0
 42
0.0000000001
 43
0.0000000001
 40
0.0
 40
0.0
 40
0.0
 40
0.0
 40
1.0
 40
1.0
 40
1.0
 40
2.0
 40
2.0
 40
2.0
 40
2.0
 10
14.10002025259003
 20
-11.08488546104978
 30
0.0
 10
14.10662920770205
 20
-11.10002847958241
 30
0.0
 10
14.12426266639333
 20
-11.10694670490097
 30
0.0
 10
14.13940568492595
 20
-11.10033774978903
 30
0.0
 10
14.146320692169
 20
-11.09731979320594
 30
0.0
 10
14.15184001708207
 20
-11.09180046829283
 30
0.0
 10
14.15485797366515
 20
-11.08488546104978
 30
0.0
  0
SPLINE
  5
F7
330
70
100
AcDbEntity
  8
Layer 1
 62
    18
420
        0
370
     5
100
AcDbSpline
210
0.0
220
0.0
230
1.0
 70
     8
 71
     3
 72
     8
 73
     4
 74
     0
 42
0.0000000001
 43
0.0000000001
 40
0.0
 40
0.0
 40
0.0
 40
0.0
 40
1.0
 40
1.0
 40
1.0
 40
1.0
 10
14.64456812434163
 20
-13.06734752231265
 30
0.0
 10
14.65250245476116
 20
-13.06734752231265
 30
0.0
 10
14.66011181566349
 20
-13.0641956218258
 30
0.0
 10
14.66572223450728
 20
-13.05858520298203
 30
0.0
  0
SPLINE
  5
F8
330
70
100
AcDbEntity
  8
Layer 1
 62
    18
420
        0
370
     5
100
AcDbSpline
210
0.0
220
0.0
230
1.0
 70
     8
 71
     3
 72
     8
 73
     4
 74
     0
 42
0.0000000001
 43
0.0000000001
 40
0.0
 40
0.0
 40
0.0
 40
0.0
 40
1.0
 40
1.0
 40
1.0
 40
1.0
 10
14.66572223450728
 20
-11.08168120858211
 30
0.0
 10
14.66011181566349
 20
-11.07607078973822
 30
0.0
 10
14.65250245476116
 20
-11.07291888925139
 30
0.0
 10
14.64456812434163
 20
-11.07291888925139
 30
0.0
  0
SPLINE
  5
F9
330
70
100
AcDbEntity
  8
Layer 1
 62
    18
420
        0
370
     5
100
AcDbSpline
210
0.0
220
0.0
230
1.0
 70
     8
 71
     3
 72
     8
 73
     4
 74
     0
 42
0.0000000001
 43
0.0000000001
 40
0.0
 40
0.0
 40
0.0
 40
0.0
 40
1.0
 40
1.0
 40
1.0
 40
1.0
 10
14.508219024604
 20
-9.876261709414746
 30
0.0
 10
14.51614931499269
 20
-9.876261709414746
 30
0.0
 10
14.5233261488071
 20
-9.871563368813895
 30
0.0
 10
14.52649826496248
 20
-9.864295137616029
 30
0.0
  0
SPLINE
  5
FA
330
70
100
AcDbEntity
  8
Layer 1
 62
    18
420
        0
370
     5
100
AcDbSpline
210
0.0
220
0.0
230
1.0
 70
     8
 71
     3
 72
     8
 73
     4
 74
     0
 42
0.0000000001
 43
0.0000000001
 40
0.0
 40
0.0
 40
0.0
 40
0.0
 40
1.0
 40
1.0
 40
1.0
 40
1.0
 10
14.52649826496248
 20
-8.292685374764383
 30
0.0
 10
14.5233261488071
 20
-8.285417143566506
 30
0.0
 10
14.51614931499269
 20
-8.280718802965729
 30
0.0
 10
14.508219024604
 20
-8.280718802965729
 30
0.0
  0
SPLINE
  5
FB
330
70
100
AcDbEntity
  8
Layer 1
 62
    18
420
        0
370
     5
100
AcDbSpline
210
0.0
220
0.0
230
1.0
 70
     8
 71
     3
 72
     8
 73
     4
 74
     0
 42
0.0000000001
 43
0.0000000001
 40
0.0
 40
0.0
 40
0.0
 40
0.0
 40
1.0
 40
1.0
 40
1.0
 40
1.0
 10
14.59961522639673
 20
-8.280718802965729
 30
0.0
 10
14.59168493600822
 20
-8.280718802965729
 30
0.0
 10
14.58450810219379
 20
-8.285417143566354
 30
0.0
 10
14.58133598603838
 20
-8.292685374764106
 30
0.0
  0
SPLINE
  5
FC
330
70
100
AcDbEntity
  8
Layer 1
 62
    18
420
        0
370
     5
100
AcDbSpline
210
0.0
220
0.0
230
1.0
 70
     8
 71
     3
 72
     8
 73
     4
 74
     0
 42
0.0000000001
 43
0.0000000001
 40
0.0
 40
0.0
 40
0.0
 40
0.0
 40
1.0
 40
1.0
 40
1.0
 40
1.0
 10
14.58133598603838
 20
-9.864295137616307
 30
0.0
 10
14.58450810219379
 20
-9.871563368814046
 30
0.0
 10
14.59168493600822
 20
-9.876261709414746
 30
0.0
 10
14.59961522639673
 20
-9.876261709414746
 30
0.0
  0
SPLINE
  5
FD
330
70
100
AcDbEntity
  8
Layer 1
 62
    18
420
        0
370
     5
100
AcDbSpline
210
0.0
220
0.0
230
1.0
 70
     8
 71
     3
 72
     8
 73
     4
 74
     0
 42
0.0000000001
 43
0.0000000001
 40
0.0
 40
0.0
 40
0.0
 40
0.0
 40
1.0
 40
1.0
 40
1.0
 40
1.0
 10
14.10002025254001
 20
-11.08488546105031
 30
0.0
 10
14.09684813638465
 20
-11.07761722985232
 30
0.0
 10
14.08967130257014
 20
-11.07291888925139
 30
0.0
 10
14.08174101218136
 20
-11.07291888925139
 30
0.0
  0
SPLINE
  5
FE
330
70
100
AcDbEntity
  8
Layer 1
 62
    18
420
        0
370
     5
100
AcDbSpline
210
0.0
220
0.0
230
1.0
 70
     8
 71
     3
 72
     8
 73
     4
 74
     0
 42
0.0000000001
 43
0.0000000001
 40
0.0
 40
0.0
 40
0.0
 40
0.0
 40
1.0
 40
1.0
 40
1.0
 40
1.0
 10
14.08174101218136
 20
-13.06734752231265
 30
0.0
 10
14.08967130257014
 20
-13.06734752231265
 30
0.0
 10
14.09684813638465
 20
-13.06264918171167
 30
0.0
 10
14.10002025254001
 20
-13.05538095051363
 30
0.0
  0
SPLINE
  5
FF
330
70
100
AcDbEntity
  8
Layer 1
 62
    18
420
        0
370
     5
100
AcDbSpline
210
0.0
220
0.0
230
1.0
 70
     8
 71
     3
 72
     8
 73
     4
 74
     0
 42
0.0000000001
 43
0.0000000001
 40
0.0
 40
0.0
 40
0.0
 40
0.0
 40
1.0
 40
1.0
 40
1.0
 40
1.0
 10
14.15485797361546
 20
-13.05538095051353
 30
0.0
 10
14.15803008977074
 20
-13.06264918171167
 30
0.0
 10
14.16520692358525
 20
-13.06734752231265
 30
0.0
 10
14.17313721397408
 20
-13.06734752231265
 30
0.0
  0
SPLINE
  5
100
330
70
100
AcDbEntity
  8
Layer 1
 62
    18
420
        0
370
     5
100
AcDbSpline
210
0.0
220
0.0
230
1.0
 70
     8
 71
     3
 72
     8
 73
     4
 74
     0
 42
0.0000000001
 43
0.0000000001
 40
0.0
 40
0.0
 40
0.0
 40
0.0
 40
1.0
 40
1.0
 40
1.0
 40
1.0
 10
14.17313721397408
 20
-11.07291888925139
 30
0.0
 10
14.16520692358525
 20
-11.07291888925139
 30
0.0
 10
14.15803008977074
 20
-11.07761722985232
 30
0.0
 10
14.15485797361546
 20
-11.08488546105049
 30
0.0
  0
SPLINE
  5
101
330
70
100
AcDbEntity
  8
Layer 1
 62
    18
420
        0
370
     5
100
AcDbSpline
210
0.0
220
0.0
230
1.0
 70
     8
 71
     3
 72
   290
 73
   286
 74
     0
 42
0.0000000001
 43
0.0000000001
 40
0.0
 40
0.0
 40
0.0
 40
0.0
 40
1.0
 40
1.0
 40
1.0
 40
2.0
 40
2.0
 40
2.0
 40
3.0
 40
3.0
 40
3.0
 40
4.0
 40
4.0
 40
4.0
 40
5.0
 40
5.0
 40
5.0
 40
6.0
 40
6.0
 40
6.0
 40
7.0
 40
7.0
 40
7.0
 40
8.0
 40
8.0
 40
8.0
 40
9.0
 40
9.0
 40
9.0
 40
10.0
 40
10.0
 40
10.0
 40
11.0
 40
11.0
 40
11.0
 40
12.0
 40
12.0
 40
12.0
 40
13.0
 40
13.0
 40
13.0
 40
14.0
 40
14.0
 40
14.0
 40
15.0
 40
15.0
 40
15.0
 40
16.0
 40
16.0
 40
16.0
 40
17.0
 40
17.0
 40
17.0
 40
18.0
 40
18.0
 40
18.0
 40
19.0
 40
19.0
 40
19.0
 40
20.0
 40
20.0
 40
20.0
 40
21.0
 40
21.0
 40
21.0
 40
22.0
 40
22.0
 40
22.0
 40
23.0
 40
23.0
 40
23.0
 40
24.0
 40
24.0
 40
24.0
 40
25.0
 40
25.0
 40
25.0
 40
26.0
 40
26.0
 40
26.0
 40
27.0
 40
27.0
 40
27.0
 40
28.0
 40
28.0
 40
28.0
 40
29.0
 40
29.0
 40
29.0
 40
30.0
 40
30.0
 40
30.0
 40
31.0
 40
31.0
 40
31.0
 40
32.0
 40
32.0
 40
32.0
 40
33.0
 40
33.0
 40
33.0
 40
34.0
 40
34.0
 40
34.0
 40
35.0
 40
35.0
 40
35.0
 40
36.0
 40
36.0
 40
36.0
 40
37.0
 40
37.0
 40
37.0
 40
38.0
 40
38.0
 40
38.0
 40
39.0
 40
39.0
 40
39.0
 40
40.0
 40
40.0
 40
40.0
 40
41.0
 40
41.0
 40
41.0
 40
42.0
 40
42.0
 40
42.0
 40
43.0
 40
43.0
 40
43.0
 40
44.0
 40
44.0
 40
44.0
 40
45.0
 40
45.0
 40
45.0
 40
46.0
 40
46.0
 40
46.0
 40
47.0
 40
47.0
 40
47.0
 40
48.0
 40
48.0
 40
48.0
 40
49.0
 40
49.0
 40
49.0
 40
50.0
 40
50.0
 40
50.0
 40
51.0
 40
51.0
 40
51.0
 40
52.0
 40
52.0
 40
52.0
 40
53.0
 40
53.0
 40
53.0
 40
54.0
 40
54.0
 40
54.0
 40
55.0
 40
55.0
 40
55.0
 40
56.0
 40
56.0
 40
56.0
 40
57.0
 40
57.0
 40
57.0
 40
58.0
 40
58.0
 40
58.0
 40
59.0
 40
59.0
 40
59.0
 40
60.0
 40
60.0
 40
60.0
 40
61.0
 40
61.0
 40
61.0
 40
62.0
 40
62.0
 40
62.0
 40
63.0
 40
63.0
 40
63.0
 40
64.0
 40
64.0
 40
64.0
 40
65.0
 40
65.0
 40
65.0
 40
66.0
 40
66.0
 40
66.0
 40
67.0
 40
67.0
 40
67.0
 40
68.0
 40
68.0
 40
68.0
 40
69.0
 40
69.0
 40
69.0
 40
70.0
 40
70.0
 40
70.0
 40
71.0
 40
71.0
 40
71.0
 40
72.0
 40
72.0
 40
72.0
 40
73.0
 40
73.0
 40
73.0
 40
74.0
 40
74.0
 40
74.0
 40
75.0
 40
75.0
 40
75.0
 40
76.0
 40
76.0
 40
76.0
 40
77.0
 40
77.0
 40
77.0
 40
78.0
 40
78.0
 40
78.0
 40
79.0
 40
79.0
 40
79.0
 40
80.0
 40
80.0
 40
80.0
 40
81.0
 40
81.0
 40
81.0
 40
82.0
 40
82.0
 40
82.0
 40
83.0
 40
83.0
 40
83.0
 40
84.0
 40
84.0
 40
84.0
 40
85.0
 40
85.0
 40
85.0
 40
86.0
 40
86.0
 40
86.0
 40
87.0
 40
87.0
 40
87.0
 40
88.0
 40
88.0
 40
88.0
 40
89.0
 40
89.0
 40
89.0
 40
90.0
 40
90.0
 40
90.0
 40
91.0
 40
91.0
 40
91.0
 40
92.0
 40
92.0
 40
92.0
 40
93.0
 40
93.0
 40
93.0
 40
94.0
 40
94.0
 40
94.0
 40
95.0
 40
95.0
 40
95.0
 40
95.0
 10
12.79483107109051
 20
-9.367682407984021
 30
0.0
 10
12.79482756279081
 20
-9.367680907375971
 30
0.0
 10
12.79482513515242
 20
-9.36767771470075
 30
0.0
 10
12.79482256260934
 20
-9.36767474982869
 30
0.0
 10
12.79481490096539
 20
-9.367665919736332
 30
0.0
 10
12.79480595403096
 20
-9.367659110234651
 30
0.0
 10
12.79479726842303
 20
-9.367651890744076
 30
0.0
 10
12.79478283184539
 20
-9.367639891038606
 30
0.0
 10
12.79476911722506
 20
-9.367626758671272
 30
0.0
 10
12.79475524239465
 20
-9.367613878321485
 30
0.0
 10
12.79473585792157
 20
-9.367595883233635
 30
0.0
 10
12.79471616073796
 20
-9.367578380053195
 30
0.0
 10
12.79469653808638
 20
-9.367560760175187
 30
0.0
 10
12.79467135589844
 20
-9.367538148191517
 30
0.0
 10
12.79464629645864
 20
-9.367515344016839
 30
0.0
 10
12.79462120924199
 20
-9.36749258384475
 30
0.0
 10
12.79459060115361
 20
-9.367464814907078
 30
0.0
 10
12.79455995171762
 20
-9.367437111470026
 30
0.0
 10
12.79452930955482
 20
-9.367409396948813
 30
0.0
 10
12.79445151512313
 20
-9.367339035223823
 30
0.0
 10
12.79437376757091
 20
-9.367268602055066
 30
0.0
 10
12.79429601244866
 20
-9.367198181857398
 30
0.0
 10
12.79419637314097
 20
-9.367107941889218
 30
0.0
 10
12.79409672140256
 20
-9.367017723221275
 30
0.0
 10
12.79399707620054
 20
-9.36692749550477
 30
0.0
 10
12.79387568734942
 20
-9.366817579135334
 30
0.0
 10
12.79375430819873
 20
-9.366707649337664
 30
0.0
 10
12.79363293038171
 20
-9.366597718733777
 30
0.0
 10
12.79348995265198
 20
-9.366468225317476
 30
0.0
 10
12.79334697677283
 20
-9.366338730782368
 30
0.0
 10
12.79320400441871
 20
-9.36620923212139
 30
0.0
 10
12.79303957479596
 20
-9.366060298321572
 30
0.0
 10
12.79287514983571
 20
-9.365911359064385
 30
0.0
 10
12.79271072797112
 20
-9.365762416463086
 30
0.0
 10
12.79252499157863
 20
-9.365594165959969
 30
0.0
 10
12.79233925913634
 20
-9.365425911189351
 30
0.0
 10
12.79215353037261
 20
-9.365257652344249
 30
0.0
 10
12.79194662979547
 20
-9.365070213137414
 30
0.0
 10
12.79173973378313
 20
-9.36488276887414
 30
0.0
 10
12.79153284135981
 20
-9.36469532064868
 30
0.0
 10
12.79105622241978
 20
-9.364263495388437
 30
0.0
 10
12.79057962252651
 20
-9.36383164910017
 30
0.0
 10
12.79010304884562
 20
-9.363399773886131
 30
0.0
 10
12.7895447332124
 20
-9.362893823404141
 30
0.0
 10
12.78898645355462
 20
-9.362387833222681
 30
0.0
 10
12.78842821541497
 20
-9.361881797244878
 30
0.0
 10
12.78779103634578
 20
-9.361304202289476
 30
0.0
 10
12.78715391136724
 20
-9.360726547669905
 30
0.0
 10
12.78651684221154
 20
-9.360148831500787
 30
0.0
 10
12.78580363988754
 20
-9.359502075162405
 30
0.0
 10
12.78509050752589
 20
-9.358855241684523
 30
0.0
 10
12.78437744556224
 20
-9.358208330593242
 30
0.0
 10
12.78359105894947
 20
-9.357494897192282
 30
0.0
 10
12.78280475795714
 20
-9.356781369395294
 30
0.0
 10
12.78201854160754
 20
-9.356067748354613
 30
0.0
 10
12.78116180957098
 20
-9.355290122694945
 30
0.0
 10
12.78030517804124
 20
-9.354512386315565
 30
0.0
 10
12.77944864713643
 20
-9.353734539130577
 30
0.0
 10
12.77852447009367
 20
-9.352895260002343
 30
0.0
 10
12.77760041019749
 20
-9.352055851875066
 30
0.0
 10
12.7766764759576
 20
-9.351216305449547
 30
0.0
 10
12.77463777258986
 20
-9.34936380767259
 30
0.0
 10
12.77259968102347
 20
-9.34751063654221
 30
0.0
 10
12.77056224553472
 20
-9.345656744335125
 30
0.0
 10
12.76829071326503
 20
-9.343589844059604
 30
0.0
 10
12.76601999649796
 20
-9.341522047488018
 30
0.0
 10
12.76375012793328
 20
-9.339453320213225
 30
0.0
 10
12.76127015677472
 20
-9.337193108297771
 30
0.0
 10
12.75879119810747
 20
-9.334931785410642
 30
0.0
 10
12.75631335711379
 20
-9.332669238414583
 30
0.0
 10
12.75364672197179
 20
-9.330234301166758
 30
0.0
 10
12.75098138130968
 20
-9.327797946166608
 30
0.0
 10
12.74831743727562
 20
-9.325360064888753
 30
0.0
 10
12.7454848446809
 20
-9.322767846596585
 30
0.0
 10
12.74265383114683
 20
-9.320173902658931
 30
0.0
 10
12.73982454583423
 20
-9.317578074926888
 30
0.0
 10
12.73684513935339
 20
-9.314844513227196
 30
0.0
 10
12.73386764935758
 20
-9.312108862522309
 30
0.0
 10
12.73089230528391
 20
-9.309370879379153
 30
0.0
 10
12.72778283433553
 20
-9.306509469461515
 30
0.0
 10
12.72467570714431
 20
-9.303645512075691
 30
0.0
 10
12.72157117119604
 20
-9.300778748885578
 30
0.0
 10
12.71834752243737
 20
-9.297801995595211
 30
0.0
 10
12.71512666757444
 20
-9.294822217067626
 30
0.0
 10
12.7119089685302
 20
-9.291839030976108
 30
0.0
 10
12.70516606349694
 20
-9.285587563627814
 30
0.0
 10
12.69843701693382
 20
-9.279321132294626
 30
0.0
 10
12.69172595963555
 20
-9.273035468642571
 30
0.0
 10
12.68467654097415
 20
-9.266432891331835
 30
0.0
 10
12.67764697128981
 20
-9.259809093484262
 30
0.0
 10
12.67064449298621
 20
-9.253156748266695
 30
0.0
 10
12.66337376428974
 20
-9.2462495655273
 30
0.0
 10
12.65613224235961
 20
-9.239311606343814
 30
0.0
 10
12.64893223739131
 20
-9.232330614514795
 30
0.0
 10
12.64152021142442
 20
-9.225144051041752
 30
0.0
 10
12.63415218354892
 20
-9.217911883213723
 30
0.0
 10
12.62685201953387
 20
-9.210611791415987
 30
0.0
 10
12.62313718140985
 20
-9.20689699004121
 30
0.0
 10
12.61943991657732
 20
-9.203164599809648
 30
0.0
 10
12.61576528479696
 20
-9.199410024328319
 30
0.0
 10
12.61205401129976
 20
-9.195618009968812
 30
0.0
 10
12.60836582447766
 20
-9.191803365711621
 30
0.0
 10
12.60470761884362
 20
-9.187960056633301
 30
0.0
 10
12.60101731302542
 20
-9.184083023117004
 30
0.0
 10
12.59735751686425
 20
-9.180176819513816
 30
0.0
 10
12.5937394533282
 20
-9.176232344955678
 30
0.0
 10
12.59191966331178
 20
-9.174248378850784
 30
0.0
 10
12.59011043091191
 20
-9.172254730870715
 30
0.0
 10
12.58831317566218
 20
-9.170250335155515
 30
0.0
 10
12.58650935461744
 20
-9.168238616912503
 30
0.0
 10
12.58471759839348
 20
-9.166216072262866
 30
0.0
 10
12.58294093639299
 20
-9.164180290681844
 30
0.0
 10
12.57936996882639
 20
-9.160088510705184
 30
0.0
 10
12.57585997922979
 20
-9.155943255887423
 30
0.0
 10
12.57243331145016
 20
-9.151729108913917
 30
0.0
 10
12.56898572012298
 20
-9.147489229972658
 30
0.0
 10
12.56562247126051
 20
-9.143179614983434
 30
0.0
 10
12.56239592643558
 20
-9.138769767211897
 30
0.0
 10
12.5607758832682
 20
-9.136555589464881
 30
0.0
 10
12.55919030357929
 20
-9.134316142747012
 30
0.0
 10
12.55764610608649
 20
-9.132048335824896
 30
0.0
 10
12.55609751915494
 20
-9.129774082577517
 30
0.0
 10
12.55459055001478
 20
-9.127471307666837
 30
0.0
 10
12.55313960620828
 20
-9.125133457883849
 30
0.0
 10
12.55168535040911
 20
-9.122790271614803
 30
0.0
 10
12.5502873760078
 20
-9.12041185016359
 30
0.0
 10
12.54896102228895
 20
-9.117993788698159
 30
0.0
 10
12.54763091450948
 20
-9.115568883244526
 30
0.0
 10
12.54637283341122
 20
-9.113104113067997
 30
0.0
 10
12.54520627172643
 20
-9.11059613837728
 30
0.0
 10
12.5440367671988
 20
-9.108081836909706
 30
0.0
 10
12.54295924441253
 20
-9.105524112672101
 30
0.0
 10
12.54200376092505
 20
-9.102920528881288
 30
0.0
 10
12.54104680235375
 20
-9.100312925655089
 30
0.0
 10
12.54021226018269
 20
-9.097659321169631
 30
0.0
 10
12.53953004226567
 20
-9.094966566932068
 30
0.0
 10
12.5388457838463
 20
-9.092265758711846
 30
0.0
 10
12.53831476224233
 20
-9.089525566196773
 30
0.0
 10
12.53795390840779
 20
-9.086761917347631
 30
0.0
 10
12.53759305241788
 20
-9.083998251990779
 30
0.0
 10
12.53740236623038
 20
-9.08121113001971
 30
0.0
 10
12.53740406475567
 20
-9.078425312591054
 30
0.0
 10
12.53740491399594
 20
-9.077032440511022
 30
0.0
 10
12.53745385688454
 20
-9.075639894549466
 30
0.0
 10
12.53754904607179
 20
-9.074250580326607
 30
0.0
 10
12.5376442711062
 20
-9.072860742902749
 30
0.0
 10
12.53778577727752
 20
-9.071474139652208
 30
0.0
 10
12.53797008384067
 20
-9.070093023213429
 30
0.0
 10
12.53833868341091
 20
-9.06733089191943
 30
0.0
 10
12.53887847195639
 20
-9.06459070625821
 30
0.0
 10
12.53956735399869
 20
-9.061889743012317
 30
0.0
 10
12.54025450673743
 20
-9.05919556000602
 30
0.0
 10
12.54109000537242
 20
-9.056540402741852
 30
0.0
 10
12.54204892838432
 20
-9.053931310843735
 30
0.0
 10
12.54300536534169
 20
-9.051328983142992
 30
0.0
 10
12.54408458753828
 20
-9.048772482264514
 30
0.0
 10
12.54525804054555
 20
-9.04626081006366
 30
0.0
 10
12.5464298006121
 20
-9.043752761452397
 30
0.0
 10
12.54769551979196
 20
-9.041289412263342
 30
0.0
 10
12.5490303084382
 20
-9.03886448394673
 30
0.0
 10
12.5503607596649
 20
-9.036447435478168
 30
0.0
 10
12.55175983220238
 20
-9.034068558589144
 30
0.0
 10
12.55321485810529
 20
-9.031724602885281
 30
0.0
 10
12.5546657575398
 20
-9.029387294663793
 30
0.0
 10
12.55617229342119
 20
-9.027084709834726
 30
0.0
 10
12.55772271821754
 20
-9.024812321207768
 30
0.0
 10
12.55926935354662
 20
-9.022545486634447
 30
0.0
 10
12.5608596635108
 20
-9.020308700835686
 30
0.0
 10
12.56248237997354
 20
-9.018095657441335
 30
0.0
 10
12.56571340967045
 20
-9.013689213621747
 30
0.0
 10
12.56907291735428
 20
-9.009376898339874
 30
0.0
 10
12.57252161266592
 20
-9.005138615958003
 30
0.0
 10
12.57423847941509
 20
-9.003028668445292
 30
0.0
 10
12.57597745002519
 20
-9.000937068913824
 30
0.0
 10
12.57773404986943
 20
-8.998860340649873
 30
0.0
 10
12.57948498610726
 20
-8.996790308146348
 30
0.0
 10
12.58125343808261
 20
-8.99473505116935
 30
0.0
 10
12.58303644206997
 20
-8.992692504854604
 30
0.0
 10
12.58658354836883
 20
-8.988629065316722
 30
0.0
 10
12.5901882472862
 20
-8.984615930871944
 30
0.0
 10
12.59383539832392
 20
-8.980641991505409
 30
0.0
 10
12.59745455246972
 20
-8.976698557579917
 30
0.0
 10
12.60111550948075
 20
-8.972793719290216
 30
0.0
 10
12.60480627842076
 20
-8.968917329373072
 30
0.0
 10
12.60846481785292
 20
-8.965074789892442
 30
0.0
 10
12.6121526508243
 20
-8.961260204104847
 30
0.0
 10
12.61586405766358
 20
-8.957468742357679
 30
0.0
 10
12.61953882775737
 20
-8.953714707609277
 30
0.0
 10
12.62323670860254
 20
-8.94998334262166
 30
0.0
 10
12.62695190157802
 20
-8.9462693091969
 30
0.0
 10
12.63425244818379
 20
-8.938971041168214
 30
0.0
 10
12.64161984434327
 20
-8.931739697730991
 30
0.0
 10
12.64903138113123
 20
-8.924554100961964
 30
0.0
 10
12.65623048106724
 20
-8.917574464926978
 30
0.0
 10
12.66347122749094
 20
-8.910637990670945
 30
0.0
 10
12.67074107379279
 20
-8.903732185737908
 30
0.0
 10
12.67774232902166
 20
-8.897081522038963
 30
0.0
 10
12.68477057360714
 20
-8.890459303314628
 30
0.0
 10
12.69181865337971
 20
-8.883858290239761
 30
0.0
 10
12.69852826345883
 20
-8.877574277389612
 30
0.0
 10
12.70525584937993
 20
-8.871309482377151
 30
0.0
 10
12.71199726955585
 20
-8.865059626192962
 30
0.0
 10
12.71521437001401
 20
-8.86207710698045
 30
0.0
 10
12.71843462099205
 20
-8.859097989835996
 30
0.0
 10
12.72165765655346
 20
-8.856121887877582
 30
0.0
 10
12.7247614261355
 20
-8.853255914308343
 30
0.0
 10
12.72786777803114
 20
-8.850392736904622
 30
0.0
 10
12.73097648420101
 20
-8.847532118482831
 30
0.0
 10
12.73395081959084
 20
-8.844795147490987
 30
0.0
 10
12.73692731013104
 20
-8.842060519043091
 30
0.0
 10
12.73990570144868
 20
-8.839327962552335
 30
0.0
 10
12.74273377750571
 20
-8.836733314380857
 30
0.0
 10
12.74556356732238
 20
-8.834140534306369
 30
0.0
 10
12.7483949476753
 20
-8.8315494924603
 30
0.0
 10
12.7510570293768
 20
-8.829113378541832
 30
0.0
 10
12.75372051709317
 20
-8.826678801196269
 30
0.0
 10
12.75638528482288
 20
-8.824245625768197
 30
0.0
 10
12.75886083590103
 20
-8.821985222361389
 30
0.0
 10
12.76133749166711
 20
-8.819726028849142
 30
0.0
 10
12.76381516902564
 20
-8.817467956345783
 30
0.0
 10
12.76608184013152
 20
-8.815402187903146
 30
0.0
 10
12.76834936623575
 20
-8.813337357662931
 30
0.0
 10
12.77061769586008
 20
-8.811273410555234
 30
0.0
 10
12.77265160188153
 20
-8.809422764861917
 30
0.0
 10
12.77468615392328
 20
-8.80757282919626
 30
0.0
 10
12.77672130470788
 20
-8.805723552525806
 30
0.0
 10
12.77764355939926
 20
-8.804885529074201
 30
0.0
 10
12.77856593704645
 20
-8.804047640951567
 30
0.0
 10
12.77948843731337
 20
-8.803209887852364
 30
0.0
 10
12.78034337924977
 20
-8.802433486714663
 30
0.0
 10
12.78119842650368
 20
-8.801657201547868
 30
0.0
 10
12.78205357581995
 20
-8.800881028809246
 30
0.0
 10
12.7828381478507
 20
-8.800168915251889
 30
0.0
 10
12.78362280579206
 20
-8.799456896330562
 30
0.0
 10
12.7844075453186
 20
-8.798744967360612
 30
0.0
 10
12.785118769684
 20
-8.798099732587994
 30
0.0
 10
12.78583006106451
 20
-8.797454571702701
 30
0.0
 10
12.78654142031046
 20
-8.796809485648356
 30
0.0
 10
12.78717660105637
 20
-8.796233480987691
 30
0.0
 10
12.78781183591076
 20
-8.795657535988993
 30
0.0
 10
12.78844712485463
 20
-8.795081650678387
 30
0.0
 10
12.78900363075763
 20
-8.794577181683658
 30
0.0
 10
12.78956017816661
 20
-8.794072758490907
 30
0.0
 10
12.79011676366758
 20
-8.793568377302056
 30
0.0
 10
12.79059202513824
 20
-8.793137692447492
 30
0.0
 10
12.79106731438264
 20
-8.792707038219026
 30
0.0
 10
12.79154263153704
 20
-8.792276414813589
 30
0.0
 10
12.7917491481314
 20
-8.792089316834132
 30
0.0
 10
12.79195566999455
 20
-8.791902224673297
 30
0.0
 10
12.79216219746101
 20
-8.791715138718851
 30
0.0
 10
12.79234767311633
 20
-8.791547122858345
 30
0.0
 10
12.79253315329086
 20
-8.791379112003495
 30
0.0
 10
12.79271863770196
 20
-8.791211105733863
 30
0.0
 10
12.79288285268742
 20
-8.79106236467823
 30
0.0
 10
12.79304707099363
 20
-8.790913627216569
 30
0.0
 10
12.79321129334716
 20
-8.790764894516744
 30
0.0
 10
12.79335402878731
 20
-8.790635622058212
 30
0.0
 10
12.793496767285
 20
-8.790506353197036
 30
0.0
 10
12.79363950567707
 20
-8.790377083313362
 30
0.0
 10
12.79376054440659
 20
-8.790267465555718
 30
0.0
 10
12.79388158306028
 20
-8.79015784706285
 30
0.0
 10
12.79400262897244
 20
-8.790048239323974
 30
0.0
 10
12.7941018355998
 20
-8.789958407177588
 30
0.0
 10
12.79420104710281
 20
-8.789868582254813
 30
0.0
 10
12.79430024317053
 20
-8.789778732623997
 30
0.0
 10
12.79437752636123
 20
-8.789708731198414
 30
0.0
 10
12.79445480018297
 20
-8.789638714775264
 30
0.0
 10
12.79453211834036
 20
-8.789568767043721
 30
0.0
 10
12.79456253327379
 20
-8.789541251442338
 30
0.0
 10
12.7945929550678
 20
-8.789513746470548
 30
0.0
 10
12.79462333391853
 20
-8.78948617422788
 30
0.0
 10
12.79464821085321
 20
-8.789463595596316
 30
0.0
 10
12.79467305899091
 20
-8.789440971854219
 30
0.0
 10
12.79469803073213
 20
-8.789418541288771
 30
0.0
 10
12.79471747031887
 20
-8.789401079914416
 30
0.0
 10
12.79473698481001
 20
-8.789383735606179
 30
0.0
 10
12.79475618079158
 20
-8.789365893032002
 30
0.0
 10
12.79476990480922
 20
-8.789353136622441
 30
0.0
 10
12.79478346602306
 20
-8.789340125528067
 30
0.0
 10
12.79479775621502
 20
-8.789328254204519
 30
0.0
 10
12.79480633914922
 20
-8.789321124084153
 30
0.0
 10
12.79481518505564
 20
-8.789314405125725
 30
0.0
 10
12.79482272901785
 20
-8.789305649739869
 30
0.0
 10
12.79482524821305
 20
-8.789302726007614
 30
0.0
 10
12.7948276222248
 20
-8.789299575187719
 30
0.0
 10
12.79483107109051
 20
-8.789298104396316
 30
0.0
  0
LINE
  5
102
330
70
100
AcDbEntity
  8
Layer 1
 62
    18
420
        0
370
     5
100
AcDbLine
 10
5.134763053874962
 20
-15.23628866076668
 30
0.0
 11
4.536434463956601
 21
-15.23628866076668
 31
0.0
  0
LINE
  5
103
330
70
100
AcDbEntity
  8
Layer 1
 62
    18
420
        0
370
     5
100
AcDbLine
 10
4.536435009532548
 20
-10.87347602594536
 30
0.0
 11
5.134762508299003
 21
-10.87347602594536
 31
0.0
  0
LWPOLYLINE
  5
104
330
70
100
AcDbEntity
  8
Layer 1
 62
    18
420
        0
370
     5
100
AcDbPolyline
 90
        7
 70
     0
 43
0.0
 10
4.510506891726814
 20
-4.20354619258228
 10
4.510506169943078
 20
-4.804913639958158
 10
4.510439973360941
 20
-4.806980801813488
 10
4.510266964654747
 20
-4.809039517762193
 10
4.509987954160843
 20
-4.811084307712639
 10
4.509604035923037
 20
-4.813109730863591
 10
4.509116579216398
 20
-4.815110438755747
  0
LWPOLYLINE
  5
105
330
70
100
AcDbEntity
  8
Layer 1
 62
    18
420
        0
370
     5
100
AcDbPolyline
 90
        6
 70
     0
 43
0.0
 10
5.162079699676104
 20
-4.815105893851801
 10
5.161592108544974
 20
-4.813103403738207
 10
5.16120833021633
 20
-4.81107674314401
 10
5.160929647307335
 20
-4.809031285359107
 10
5.160757065209446
 20
-4.80697248474693
 10
5.160691305107977
 20
-4.804905832767265
  0
LINE
  5
106
330
70
100
AcDbEntity
  8
Layer 1
 62
    18
420
        0
370
     5
100
AcDbLine
 10
5.160691305107977
 20
-4.804905832767265
 30
0.0
 11
5.160690626104749
 21
-4.20354619258228
 31
0.0
  0
LINE
  5
107
330
70
100
AcDbEntity
  8
Layer 1
 62
    18
420
        0
370
     5
100
AcDbLine
 10
11.16172373576561
 20
-15.23628866076668
 30
0.0
 11
11.7600523256839
 21
-15.23628866076668
 31
0.0
  0
LINE
  5
108
330
70
100
AcDbEntity
  8
Layer 1
 62
    18
420
        0
370
     5
100
AcDbLine
 10
11.12183516310435
 20
-15.19640008810554
 30
0.0
 11
11.12183516310435
 21
-10.91336459860655
 31
0.0
  0
LINE
  5
109
330
70
100
AcDbEntity
  8
Layer 1
 62
    18
420
        0
370
     5
100
AcDbLine
 10
11.79994089834518
 20
-15.19640008810554
 30
0.0
 11
11.79994089834518
 21
-12.4351136456322
 31
0.0
  0
LINE
  5
10A
330
70
100
AcDbEntity
  8
Layer 1
 62
    18
420
        0
370
     5
100
AcDbLine
 10
11.79994089834518
 20
-11.70515276593179
 30
0.0
 11
11.79994089834518
 21
-10.91336459860655
 31
0.0
  0
LINE
  5
10B
330
70
100
AcDbEntity
  8
Layer 1
 62
    18
420
        0
370
     5
100
AcDbLine
 10
12.16392412387884
 20
-12.39522507297104
 30
0.0
 11
11.83982947100642
 21
-12.39522507297104
 31
0.0
  0
LINE
  5
10C
330
70
100
AcDbEntity
  8
Layer 1
 62
    18
420
        0
370
     5
100
AcDbLine
 10
12.16392412387884
 20
-11.74504133859298
 30
0.0
 11
11.83982947100642
 21
-11.74504133859298
 31
0.0
  0
LINE
  5
10D
330
70
100
AcDbEntity
  8
Layer 1
 62
    18
420
        0
370
     5
100
AcDbLine
 10
11.16172373576561
 20
-10.87347602594536
 30
0.0
 11
11.7600523256839
 21
-10.87347602594536
 31
0.0
  0
SPLINE
  5
10E
330
70
100
AcDbEntity
  8
Layer 1
 62
    18
420
        0
370
     5
100
AcDbSpline
210
0.0
220
0.0
230
1.0
 70
     8
 71
     3
 72
     8
 73
     4
 74
     0
 42
0.0000000001
 43
0.0000000001
 40
0.0
 40
0.0
 40
0.0
 40
0.0
 40
1.0
 40
1.0
 40
1.0
 40
1.0
 10
4.496545891295403
 20
-15.19640008810554
 30
0.0
 10
4.496545891295403
 20
-15.21842993847874
 30
0.0
 10
4.514404613583287
 20
-15.23628866076668
 30
0.0
 10
4.536434463956601
 20
-15.23628866076668
 30
0.0
  0
SPLINE
  5
10F
330
70
100
AcDbEntity
  8
Layer 1
 62
    18
420
        0
370
     5
100
AcDbSpline
210
0.0
220
0.0
230
1.0
 70
     8
 71
     3
 72
     8
 73
     4
 74
     0
 42
0.0000000001
 43
0.0000000001
 40
0.0
 40
0.0
 40
0.0
 40
0.0
 40
1.0
 40
1.0
 40
1.0
 40
1.0
 10
4.536434463956601
 20
-10.87347602594536
 30
0.0
 10
4.514404613583287
 20
-10.87347602594536
 30
0.0
 10
4.496545891295403
 20
-10.89133474823319
 30
0.0
 10
4.496545891295403
 20
-10.91336459860655
 30
0.0
  0
LINE
  5
110
330
70
100
AcDbEntity
  8
Layer 1
 62
    18
420
        0
370
     5
100
AcDbLine
 10
4.496452038707553
 20
-12.11825066285332
 30
0.0
 11
4.496452038707553
 21
-12.11825066285332
 31
0.0
  0
LINE
  5
111
330
70
100
AcDbEntity
  8
Layer 1
 62
    18
420
        0
370
     5
100
AcDbLine
 10
4.496452180103321
 20
-12.02201475212031
 30
0.0
 11
4.496452180103321
 21
-12.02201475212031
 31
0.0
  0
SPLINE
  5
112
330
70
100
AcDbEntity
  8
Layer 1
 62
    18
420
        0
370
     5
100
AcDbSpline
210
0.0
220
0.0
230
1.0
 70
     8
 71
     3
 72
     8
 73
     4
 74
     0
 42
0.0000000001
 43
0.0000000001
 40
0.0
 40
0.0
 40
0.0
 40
0.0
 40
1.0
 40
1.0
 40
1.0
 40
1.0
 10
5.134763053874962
 20
-15.23628866076668
 30
0.0
 10
5.156792904248289
 20
-15.23628866076668
 30
0.0
 10
5.174651626536197
 20
-15.21842993847874
 30
0.0
 10
5.174651626536197
 20
-15.19640008810554
 30
0.0
  0
SPLINE
  5
113
330
70
100
AcDbEntity
  8
Layer 1
 62
    18
420
        0
370
     5
100
AcDbSpline
210
0.0
220
0.0
230
1.0
 70
     8
 71
     3
 72
     8
 73
     4
 74
     0
 42
0.0000000001
 43
0.0000000001
 40
0.0
 40
0.0
 40
0.0
 40
0.0
 40
1.0
 40
1.0
 40
1.0
 40
1.0
 10
5.174651626536197
 20
-10.91336459860655
 30
0.0
 10
5.174651626536197
 20
-10.89133474823319
 30
0.0
 10
5.156792904248289
 20
-10.87347602594536
 30
0.0
 10
5.134763053874962
 20
-10.87347602594536
 30
0.0
  0
CIRCLE
  5
114
330
70
100
AcDbEntity
  8
Layer 1
 62
    18
420
        0
370
     5
100
AcDbCircle
 10
4.835598758915807
 20
-4.906582285736371
 30
0.0
 40
0.3390528676204083
  0
SPLINE
  5
115
330
70
100
AcDbEntity
  8
Layer 1
 62
    18
420
        0
370
     5
100
AcDbSpline
210
0.0
220
0.0
230
1.0
 70
     8
 71
     3
 72
     8
 73
     4
 74
     0
 42
0.0000000001
 43
0.0000000001
 40
0.0
 40
0.0
 40
0.0
 40
0.0
 40
1.0
 40
1.0
 40
1.0
 40
1.0
 10
11.16172373576561
 20
-10.87347602594536
 30
0.0
 10
11.13969388539223
 20
-10.87347602594536
 30
0.0
 10
11.12183516310435
 20
-10.89133474823319
 30
0.0
 10
11.12183516310435
 20
-10.91336459860655
 30
0.0
  0
SPLINE
  5
116
330
70
100
AcDbEntity
  8
Layer 1
 62
    18
420
        0
370
     5
100
AcDbSpline
210
0.0
220
0.0
230
1.0
 70
     8
 71
     3
 72
     8
 73
     4
 74
     0
 42
0.0000000001
 43
0.0000000001
 40
0.0
 40
0.0
 40
0.0
 40
0.0
 40
1.0
 40
1.0
 40
1.0
 40
1.0
 10
11.79994089834518
 20
-10.91336459860655
 30
0.0
 10
11.79994089834518
 20
-10.89133474823319
 30
0.0
 10
11.78208217605725
 20
-10.87347602594536
 30
0.0
 10
11.7600523256839
 20
-10.87347602594536
 30
0.0
  0
SPLINE
  5
117
330
70
100
AcDbEntity
  8
Layer 1
 62
    18
420
        0
370
     5
100
AcDbSpline
210
0.0
220
0.0
230
1.0
 70
     8
 71
     3
 72
     8
 73
     4
 74
     0
 42
0.0000000001
 43
0.0000000001
 40
0.0
 40
0.0
 40
0.0
 40
0.0
 40
1.0
 40
1.0
 40
1.0
 40
1.0
 10
11.12183516310435
 20
-15.19640008810554
 30
0.0
 10
11.12183516310435
 20
-15.21842993847874
 30
0.0
 10
11.13969388539223
 20
-15.23628866076668
 30
0.0
 10
11.16172373576561
 20
-15.23628866076668
 30
0.0
  0
SPLINE
  5
118
330
70
100
AcDbEntity
  8
Layer 1
 62
    18
420
        0
370
     5
100
AcDbSpline
210
0.0
220
0.0
230
1.0
 70
     8
 71
     3
 72
     8
 73
     4
 74
     0
 42
0.0000000001
 43
0.0000000001
 40
0.0
 40
0.0
 40
0.0
 40
0.0
 40
1.0
 40
1.0
 40
1.0
 40
1.0
 10
11.7600523256839
 20
-15.23628866076668
 30
0.0
 10
11.78208217605725
 20
-15.23628866076668
 30
0.0
 10
11.79994089834518
 20
-15.21842993847874
 30
0.0
 10
11.79994089834518
 20
-15.19640008810554
 30
0.0
  0
SPLINE
  5
119
330
70
100
AcDbEntity
  8
Layer 1
 62
    18
420
        0
370
     5
100
AcDbSpline
210
0.0
220
0.0
230
1.0
 70
     8
 71
     3
 72
    11
 73
     7
 74
     0
 42
0.0000000001
 43
0.0000000001
 40
0.0
 40
0.0
 40
0.0
 40
0.0
 40
1.0
 40
1.0
 40
1.0
 40
2.0
 40
2.0
 40
2.0
 40
2.0
 10
11.839829471024
 20
-12.39522410129984
 30
0.0
 10
11.81779968652801
 20
-12.39522350626387
 30
0.0
 10
11.79994053527219
 20
-12.41308169277575
 30
0.0
 10
11.7999399402362
 20
-12.43511147727167
 30
0.0
 10
11.79993994021669
 20
-12.4351122000648
 30
0.0
 10
11.79993994021685
 20
-12.43511292285792
 30
0.0
 10
11.7999399402366
 20
-12.43511364565105
 30
0.0
  0
SPLINE
  5
11A
330
70
100
AcDbEntity
  8
Layer 1
 62
    18
420
        0
370
     5
100
AcDbSpline
210
0.0
220
0.0
230
1.0
 70
     8
 71
     3
 72
    11
 73
     7
 74
     0
 42
0.0000000001
 43
0.0000000001
 40
0.0
 40
0.0
 40
0.0
 40
0.0
 40
1.0
 40
1.0
 40
1.0
 40
2.0
 40
2.0
 40
2.0
 40
2.0
 10
11.79993993006532
 20
-11.70515276595733
 30
0.0
 10
11.7999393211743
 20
-11.72718254979203
 30
0.0
 10
11.81779749591838
 20
-11.74504171174347
 30
0.0
 10
11.83982727975318
 20
-11.74504232063446
 30
0.0
 10
11.83982801016425
 20
-11.74504232065475
 30
0.0
 10
11.83982874057548
 20
-11.74504232065475
 30
0.0
 10
11.83982947098661
 20
-11.74504232063489
 30
0.0
  0
SPLINE
  5
11B
330
70
100
AcDbEntity
  8
Layer 1
 62
    18
420
        0
370
     5
100
AcDbSpline
210
0.0
220
0.0
230
1.0
 70
     8
 71
     3
 72
   266
 73
   262
 74
     0
 42
0.0000000001
 43
0.0000000001
 40
0.0
 40
0.0
 40
0.0
 40
0.0
 40
1.0
 40
1.0
 40
1.0
 40
2.0
 40
2.0
 40
2.0
 40
3.0
 40
3.0
 40
3.0
 40
4.0
 40
4.0
 40
4.0
 40
5.0
 40
5.0
 40
5.0
 40
6.0
 40
6.0
 40
6.0
 40
7.0
 40
7.0
 40
7.0
 40
8.0
 40
8.0
 40
8.0
 40
9.0
 40
9.0
 40
9.0
 40
10.0
 40
10.0
 40
10.0
 40
11.0
 40
11.0
 40
11.0
 40
12.0
 40
12.0
 40
12.0
 40
13.0
 40
13.0
 40
13.0
 40
14.0
 40
14.0
 40
14.0
 40
15.0
 40
15.0
 40
15.0
 40
16.0
 40
16.0
 40
16.0
 40
17.0
 40
17.0
 40
17.0
 40
18.0
 40
18.0
 40
18.0
 40
19.0
 40
19.0
 40
19.0
 40
20.0
 40
20.0
 40
20.0
 40
21.0
 40
21.0
 40
21.0
 40
22.0
 40
22.0
 40
22.0
 40
23.0
 40
23.0
 40
23.0
 40
24.0
 40
24.0
 40
24.0
 40
25.0
 40
25.0
 40
25.0
 40
26.0
 40
26.0
 40
26.0
 40
27.0
 40
27.0
 40
27.0
 40
28.0
 40
28.0
 40
28.0
 40
29.0
 40
29.0
 40
29.0
 40
30.0
 40
30.0
 40
30.0
 40
31.0
 40
31.0
 40
31.0
 40
32.0
 40
32.0
 40
32.0
 40
33.0
 40
33.0
 40
33.0
 40
34.0
 40
34.0
 40
34.0
 40
35.0
 40
35.0
 40
35.0
 40
36.0
 40
36.0
 40
36.0
 40
37.0
 40
37.0
 40
37.0
 40
38.0
 40
38.0
 40
38.0
 40
39.0
 40
39.0
 40
39.0
 40
40.0
 40
40.0
 40
40.0
 40
41.0
 40
41.0
 40
41.0
 40
42.0
 40
42.0
 40
42.0
 40
43.0
 40
43.0
 40
43.0
 40
44.0
 40
44.0
 40
44.0
 40
45.0
 40
45.0
 40
45.0
 40
46.0
 40
46.0
 40
46.0
 40
47.0
 40
47.0
 40
47.0
 40
48.0
 40
48.0
 40
48.0
 40
49.0
 40
49.0
 40
49.0
 40
50.0
 40
50.0
 40
50.0
 40
51.0
 40
51.0
 40
51.0
 40
52.0
 40
52.0
 40
52.0
 40
53.0
 40
53.0
 40
53.0
 40
54.0
 40
54.0
 40
54.0
 40
55.0
 40
55.0
 40
55.0
 40
56.0
 40
56.0
 40
56.0
 40
57.0
 40
57.0
 40
57.0
 40
58.0
 40
58.0
 40
58.0
 40
59.0
 40
59.0
 40
59.0
 40
60.0
 40
60.0
 40
60.0
 40
61.0
 40
61.0
 40
61.0
 40
62.0
 40
62.0
 40
62.0
 40
63.0
 40
63.0
 40
63.0
 40
64.0
 40
64.0
 40
64.0
 40
65.0
 40
65.0
 40
65.0
 40
66.0
 40
66.0
 40
66.0
 40
67.0
 40
67.0
 40
67.0
 40
68.0
 40
68.0
 40
68.0
 40
69.0
 40
69.0
 40
69.0
 40
70.0
 40
70.0
 40
70.0
 40
71.0
 40
71.0
 40
71.0
 40
72.0
 40
72.0
 40
72.0
 40
73.0
 40
73.0
 40
73.0
 40
74.0
 40
74.0
 40
74.0
 40
75.0
 40
75.0
 40
75.0
 40
76.0
 40
76.0
 40
76.0
 40
77.0
 40
77.0
 40
77.0
 40
78.0
 40
78.0
 40
78.0
 40
79.0
 40
79.0
 40
79.0
 40
80.0
 40
80.0
 40
80.0
 40
81.0
 40
81.0
 40
81.0
 40
82.0
 40
82.0
 40
82.0
 40
83.0
 40
83.0
 40
83.0
 40
84.0
 40
84.0
 40
84.0
 40
85.0
 40
85.0
 40
85.0
 40
86.0
 40
86.0
 40
86.0
 40
87.0
 40
87.0
 40
87.0
 40
87.0
 10
11.83982947100642
 20
-12.39522507297104
 30
0.0
 10
11.83982555584329
 20
-12.39522340064261
 30
0.0
 10
11.83982284588847
 20
-12.39521983866108
 30
0.0
 10
11.8398199801105
 20
-12.39521652591525
 30
0.0
 10
11.83981161899694
 20
-12.39520686074024
 30
0.0
 10
11.83980193148189
 20
-12.39519931711478
 30
0.0
 10
11.8397925213923
 20
-12.39519133432039
 30
0.0
 10
11.8397769433156
 20
-12.39517811908142
 30
0.0
 10
11.83976212554166
 20
-12.39516370027177
 30
0.0
 10
11.83974714423453
 20
-12.39514954374704
 30
0.0
 10
11.83972624755908
 20
-12.39512979751933
 30
0.0
 10
11.83970503271242
 20
-12.39511056159495
 30
0.0
 10
11.83968389798262
 20
-12.39509120002685
 30
0.0
 10
11.83965679701663
 20
-12.39506637277779
 30
0.0
 10
11.83962982778532
 20
-12.39504133893484
 30
0.0
 10
11.83960283209083
 20
-12.39501634878317
 30
0.0
 10
11.83956990981252
 20
-12.39498587234058
 30
0.0
 10
11.83953694817609
 20
-12.39495546087871
 30
0.0
 10
11.83950399594596
 20
-12.39492503578498
 30
0.0
 10
11.83942036139883
 20
-12.39484781524718
 30
0.0
 10
11.83933678744354
 20
-12.39477050689717
 30
0.0
 10
11.83925321023783
 20
-12.39469320731079
 30
0.0
 10
11.83914611897406
 20
-12.39459415984543
 30
0.0
 10
11.83903902237357
 20
-12.39449512676884
 30
0.0
 10
11.83893193617382
 20
-12.39439608034427
 30
0.0
 10
11.83880146876062
 20
-12.39427540811193
 30
0.0
 10
11.83867101678574
 20
-12.39415471606644
 30
0.0
 10
11.83854056879194
 20
-12.39403402047754
 30
0.0
 10
11.83838687475663
 20
-12.39389181674139
 30
0.0
 10
11.83823318624763
 20
-12.39374960808625
 30
0.0
 10
11.83807950314546
 20
-12.39360739334526
 30
0.0
 10
11.83790270738038
 20
-12.39344379068767
 30
0.0
 10
11.8377259187707
 20
-12.39328017997612
 30
0.0
 10
11.8375491343997
 20
-12.39311656474097
 30
0.0
 10
11.83712675898179
 20
-12.39272565318586
 30
0.0
 10
11.83670440775962
 20
-12.39233471580739
 30
0.0
 10
11.83628206824419
 20
-12.39194376570973
 30
0.0
 10
11.83576901779578
 20
-12.39146884656171
 30
0.0
 10
11.83525598462289
 20
-12.3909939086442
 30
0.0
 10
11.83474298205811
 20
-12.39051893766729
 30
0.0
 10
11.8341416340406
 20
-12.38996217075242
 30
0.0
 10
11.83354032808112
 20
-12.38940535841124
 30
0.0
 10
11.83293907462932
 20
-12.38884848939336
 30
0.0
 10
11.83225239939492
 20
-12.38821250441512
 30
0.0
 10
11.831565792648
 20
-12.38757644551179
 30
0.0
 10
11.8308792586286
 20
-12.38694030812379
 30
0.0
 10
11.83011023292495
 20
-12.38622773454613
 30
0.0
 10
11.82934129847631
 20
-12.38551506248975
 30
0.0
 10
11.82857245710367
 20
-12.38480229000525
 30
0.0
 10
11.8277240556529
 20
-12.38401575947859
 30
0.0
 10
11.82687576753793
 20
-12.38322910666387
 30
0.0
 10
11.82602759312537
 20
-12.38244233130869
 30
0.0
 10
11.82510279093718
 20
-12.38158447523642
 30
0.0
 10
11.82417812392418
 20
-12.38072647348195
 30
0.0
 10
11.8232535899283
 20
-12.37986832840245
 30
0.0
 10
11.82225538028585
 20
-12.37894179817547
 30
0.0
 10
11.82125732570532
 20
-12.37801510087049
 30
0.0
 10
11.82025943695516
 20
-12.37708822500063
 30
0.0
 10
11.81805511513387
 20
-12.37504076960524
 30
0.0
 10
11.81585160250135
 20
-12.37299244288164
 30
0.0
 10
11.81364897592602
 20
-12.37094316376897
 30
0.0
 10
11.81118954174333
 20
-12.36865495606455
 30
0.0
 10
11.80873121227612
 20
-12.3663655609436
 30
0.0
 10
11.80627403668096
 20
-12.36407492800236
 30
0.0
 10
11.80358549510805
 20
-12.36156861062606
 30
0.0
 10
11.80089833493308
 20
-12.35906081135037
 30
0.0
 10
11.7982126522227
 20
-12.35655143065913
 30
0.0
 10
11.79531931973724
 20
-12.35384803139153
 30
0.0
 10
11.79242770201596
 20
-12.35114279671309
 30
0.0
 10
11.7895380063853
 20
-12.34843551016405
 30
0.0
 10
11.78646117098358
 20
-12.34555289685085
 30
0.0
 10
11.78338651468703
 20
-12.34266795729892
 30
0.0
 10
11.78031421240078
 20
-12.33978051295796
 30
0.0
 10
11.7770749083374
 20
-12.33673611520175
 30
0.0
 10
11.77383822115459
 20
-12.33368893294869
 30
0.0
 10
11.77060437892709
 20
-12.33063873348616
 30
0.0
 10
11.76722222251932
 20
-12.32744864227829
 30
0.0
 10
11.76384317800812
 20
-12.32425525075718
 30
0.0
 10
11.76046773344152
 20
-12.3210580595243
 30
0.0
 10
11.7569590441094
 20
-12.31773466002834
 30
0.0
 10
11.75345424454503
 20
-12.31440715491445
 30
0.0
 10
11.74995366526165
 20
-12.31107520877109
 30
0.0
 10
11.7426093963181
 20
-12.30408473473757
 30
0.0
 10
11.73528370365145
 20
-12.29707471276502
 30
0.0
 10
11.72798248234451
 20
-12.2900392698657
 30
0.0
 10
11.72030284385907
 20
-12.2826391848961
 30
0.0
 10
11.712650279137
 20
-12.27521097561453
 30
0.0
 10
11.70503405735298
 20
-12.26774558673044
 30
0.0
 10
11.69711712751604
 20
-12.25998544506504
 30
0.0
 10
11.68923946709676
 20
-12.2521851299457
 30
0.0
 10
11.68141764488291
 20
-12.24432911654228
 30
0.0
 10
11.67335712595283
 20
-12.23623336301802
 30
0.0
 10
11.66535590523168
 20
-12.22807845987621
 30
0.0
 10
11.65744372347358
 20
-12.21983719394805
 30
0.0
 10
11.64934353567946
 20
-12.21140010242003
 30
0.0
 10
11.64133666853604
 20
-12.2028724951093
 30
0.0
 10
11.6334831589899
 20
-12.19420560008019
 30
0.0
 10
11.62949946204053
 20
-12.18980931290646
 30
0.0
 10
11.62555522447769
 20
-12.18537718656939
 30
0.0
 10
11.62166550112607
 20
-12.1808974995087
 30
0.0
 10
11.61774399516164
 20
-12.17638120928983
 30
0.0
 10
11.61387789791024
 20
-12.17181657794203
 30
0.0
 10
11.61008484047561
 20
-12.16719171577074
 30
0.0
 10
11.6062638489868
 20
-12.16253279370135
 30
0.0
 10
11.60251697708271
 20
-12.15781275039921
 30
0.0
 10
11.59888027658318
 20
-12.15300800730539
 30
0.0
 10
11.59522007436488
 20
-12.14817221416468
 30
0.0
 10
11.59167147208973
 20
-12.14325062297136
 30
0.0
 10
11.58828223704467
 20
-12.13822160093539
 30
0.0
 10
11.58657938970357
 20
-12.13569487833036
 30
0.0
 10
11.58491677208889
 20
-12.13314103651515
 30
0.0
 10
11.58330653698625
 20
-12.13055432899114
 30
0.0
 10
11.58169206749059
 20
-12.12796081927036
 30
0.0
 10
11.580130256367
 20
-12.12533427076128
 30
0.0
 10
11.57863379645717
 20
-12.12267079462524
 30
0.0
 10
11.57713295080268
 20
-12.11999951251581
 30
0.0
 10
11.5756978399789
 20
-12.11729108601109
 30
0.0
 10
11.57434215971372
 20
-12.11454309696384
 30
0.0
 10
11.57298198845774
 20
-12.11178600459483
 30
0.0
 10
11.57170177489469
 20
-12.10898908712953
 30
0.0
 10
11.57052425000837
 20
-12.10614894372896
 30
0.0
 10
11.56934468676195
 20
-12.10330388388438
 30
0.0
 10
11.56826816801953
 20
-12.10041544832193
 30
0.0
 10
11.56732070074225
 20
-12.09748463862863
 30
0.0
 10
11.56637091930507
 20
-12.0945466705224
 30
0.0
 10
11.56555082051143
 20
-12.09156612103758
 30
0.0
 10
11.564881627256
 20
-12.08855148769182
 30
0.0
 10
11.56421076275854
 20
-12.08552932560676
 30
0.0
 10
11.56369155848299
 20
-12.08247290920619
 30
0.0
 10
11.5633387170362
 20
-12.07939733377768
 30
0.0
 10
11.56298594194961
 20
-12.07632233678373
 30
0.0
 10
11.56279946712084
 20
-12.07322818796761
 30
0.0
 10
11.56279931405861
 20
-12.07013149671848
 30
0.0
 10
11.56279900839392
 20
-12.06394741501193
 30
0.0
 10
11.56354175303555
 20
-12.05775319409506
 30
0.0
 10
11.56488292764081
 20
-12.05171381098067
 30
0.0
 10
11.56555308720132
 20
-12.04869604556954
 30
0.0
 10
11.56637266345582
 20
-12.04571694024243
 30
0.0
 10
11.56732213978727
 20
-12.04277911131311
 30
0.0
 10
11.56826906205856
 20
-12.03984918504698
 30
0.0
 10
11.56934518649288
 20
-12.03696031341334
 30
0.0
 10
11.57052460711144
 20
-12.03411528108576
 30
0.0
 10
11.57170200896073
 20
-12.0312751184918
 30
0.0
 10
11.57298235368057
 20
-12.02847864525632
 30
0.0
 10
11.57434270367644
 20
-12.02572194628346
 30
0.0
 10
11.57569874291882
 20
-12.02297398289319
 30
0.0
 10
11.57713428119013
 20
-12.02026554208686
 30
0.0
 10
11.57863521544239
 20
-12.01759407714106
 30
0.0
 10
11.5801316354535
 20
-12.01493064694902
 30
0.0
 10
11.58169305866436
 20
-12.01230397053321
 30
0.0
 10
11.58330734188921
 20
-12.00971044232826
 30
0.0
 10
11.58491739732689
 20
-12.00712370654062
 30
0.0
 10
11.58658003626169
 20
-12.00456994556187
 30
0.0
 10
11.58828290522819
 20
-12.00204330979333
 30
0.0
 10
11.59167228155118
 20
-11.99701431483292
 30
0.0
 10
11.59522103555236
 20
-11.99209278071263
 30
0.0
 10
11.59888134343317
 20
-11.98725700907155
 30
0.0
 10
11.60251809857335
 20
-11.98245235384989
 30
0.0
 10
11.60626497659523
 20
-11.97773236095802
 30
0.0
 10
11.6100859315766
 20
-11.97307345323651
 30
0.0
 10
11.6138789712296
 20
-11.9684485828012
 30
0.0
 10
11.61774500940552
 20
-11.96388390823825
 30
0.0
 10
11.62166652083594
 20
-11.95936763096753
 30
0.0
 10
11.62555624726585
 20
-11.95488795944872
 30
0.0
 10
11.62950055134064
 20
-11.9504559038531
 30
0.0
 10
11.63348428228679
 20
-11.94605965882404
 30
0.0
 10
11.64133785429013
 20
-11.93739285191709
 30
0.0
 10
11.64934465734329
 20
-11.92886522142758
 30
0.0
 10
11.65744481065646
 20
-11.92042813259336
 30
0.0
 10
11.66535695346831
 20
-11.91218687478102
 30
0.0
 10
11.67335816337539
 20
-11.9040320043258
 30
0.0
 10
11.68141866021581
 20
-11.89593627302325
 30
0.0
 10
11.6892404540648
 20
-11.88808028814277
 30
0.0
 10
11.69711807540274
 20
-11.8802799915936
 30
0.0
 10
11.70503498072341
 20
-11.87251988314627
 30
0.0
 10
11.71265114641904
 20
-11.86505455807827
 30
0.0
 10
11.72030366822208
 20
-11.85762642585193
 30
0.0
 10
11.7279832535059
 20
-11.85022640747317
 30
0.0
 10
11.73528439496342
 20
-11.8431910560873
 30
0.0
 10
11.74260999829039
 20
-11.83618111596608
 30
0.0
 10
11.74995417903245
 20
-11.82919072490277
 30
0.0
 10
11.75345473141965
 20
-11.82585880389176
 30
0.0
 10
11.75695950438292
 20
-11.82253132420298
 30
0.0
 10
11.76046816628981
 20
-11.81920794923922
 30
0.0
 10
11.76384357858569
 20
-11.8160107871831
 30
0.0
 10
11.76722259005062
 20
-11.81281742399915
 30
0.0
 10
11.77060471499814
 20
-11.80962736281698
 30
0.0
 10
11.77383851639229
 20
-11.80657720220529
 30
0.0
 10
11.77707516417273
 20
-11.80353006032657
 30
0.0
 10
11.78031442789365
 20
-11.80048570197538
 30
0.0
 10
11.7833867076116
 20
-11.79759828025794
 30
0.0
 10
11.78646134051834
 20
-11.79471336248336
 30
0.0
 10
11.78953815265504
 20
-11.7918307710816
 30
0.0
 10
11.79242783234374
 20
-11.78912349957654
 30
0.0
 10
11.79531943424098
 20
-11.78641828006865
 30
0.0
 10
11.79821275145498
 20
-11.78371489654925
 30
0.0
 10
11.80089841949673
 20
-11.7812055309367
 30
0.0
 10
11.80358556547884
 20
-11.77869774723684
 30
0.0
 10
11.80627409266518
 20
-11.77619144522688
 30
0.0
 10
11.80873125984163
 20
-11.77390082192048
 30
0.0
 10
11.81118958073294
 20
-11.77161143626401
 30
0.0
 10
11.81364900554897
 20
-11.76932323720014
 30
0.0
 10
11.81585162653265
 20
-11.76727396322364
 30
0.0
 10
11.8180551329416
 20
-11.76522564097786
 30
0.0
 10
11.8202594469667
 20
-11.76317818831421
 30
0.0
 10
11.82125733245478
 20
-11.76225131343282
 30
0.0
 10
11.82225538345104
 20
-11.76132461675863
 30
0.0
 10
11.82325358906385
 20
-11.76039808666494
 30
0.0
 10
11.82417811918281
 20
-11.75953994184323
 30
0.0
 10
11.82510278193677
 20
-11.75868193991967
 30
0.0
 10
11.82602757957599
 20
-11.75782408340167
 30
0.0
 10
11.82687574975928
 20
-11.7570373076907
 30
0.0
 10
11.82772403340105
 20
-11.75625065428756
 30
0.0
 10
11.82857243023159
 20
-11.7554641230013
 30
0.0
 10
11.82934126749612
 20
-11.75475134975555
 30
0.0
 10
11.83011019771607
 20
-11.75403867679744
 30
0.0
 10
11.83087921923404
 20
-11.75332610235043
 30
0.0
 10
11.83156574980921
 20
-11.7526899639155
 30
0.0
 10
11.83225235314638
 20
-11.7520539039911
 30
0.0
 10
11.83293902517984
 20
-11.75141791823694
 30
0.0
 10
11.83354027629924
 20
-11.75086104810397
 30
0.0
 10
11.8341415800865
 20
-11.75030423483559
 30
0.0
 10
11.83474292645544
 20
-11.74974746753898
 30
0.0
 10
11.83525592827509
 20
-11.74927249562425
 30
0.0
 10
11.83576896108399
 20
-11.74879755716589
 30
0.0
 10
11.83628201186906
 20
-11.74832263824234
 30
0.0
 10
11.83670435133316
 20
-11.74793168863375
 30
0.0
 10
11.83712670297879
 20
-11.74754075226282
 30
0.0
 10
11.83754907951727
 20
-11.74714984249787
 30
0.0
 10
11.83772586423914
 20
-11.74698622812111
 30
0.0
 10
11.83790265332191
 20
-11.74682261840525
 30
0.0
 10
11.83807944973286
 20
-11.74665901694488
 30
0.0
 10
11.8382331334932
 20
-11.74651680315497
 30
0.0
 10
11.838386822791
 20
-11.746374595603
 30
0.0
 10
11.83854051780991
 20
-11.74623239313662
 30
0.0
 10
11.83867096687734
 20
-11.74611169840462
 30
0.0
 10
11.83880142006614
 20
-11.74599100733621
 30
0.0
 10
11.83893188887196
 20
-11.74587033629958
 30
0.0
 10
11.83903897664486
 20
-11.74577129045893
 30
0.0
 10
11.83914607493898
 20
-11.74567225811349
 30
0.0
 10
11.83925316813868
 20
-11.74557321165454
 30
0.0
 10
11.83933674748631
 20
-11.74549591227006
 30
0.0
 10
11.83942032373102
 20
-11.74541860428934
 30
0.0
 10
11.83950396081546
 20
-11.74534138435074
 30
0.0
 10
11.83953691441305
 20
-11.74531095915361
 30
0.0
 10
11.83956987745543
 20
-11.74528054762413
 30
0.0
 10
11.83960280131272
 20
-11.74525007130493
 30
0.0
 10
11.83962979859196
 20
-11.74522508098579
 30
0.0
 10
11.83965676952362
 20
-11.7452000471028
 30
0.0
 10
11.83968387205037
 20
-11.74517521961133
 30
0.0
 10
11.83970500843843
 20
-11.74515585745012
 30
0.0
 10
11.8397262248618
 20
-11.74513662081479
 30
0.0
 10
11.83974712384125
 20
-11.74511687477881
 30
0.0
 10
11.83976210731801
 20
-11.74510271790235
 30
0.0
 10
11.83977692762407
 20
-11.74508829918669
 30
0.0
 10
11.83979250706271
 20
-11.74507508266412
 30
0.0
 10
11.83980191881525
 20
-11.74506709838154
 30
0.0
 10
11.83981160761575
 20
-11.74505955284341
 30
0.0
 10
11.83981997261493
 20
-11.74504988865866
 30
0.0
 10
11.8398228409052
 20
-11.74504657488832
 30
0.0
 10
11.83982555354969
 20
-11.74504301201831
 30
0.0
 10
11.83982947100642
 20
-11.74504133859298
 30
0.0
  0
LINE
  5
11C
330
70
100
AcDbEntity
  8
Layer 1
 62
    40
420
 16695056
370
     5
100
AcDbLine
 10
4.336991600650486
 20
-1.636239004815517
 30
0.0
 11
4.336991600650486
 21
-1.638731499817544
 31
0.0
  0
LINE
  5
11D
330
70
100
AcDbEntity
  8
Layer 1
 62
    40
420
 16695056
370
     5
100
AcDbLine
 10
5.334205917181078
 20
-1.638731499717815
 30
0.0
 11
5.334205917181078
 21
-1.636239004715801
 31
0.0
  0
LINE
  5
11E
330
70
100
AcDbEntity
  8
Layer 1
 62
    40
420
 16695056
370
     5
100
AcDbLine
 10
14.7294105745114
 20
-13.38645610360246
 30
0.0
 11
14.7295120105533
 21
-13.38645610360246
 31
0.0
  0
LINE
  5
11F
330
70
100
AcDbEntity
  8
Layer 1
 62
    40
420
 16695056
370
     5
100
AcDbLine
 10
14.72861003259729
 20
-13.28673467194936
 30
0.0
 11
14.72850934287051
 21
-13.28673467194936
 31
0.0
  0
LINE
  5
120
330
70
100
AcDbEntity
  8
Layer 1
 62
    40
420
 16695056
370
     5
100
AcDbLine
 10
14.72833178766483
 20
-7.881833076353485
 30
0.0
 11
14.7287388166436
 21
-7.881833076353485
 31
0.0
  0
LINE
  5
121
330
70
100
AcDbEntity
  8
Layer 1
 62
    40
420
 16695056
370
     5
100
AcDbLine
 10
14.73123131164561
 20
-7.6125852108902
 30
0.0
 11
14.73082471246622
 21
-7.6125852108902
 31
0.0
  0
SPLINE
  5
122
330
70
100
AcDbEntity
  8
Layer 1
 62
    40
420
 16695056
370
     5
100
AcDbSpline
210
0.0
220
0.0
230
1.0
 70
     8
 71
     3
 72
     8
 73
     4
 74
     0
 42
0.0000000001
 43
0.0000000001
 40
0.0
 40
0.0
 40
0.0
 40
0.0
 40
1.0
 40
1.0
 40
1.0
 40
1.0
 10
14.72861003261806
 20
-13.28673467168502
 30
0.0
 10
14.72890526486359
 20
-13.31997519789802
 30
0.0
 10
14.72920592417684
 20
-13.35321567552341
 30
0.0
 10
14.72951201054896
 20
-13.38645610356126
 30
0.0
  0
SPLINE
  5
123
330
70
100
AcDbEntity
  8
Layer 1
 62
    40
420
 16695056
370
     5
100
AcDbSpline
210
0.0
220
0.0
230
1.0
 70
     8
 71
     3
 72
     8
 73
     4
 74
     0
 42
0.0000000001
 43
0.0000000001
 40
0.0
 40
0.0
 40
0.0
 40
0.0
 40
1.0
 40
1.0
 40
1.0
 40
1.0
 10
14.73123131158955
 20
-7.61258521083304
 30
0.0
 10
14.73036091657824
 20
-7.702334128695282
 30
0.0
 10
14.72953008485486
 20
-7.792083425953073
 30
0.0
 10
14.72873881666265
 20
-7.881833076312128
 30
0.0
  0
LINE
  5
124
330
70
100
AcDbEntity
  8
Layer 1
 62
    18
420
        0
370
     5
100
AcDbLine
 10
4.496545891295403
 20
-10.91336459860655
 30
0.0
 11
4.496545891295403
 21
-15.19640008810554
 31
0.0
  0
LINE
  5
125
330
70
100
AcDbEntity
  8
Layer 1
 62
    18
420
        0
370
     5
100
AcDbLine
 10
4.536434463956601
 20
-7.572006456826708
 30
0.0
 11
4.536434463956601
 21
-9.787202602428907
 31
0.0
  0
LINE
  5
126
330
70
100
AcDbEntity
  8
Layer 1
 62
    18
420
        0
370
     5
100
AcDbLine
 10
5.134763053874962
 20
-7.572006456826708
 30
0.0
 11
5.134763053874962
 21
-9.787202602428907
 31
0.0
  0
LINE
  5
127
330
70
100
AcDbEntity
  8
Layer 1
 62
    18
420
        0
370
     5
100
AcDbLine
 10
5.174651626536197
 20
-10.91336459860655
 30
0.0
 11
5.174651626536197
 21
-15.19640008810554
 31
0.0
  0
LINE
  5
128
330
70
100
AcDbEntity
  8
Layer 1
 62
    18
420
        0
370
     5
100
AcDbLine
 10
1.345350339940851
 20
-1.157386170633774
 30
0.0
 11
8.32584717789075
 21
-1.157386170633774
 31
0.0
  0
LINE
  5
129
330
70
100
AcDbEntity
  8
Layer 1
 62
    18
420
        0
370
     5
100
AcDbLine
 10
14.83501149770957
 20
-14.06456183884325
 30
0.0
 11
15.15025128673581
 21
-14.06456183884325
 31
0.0
  0
LINE
  5
12A
330
70
100
AcDbEntity
  8
Layer 1
 62
    18
420
        0
370
     5
100
AcDbLine
 10
13.07536140207922
 20
-9.837069288378188
 30
0.0
 11
13.06845215382357
 21
-9.441238717095883
 31
0.0
  0
LINE
  5
12B
330
70
100
AcDbEntity
  8
Layer 1
 62
    18
420
        0
370
     5
100
AcDbLine
 10
13.07536140207922
 20
-8.319911224101979
 30
0.0
 11
13.06845215382357
 21
-8.715741795284531
 31
0.0
  0
LINE
  5
12C
330
70
100
AcDbEntity
  8
Layer 1
 62
    18
420
        0
370
     5
100
AcDbLine
 10
15.21008414572765
 20
-14.06404894808565
 30
0.0
 11
15.21008414572765
 21
-7.084061623129008
 31
0.0
  0
LINE
  5
12D
330
70
100
AcDbEntity
  8
Layer 1
 62
    18
420
        0
370
     5
100
AcDbLine
 10
13.06845215382357
 20
-9.367682407984021
 30
0.0
 11
12.79483107109051
 21
-9.367682407984021
 31
0.0
  0
LINE
  5
12E
330
70
100
AcDbEntity
  8
Layer 1
 62
    18
420
        0
370
     5
100
AcDbLine
 10
13.06844987558777
 20
-8.789298104396316
 30
0.0
 11
12.79483107109051
 21
-8.789298104396316
 31
0.0
  0
SPLINE
  5
12F
330
70
100
AcDbEntity
  8
Layer 1
 62
    18
420
        0
370
     5
100
AcDbSpline
210
0.0
220
0.0
230
1.0
 70
     8
 71
     3
 72
     8
 73
     4
 74
     0
 42
0.0000000001
 43
0.0000000001
 40
0.0
 40
0.0
 40
0.0
 40
0.0
 40
1.0
 40
1.0
 40
1.0
 40
1.0
 10
5.134840140344319
 20
-9.223604116242439
 30
0.0
 10
5.179279816905919
 20
-9.131964418974776
 30
0.0
 10
5.179279552391739
 20
-9.025014393387815
 30
0.0
 10
5.134839422534873
 20
-8.933374915942092
 30
0.0
  0
SPLINE
  5
130
330
70
100
AcDbEntity
  8
Layer 1
 62
    18
420
        0
370
     5
100
AcDbSpline
210
0.0
220
0.0
230
1.0
 70
     8
 71
     3
 72
     8
 73
     4
 74
     0
 42
0.0000000001
 43
0.0000000001
 40
0.0
 40
0.0
 40
0.0
 40
0.0
 40
1.0
 40
1.0
 40
1.0
 40
1.0
 10
4.536357377487257
 20
-8.933376396137948
 30
0.0
 10
4.491917700925657
 20
-9.02501609340566
 30
0.0
 10
4.491917965439824
 20
-9.131966118992597
 30
0.0
 10
4.536358095296691
 20
-9.22360559643832
 30
0.0
  0
SPLINE
  5
131
330
70
100
AcDbEntity
  8
Layer 1
 62
    18
420
        0
370
     5
100
AcDbSpline
210
0.0
220
0.0
230
1.0
 70
     8
 71
     3
 72
     8
 73
     4
 74
     0
 42
0.0000000001
 43
0.0000000001
 40
0.0
 40
0.0
 40
0.0
 40
0.0
 40
1.0
 40
1.0
 40
1.0
 40
1.0
 10
14.71726080550588
 20
-9.87626170304232
 30
0.0
 10
14.7167289747056
 20
-10.10894466582436
 30
0.0
 10
14.71646305904498
 20
-10.34162816041645
 30
0.0
 10
14.71646305904498
 20
-10.57431173098595
 30
0.0
  0
SPLINE
  5
132
330
70
100
AcDbEntity
  8
Layer 1
 62
    18
420
        0
370
     5
100
AcDbSpline
210
0.0
220
0.0
230
1.0
 70
     8
 71
     3
 72
    11
 73
     7
 74
     0
 42
0.0000000001
 43
0.0000000001
 40
0.0
 40
0.0
 40
0.0
 40
0.0
 40
1.0
 40
1.0
 40
1.0
 40
2.0
 40
2.0
 40
2.0
 40
2.0
 10
14.73529621547674
 20
-7.182675618012226
 30
0.0
 10
14.73123133528308
 20
-7.548683552365686
 30
0.0
 10
14.72782444983575
 20
-7.914698498644497
 30
0.0
 10
14.72507557565096
 20
-8.280718682447766
 30
0.0
 10
14.72507557565096
 20
-8.280718682447766
 30
0.0
 10
14.71726080550588
 20
-9.87626170304232
 30
0.0
 10
14.71726080550588
 20
-9.87626170304232
 30
0.0
  0
SPLINE
  5
133
330
70
100
AcDbEntity
  8
Layer 1
 62
    18
420
        0
370
     5
100
AcDbSpline
210
0.0
220
0.0
230
1.0
 70
     8
 71
     3
 72
     8
 73
     4
 74
     0
 42
0.0000000001
 43
0.0000000001
 40
0.0
 40
0.0
 40
0.0
 40
0.0
 40
1.0
 40
1.0
 40
1.0
 40
1.0
 10
15.21008414574241
 20
-14.06404894808894
 30
0.0
 10
15.19013876017665
 20
-14.06404892085968
 30
0.0
 10
15.1701937408852
 20
-14.0642198907298
 30
0.0
 10
15.15025128675206
 20
-14.06456183885052
 30
0.0
  0
ENDSEC
  0
SECTION
  2
OBJECTS
  0
DICTIONARY
  5
C
330
0
100
AcDbDictionary
281
     1
  3
ACAD_COLOR
350
63
  3
ACAD_DETAILVIEWSTYLE
350
6A
  3
ACAD_GROUP
350
D
  3
ACAD_LAYOUT
350
62
  3
ACAD_MATERIAL
350
10
  3
ACAD_MLEADERSTYLE
350
66
  3
ACAD_MLINESTYLE
350
5F
  3
ACAD_PLOTSETTINGS
350
61
  3
ACAD_PLOTSTYLENAME
350
E
  3
ACAD_SCALELIST
350
42
  3
ACAD_SECTIONVIEWSTYLE
350
68
  3
ACAD_TABLESTYLE
350
64
  3
ACAD_VISUALSTYLE
350
29
  3
ACDB_RECOMPOSE_DATA
350
13C
  3
AcDbVariableDictionary
350
134
  0
DICTIONARY
  5
63
102
{ACAD_REACTORS
330
C
102
}
330
C
100
AcDbDictionary
281
     1
  0
DICTIONARY
  5
6A
102
{ACAD_REACTORS
330
C
102
}
330
C
100
AcDbDictionary
281
     1
  3
Imperial24
350
6B
  0
DICTIONARY
  5
D
102
{ACAD_REACTORS
330
C
102
}
330
C
100
AcDbDictionary
281
     1
  0
DICTIONARY
  5
62
102
{ACAD_REACTORS
330
C
102
}
330
C
100
AcDbDictionary
281
     1
  3
Layout1
350
6F
  3
Layout2
350
77
  3
Model
350
73
  0
DICTIONARY
  5
10
102
{ACAD_REACTORS
330
C
102
}
330
C
100
AcDbDictionary
281
     1
  3
ByBlock
350
19
  3
ByLayer
350
11
  3
Global
350
21
  0
DICTIONARY
  5
66
102
{ACAD_REACTORS
330
C
102
}
330
C
100
AcDbDictionary
281
     1
  3
Standard
350
67
  0
DICTIONARY
  5
5F
102
{ACAD_REACTORS
330
C
102
}
330
C
100
AcDbDictionary
281
     1
  3
Standard
350
60
  0
DICTIONARY
  5
61
102
{ACAD_REACTORS
330
C
102
}
330
C
100
AcDbDictionary
281
     1
  0
ACDBDICTIONARYWDFLT
  5
E
102
{ACAD_REACTORS
330
C
102
}
330
C
100
AcDbDictionary
281
     1
  3
Normal
350
F
100
AcDbDictionaryWithDefault
340
F
  0
DICTIONARY
  5
42
102
{ACAD_REACTORS
330
C
102
}
330
C
100
AcDbDictionary
281
     1
  3
A0
350
43
  3
A1
350
44
  3
A2
350
45
  3
A3
350
46
  3
A4
350
47
  3
A5
350
48
  3
A6
350
49
  3
A7
350
4A
  3
A8
350
4B
  3
A9
350
4C
  3
B0
350
4D
  3
B1
350
4E
  3
B2
350
4F
  3
B3
350
50
  3
B4
350
51
  3
B5
350
52
  3
B6
350
53
  0
DICTIONARY
  5
68
102
{ACAD_REACTORS
330
C
102
}
330
C
100
AcDbDictionary
281
     1
  3
Imperial24
350
69
  0
DICTIONARY
  5
64
102
{ACAD_REACTORS
330
C
102
}
330
C
100
AcDbDictionary
281
     1
  3
Standard
350
65
  0
DICTIONARY
  5
29
102
{ACAD_REACTORS
330
C
102
}
330
C
100
AcDbDictionary
281
     1
  3
2dWireframe
350
2F
  3
Basic
350
2E
  3
Brighten
350
35
  3
ColorChange
350
39
  3
Conceptual
350
32
  3
Dim
350
34
  3
EdgeColorOff
350
41
  3
Facepattern
350
38
  3
Flat
350
2A
  3
FlatWithEdges
350
2B
  3
Gouraud
350
2C
  3
GouraudWithEdges
350
2D
  3
Hidden
350
31
  3
JitterOff
350
3F
  3
Linepattern
350
37
  3
OverhangOff
350
40
  3
Realistic
350
33
  3
Shaded
350
3E
  3
Shaded with edges
350
3D
  3
Shades of Gray
350
3A
  3
Sketchy
350
3B
  3
Thicken
350
36
  3
Wireframe
350
30
  3
X-Ray
350
3C
  0
XRECORD
  5
13C
102
{ACAD_REACTORS
330
C
102
}
330
C
100
AcDbXrecord
280
     1
 90
        1
330
65
  0
DICTIONARY
  5
134
102
{ACAD_REACTORS
330
C
102
}
330
C
100
AcDbDictionary
281
     1
  3
CANNOSCALE
350
139
  3
CMLEADERSTYLE
350
136
  3
CTABLESTYLE
350
135
  3
CVIEWDETAILSTYLE
350
137
  3
CVIEWSECTIONSTYLE
350
138
  0
ACDBDETAILVIEWSTYLE
  5
6B
102
{ACAD_REACTORS
330
6A
102
}
330
6A
100
AcDbModelDocViewStyle
 70
     0
  3
Imperial24
290
     1
300
Imperial24
 90
        0
100
AcDbDetailViewStyle
 70
     0
 71
     0
 90
        3
 71
     1
340
55
 62
   256
 40
0.24
340
0
 62
   256
 40
0.24
300

 40
0.36
280
     3
 71
     2
340
5D
 90
       25
 62
   256
 71
     3
340
55
 62
   256
 40
0.24
 90
        1
 40
0.75
 90
        1
300
%<\AcVar ViewType \f "%tc1">% %<\AcVar ViewDetailId>%\PSCALE %<\AcVar ViewScale \f "%sn">%
 71
     4
340
5D
 90
       25
 62
   256
340
5D
 90
       25
 62
   256
280
     0
  0
LAYOUT
  5
6F
102
{ACAD_REACTORS
330
62
102
}
330
62
100
AcDbPlotSettings
  1

  2

  4

  6

 40
0.0
 41
0.0
 42
0.0
 43
0.0
 44
0.0
 45
0.0
 46
0.0
 47
0.0
 48
0.0
 49
0.0
140
0.0
141
0.0
142
1.0
143
1.0
 70
   688
 72
     0
 73
     0
 74
     5
  7

 75
    16
147
1.0
 76
     0
 77
     2
 78
   300
148
0.0
149
0.0
100
AcDbLayout
  1
Layout1
 70
     1
 71
     1
 10
0.0
 20
0.0
 11
12.0
 21
9.0
 12
0.0
 22
0.0
 32
0.0
 14
0.0
 24
0.0
 34
0.0
 15
0.0
 25
0.0
 35
0.0
146
0.0
 13
0.0
 23
0.0
 33
0.0
 16
1.0
 26
0.0
 36
0.0
 17
0.0
 27
1.0
 37
0.0
 76
     0
330
6C
  0
LAYOUT
  5
77
102
{ACAD_REACTORS
330
62
102
}
330
62
100
AcDbPlotSettings
  1

  2

  4

  6

 40
0.0
 41
0.0
 42
0.0
 43
0.0
 44
0.0
 45
0.0
 46
0.0
 47
0.0
 48
0.0
 49
0.0
140
0.0
141
0.0
142
1.0
143
1.0
 70
   688
 72
     0
 73
     0
 74
     5
  7

 75
    16
147
1.0
 76
     0
 77
     2
 78
   300
148
0.0
149
0.0
100
AcDbLayout
  1
Layout2
 70
     1
 71
     2
 10
0.0
 20
0.0
 11
12.0
 21
9.0
 12
0.0
 22
0.0
 32
0.0
 14
0.0
 24
0.0
 34
0.0
 15
0.0
 25
0.0
 35
0.0
146
0.0
 13
0.0
 23
0.0
 33
0.0
 16
1.0
 26
0.0
 36
0.0
 17
0.0
 27
1.0
 37
0.0
 76
     0
330
74
  0
LAYOUT
  5
73
102
{ACAD_REACTORS
330
62
102
}
330
62
100
AcDbPlotSettings
  1

  2

  4

  6

 40
0.0
 41
0.0
 42
0.0
 43
0.0
 44
0.0
 45
0.0
 46
0.0
 47
0.0
 48
0.0
 49
0.0
140
0.0
141
0.0
142
1.0
143
1.0
 70
  1712
 72
     0
 73
     0
 74
     0
  7

 75
     0
147
1.0
 76
     0
 77
     2
 78
   300
148
0.0
149
0.0
100
AcDbLayout
  1
Model
 70
     1
 71
     0
 10
0.0
 20
0.0
 11
12.0
 21
9.0
 12
0.0
 22
0.0
 32
0.0
 14
0.0
 24
0.0
 34
0.0
 15
0.0
 25
0.0
 35
0.0
146
0.0
 13
0.0
 23
0.0
 33
0.0
 16
1.0
 26
0.0
 36
0.0
 17
0.0
 27
1.0
 37
0.0
 76
     0
330
70
  0
MATERIAL
  5
19
102
{ACAD_XDICTIONARY
360
1A
102
}
102
{ACAD_REACTORS
330
10
102
}
330
10
100
AcDbMaterial
  1
ByBlock
 72
     0
 43
0.0208333333333333
 43
0.0
 43
0.0
 43
0.0
 43
0.0
 43
0.0208333333333333
 43
0.0
 43
0.0
 43
0.0
 43
0.0
 43
1.0
 43
0.0
 43
0.0
 43
0.0
 43
0.0
 43
1.0
 77
     0
 47
0.0208333333333333
 47
0.0
 47
0.0
 47
0.0
 47
0.0
 47
0.0208333333333333
 47
0.0
 47
0.0
 47
0.0
 47
0.0
 47
1.0
 47
0.0
 47
0.0
 47
0.0
 47
0.0
 47
1.0
171
     0
 49
0.0208333333333333
 49
0.0
 49
0.0
 49
0.0
 49
0.0
 49
0.0208333333333333
 49
0.0
 49
0.0
 49
0.0
 49
0.0
 49
1.0
 49
0.0
 49
0.0
 49
0.0
 49
0.0
 49
1.0
175
     0
142
0.0208333333333333
142
0.0
142
0.0
142
0.0
142
0.0
142
0.0208333333333333
142
0.0
142
0.0
142
0.0
142
0.0
142
1.0
142
0.0
142
0.0
142
0.0
142
0.0
142
1.0
179
     0
144
0.0208333333333333
144
0.0
144
0.0
144
0.0
144
0.0
144
0.0208333333333333
144
0.0
144
0.0
144
0.0
144
0.0
144
1.0
144
0.0
144
0.0
144
0.0
144
0.0
144
1.0
147
0.0208333333333333
147
0.0
147
0.0
147
0.0
147
0.0
147
0.0208333333333333
147
0.0
147
0.0
147
0.0
147
0.0
147
1.0
147
0.0
147
0.0
147
0.0
147
0.0
147
1.0
  0
MATERIAL
  5
11
102
{ACAD_XDICTIONARY
360
12
102
}
102
{ACAD_REACTORS
330
10
102
}
330
10
100
AcDbMaterial
  1
ByLayer
 72
     0
 43
0.0208333333333333
 43
0.0
 43
0.0
 43
0.0
 43
0.0
 43
0.0208333333333333
 43
0.0
 43
0.0
 43
0.0
 43
0.0
 43
1.0
 43
0.0
 43
0.0
 43
0.0
 43
0.0
 43
1.0
 77
     0
 47
0.0208333333333333
 47
0.0
 47
0.0
 47
0.0
 47
0.0
 47
0.0208333333333333
 47
0.0
 47
0.0
 47
0.0
 47
0.0
 47
1.0
 47
0.0
 47
0.0
 47
0.0
 47
0.0
 47
1.0
171
     0
 49
0.0208333333333333
 49
0.0
 49
0.0
 49
0.0
 49
0.0
 49
0.0208333333333333
 49
0.0
 49
0.0
 49
0.0
 49
0.0
 49
1.0
 49
0.0
 49
0.0
 49
0.0
 49
0.0
 49
1.0
175
     0
142
0.0208333333333333
142
0.0
142
0.0
142
0.0
142
0.0
142
0.0208333333333333
142
0.0
142
0.0
142
0.0
142
0.0
142
1.0
142
0.0
142
0.0
142
0.0
142
0.0
142
1.0
179
     0
144
0.0208333333333333
144
0.0
144
0.0
144
0.0
144
0.0
144
0.0208333333333333
144
0.0
144
0.0
144
0.0
144
0.0
144
1.0
144
0.0
144
0.0
144
0.0
144
0.0
144
1.0
147
0.0208333333333333
147
0.0
147
0.0
147
0.0
147
0.0
147
0.0208333333333333
147
0.0
147
0.0
147
0.0
147
0.0
147
1.0
147
0.0
147
0.0
147
0.0
147
0.0
147
1.0
  0
MATERIAL
  5
21
102
{ACAD_XDICTIONARY
360
22
102
}
102
{ACAD_REACTORS
330
10
102
}
330
10
100
AcDbMaterial
  1
Global
 72
     0
 43
0.0208333333333333
 43
0.0
 43
0.0
 43
0.0
 43
0.0
 43
0.0208333333333333
 43
0.0
 43
0.0
 43
0.0
 43
0.0
 43
1.0
 43
0.0
 43
0.0
 43
0.0
 43
0.0
 43
1.0
 77
     0
 47
0.0208333333333333
 47
0.0
 47
0.0
 47
0.0
 47
0.0
 47
0.0208333333333333
 47
0.0
 47
0.0
 47
0.0
 47
0.0
 47
1.0
 47
0.0
 47
0.0
 47
0.0
 47
0.0
 47
1.0
171
     0
 49
0.0208333333333333
 49
0.0
 49
0.0
 49
0.0
 49
0.0
 49
0.0208333333333333
 49
0.0
 49
0.0
 49
0.0
 49
0.0
 49
1.0
 49
0.0
 49
0.0
 49
0.0
 49
0.0
 49
1.0
175
     0
142
0.0208333333333333
142
0.0
142
0.0
142
0.0
142
0.0
142
0.0208333333333333
142
0.0
142
0.0
142
0.0
142
0.0
142
1.0
142
0.0
142
0.0
142
0.0
142
0.0
142
1.0
179
     0
144
0.0208333333333333
144
0.0
144
0.0
144
0.0
144
0.0
144
0.0208333333333333
144
0.0
144
0.0
144
0.0
144
0.0
144
1.0
144
0.0
144
0.0
144
0.0
144
0.0
144
1.0
147
0.0208333333333333
147
0.0
147
0.0
147
0.0
147
0.0
147
0.0208333333333333
147
0.0
147
0.0
147
0.0
147
0.0
147
1.0
147
0.0
147
0.0
147
0.0
147
0.0
147
1.0
  0
MLEADERSTYLE
  5
67
102
{ACAD_REACTORS
330
66
102
}
330
66
100
AcDbMLeaderStyle
179
     2
170
     2
171
     1
172
     0
 90
        2
 40
0.0
 41
0.0
173
     1
 91
-1056964608
340
5B
 92
       -2
290
     1
 42
0.09
291
     1
 43
0.36
  3
Standard
 44
0.18
300

342
55
174
     1
178
     6
175
     1
176
     0
 93
-1056964608
 45
0.18
292
     0
297
     0
 46
0.18
 94
-1056964608
 47
1.0
 49
1.0
140
1.0
293
     1
141
0.0
294
     1
177
     0
142
1.0
295
     1
296
     0
143
0.125
271
     0
272
     9
273
     9
298
     1
  0
MLINESTYLE
  5
60
102
{ACAD_REACTORS
330
5F
102
}
330
5F
100
AcDbMlineStyle
  2
STANDARD
 70
     0
  3

 62
   256
 51
90.0
 52
90.0
 71
     2
 49
0.5
 62
   256
  6
BYLAYER
 49
-0.5
 62
   256
  6
BYLAYER
  0
ACDBPLACEHOLDER
  5
F
102
{ACAD_REACTORS
330
E
102
}
330
E
  0
SCALE
  5
43
102
{ACAD_REACTORS
330
42
102
}
330
42
100
AcDbScale
 70
     0
300
1:1
140
1.0
141
1.0
290
     1
  0
SCALE
  5
44
102
{ACAD_REACTORS
330
42
102
}
330
42
100
AcDbScale
 70
     0
300
1/128" = 1'-0"
140
0.0078125
141
12.0
290
     0
  0
SCALE
  5
45
102
{ACAD_REACTORS
330
42
102
}
330
42
100
AcDbScale
 70
     0
300
1/64" = 1'-0"
140
0.015625
141
12.0
290
     0
  0
SCALE
  5
46
102
{ACAD_REACTORS
330
42
102
}
330
42
100
AcDbScale
 70
     0
300
1/32" = 1'-0"
140
0.03125
141
12.0
290
     0
  0
SCALE
  5
47
102
{ACAD_REACTORS
330
42
102
}
330
42
100
AcDbScale
 70
     0
300
1/16" = 1'-0"
140
0.0625
141
12.0
290
     0
  0
SCALE
  5
48
102
{ACAD_REACTORS
330
42
102
}
330
42
100
AcDbScale
 70
     0
300
3/32" = 1'-0"
140
0.09375
141
12.0
290
     0
  0
SCALE
  5
49
102
{ACAD_REACTORS
330
42
102
}
330
42
100
AcDbScale
 70
     0
300
1/8" = 1'-0"
140
0.125
141
12.0
290
     0
  0
SCALE
  5
4A
102
{ACAD_REACTORS
330
42
102
}
330
42
100
AcDbScale
 70
     0
300
3/16" = 1'-0"
140
0.1875
141
12.0
290
     0
  0
SCALE
  5
4B
102
{ACAD_REACTORS
330
42
102
}
330
42
100
AcDbScale
 70
     0
300
1/4" = 1'-0"
140
0.25
141
12.0
290
     0
  0
SCALE
  5
4C
102
{ACAD_REACTORS
330
42
102
}
330
42
100
AcDbScale
 70
     0
300
3/8" = 1'-0"
140
0.375
141
12.0
290
     0
  0
SCALE
  5
4D
102
{ACAD_REACTORS
330
42
102
}
330
42
100
AcDbScale
 70
     0
300
1/2" = 1'-0"
140
0.5
141
12.0
290
     0
  0
SCALE
  5
4E
102
{ACAD_REACTORS
330
42
102
}
330
42
100
AcDbScale
 70
     0
300
3/4" = 1'-0"
140
0.75
141
12.0
290
     0
  0
SCALE
  5
4F
102
{ACAD_REACTORS
330
42
102
}
330
42
100
AcDbScale
 70
     0
300
1" = 1'-0"
140
1.0
141
12.0
290
     0
  0
SCALE
  5
50
102
{ACAD_REACTORS
330
42
102
}
330
42
100
AcDbScale
 70
     0
300
1-1/2" = 1'-0"
140
1.5
141
12.0
290
     0
  0
SCALE
  5
51
102
{ACAD_REACTORS
330
42
102
}
330
42
100
AcDbScale
 70
     0
300
3" = 1'-0"
140
3.0
141
12.0
290
     0
  0
SCALE
  5
52
102
{ACAD_REACTORS
330
42
102
}
330
42
100
AcDbScale
 70
     0
300
6" = 1'-0"
140
6.0
141
12.0
290
     0
  0
SCALE
  5
53
102
{ACAD_REACTORS
330
42
102
}
330
42
100
AcDbScale
 70
     0
300
1'-0" = 1'-0"
140
12.0
141
12.0
290
     0
  0
ACDBSECTIONVIEWSTYLE
  5
69
102
{ACAD_REACTORS
330
68
102
}
330
68
100
AcDbModelDocViewStyle
 70
     0
  3
Imperial24
290
     1
300
Imperial24
 90
        0
100
AcDbSectionViewStyle
 70
     0
 71
     0
 90
       78
 71
     1
340
55
 62
   256
 40
0.24
340
0
340
0
 62
   256
 40
0.24
300
I, O, Q, S, X, Z
 40
0.48
 90
        3
 40
0.18
 90
        1
 71
     2
340
5D
 90
       25
 62
   256
340
5D
 90
       50
 62
   256
 40
0.24
 40
0.0
 40
0.24
 71
     3
340
55
 62
   256
 40
0.24
 90
        1
 40
0.75
 90
        1
300
%<\AcVar ViewType \f "%tc1">% %<\AcVar ViewSectionStartId>%-%<\AcVar ViewSectionEndId>%\PSCALE %<\AcVar ViewScale \f "%sn">%
 71
     4
 62
   256
 62
   257
300
ANSI31
 40
1.0
 90
        0
290
     0
290
     0
 90
        6
 40
0.0
 40
1.570796326794896
 40
0.2617993877991494
 40
1.308996938995747
 40
-0.2617993877991494
 40
1.832595714594046
  0
TABLESTYLE
  5
65
102
{ACAD_XDICTIONARY
360
13A
102
}
102
{ACAD_REACTORS
330
64
102
}
330
64
100
AcDbTableStyle
280
     0
  3
Standard
 70
     0
 71
     0
 40
0.06
 41
0.06
280
     0
281
     0
  7
Standard
140
0.18
170
     2
 62
     0
 63
     7
283
     0
 90
      512
 91
        0
  1

274
    -2
284
     1
 64
     0
275
    -2
285
     1
 65
     0
276
    -2
286
     1
 66
     0
277
    -2
287
     1
 67
     0
278
    -2
288
     1
 68
     0
279
    -2
289
     1
 69
     0
  7
Standard
140
0.25
170
     5
 62
     0
 63
     7
283
     0
 90
      512
 91
        0
  1

274
    -2
284
     1
 64
     0
275
    -2
285
     1
 65
     0
276
    -2
286
     1
 66
     0
277
    -2
287
     1
 67
     0
278
    -2
288
     1
 68
     0
279
    -2
289
     1
 69
     0
  7
Standard
140
0.18
170
     5
 62
     0
 63
     7
283
     0
 90
      512
 91
        0
  1

274
    -2
284
     1
 64
     0
275
    -2
285
     1
 65
     0
276
    -2
286
     1
 66
     0
277
    -2
287
     1
 67
     0
278
    -2
288
     1
 68
     0
279
    -2
289
     1
 69
     0
  0
VISUALSTYLE
  5
2F
102
{ACAD_REACTORS
330
29
102
}
330
29
100
AcDbVisualStyle
  2
2dWireframe
 70
     4
177
     3
291
     0
 70
    58
 90
        0
176
     1
 90
        2
176
     1
 90
        0
176
     1
 90
        0
176
     1
 40
0.6
176
     1
 40
30.0
176
     1
 62
     7
420
 16777215
176
     1
 90
        1
176
     1
 90
        4
176
     1
 62
     7
176
     1
 62
   257
176
     1
 90
        1
176
     1
 90
        1
176
     1
 40
1.0
176
     1
 90
        0
176
     1
 62
   257
176
     1
 40
1.0
176
     1
 90
        1
176
     1
 90
        6
176
     1
 90
        2
176
     1
 62
     7
176
     1
 90
        5
176
     1
 90
        0
176
     1
 90
        0
176
     1
290
     0
176
     1
 90
        1
176
     1
 40
0.0
176
     1
 90
        0
176
     1
290
     1
176
     1
290
     1
176
     1
290
     0
176
     1
290
     0
176
     1
290
     0
176
     1
290
     0
176
     1
290
     0
176
     1
290
     0
176
     1
290
     0
176
     1
 90
       50
176
     1
 40
0.0
176
     1
 40
1.0
176
     1
 90
        0
176
     1
 62
    18
420
        0
176
     1
 90
       50
176
     1
 90
        3
176
     1
 62
     5
420
      255
176
     1
290
     0
176
     1
 90
       50
176
     1
 90
       50
176
     1
 90
       50
176
     1
290
     0
176
     1
 90
       50
176
     1
 62
   256
176
     0
 40
1.0
176
     0
 90
        2
176
     1
  1
strokes_ogs.tif
176
     1
290
     0
176
     1
 40
1.0
176
     1
 40
1.0
176
     1
  0
VISUALSTYLE
  5
2E
102
{ACAD_REACTORS
330
29
102
}
330
29
100
AcDbVisualStyle
  2
Basic
 70
     7
177
     3
291
     1
 70
    58
 90
        1
176
     1
 90
        0
176
     1
 90
        1
176
     1
 90
        0
176
     1
 40
0.6
176
     1
 40
30.0
176
     1
 62
     7
420
 16777215
176
     1
 90
        0
176
     1
 90
        4
176
     1
 62
     7
176
     1
 62
   257
176
     1
 90
        1
176
     1
 90
        1
176
     1
 40
1.0
176
     1
 90
        8
176
     1
 62
     7
176
     1
 40
1.0
176
     1
 90
        1
176
     1
 90
        6
176
     1
 90
        2
176
     1
 62
     7
176
     1
 90
        5
176
     1
 90
        0
176
     1
 90
        0
176
     1
290
     0
176
     1
 90
        1
176
     1
 40
0.0
176
     1
 90
        0
176
     1
290
     0
176
     1
290
     1
176
     1
290
     1
176
     1
290
     0
176
     1
290
     0
176
     1
290
     0
176
     1
290
     0
176
     1
290
     0
176
     1
290
     0
176
     1
 90
       50
176
     1
 40
0.0
176
     1
 40
1.0
176
     1
 90
        0
176
     1
 62
    18
420
        0
176
     1
 90
       50
176
     1
 90
        3
176
     1
 62
     5
420
      255
176
     1
290
     0
176
     1
 90
       50
176
     1
 90
       50
176
     1
 90
       50
176
     1
290
     0
176
     1
 90
       50
176
     1
 62
   256
176
     0
 40
1.0
176
     0
 90
        2
176
     1
  1
strokes_ogs.tif
176
     1
290
     0
176
     1
 40
1.0
176
     1
 40
1.0
176
     1
  0
VISUALSTYLE
  5
35
102
{ACAD_REACTORS
330
29
102
}
330
29
100
AcDbVisualStyle
  2
Brighten
 70
    12
177
     3
291
     1
 70
    58
 90
        2
176
     1
 90
        2
176
     1
 90
        0
176
     1
 90
        0
176
     1
 40
0.6
176
     1
 40
30.0
176
     1
 62
     7
420
 16777215
176
     1
 90
        1
176
     1
 90
        4
176
     1
 62
     7
176
     1
 62
   257
176
     1
 90
        1
176
     1
 90
        1
176
     1
 40
1.0
176
     1
 90
        8
176
     1
 62
     7
176
     1
 40
1.0
176
     1
 90
        1
176
     1
 90
        6
176
     1
 90
        2
176
     1
 62
     7
176
     1
 90
        5
176
     1
 90
        0
176
     1
 90
        0
176
     1
290
     0
176
     1
 90
        1
176
     1
 40
50.0
176
     1
 90
        0
176
     1
290
     0
176
     1
290
     1
176
     1
290
     1
176
     1
290
     0
176
     1
290
     0
176
     1
290
     0
176
     1
290
     0
176
     1
290
     0
176
     1
290
     0
176
     1
 90
       50
176
     1
 40
0.0
176
     1
 40
1.0
176
     1
 90
        0
176
     1
 62
    18
420
        0
176
     1
 90
       50
176
     1
 90
        3
176
     1
 62
     5
420
      255
176
     1
290
     0
176
     1
 90
       50
176
     1
 90
       50
176
     1
 90
       50
176
     1
290
     0
176
     1
 90
       50
176
     1
 62
   256
176
     0
 40
1.0
176
     0
 90
        2
176
     1
  1
strokes_ogs.tif
176
     1
290
     0
176
     1
 40
1.0
176
     1
 40
1.0
176
     1
  0
VISUALSTYLE
  5
39
102
{ACAD_REACTORS
330
29
102
}
330
29
100
AcDbVisualStyle
  2
ColorChange
 70
    16
177
     3
291
     1
 70
    58
 90
        2
176
     1
 90
        2
176
     1
 90
        3
176
     1
 90
        0
176
     1
 40
0.6
176
     1
 40
30.0
176
     1
 62
     8
420
  8421504
176
     1
 90
        1
176
     1
 90
        4
176
     1
 62
     7
176
     1
 62
   257
176
     1
 90
        1
176
     1
 90
        1
176
     1
 40
1.0
176
     1
 90
        8
176
     1
 62
     8
420
  8421504
176
     1
 40
1.0
176
     1
 90
        1
176
     1
 90
        6
176
     1
 90
        2
176
     1
 62
     7
176
     1
 90
        5
176
     1
 90
        0
176
     1
 90
        0
176
     1
290
     0
176
     1
 90
        1
176
     1
 40
0.0
176
     1
 90
        0
176
     1
290
     0
176
     1
290
     1
176
     1
290
     1
176
     1
290
     0
176
     1
290
     0
176
     1
290
     0
176
     1
290
     0
176
     1
290
     0
176
     1
290
     0
176
     1
 90
       50
176
     1
 40
0.0
176
     1
 40
1.0
176
     1
 90
        0
176
     1
 62
    18
420
        0
176
     1
 90
       50
176
     1
 90
        3
176
     1
 62
     5
420
      255
176
     1
290
     0
176
     1
 90
       50
176
     1
 90
       50
176
     1
 90
       50
176
     1
290
     0
176
     1
 90
       50
176
     1
 62
   256
176
     0
 40
1.0
176
     0
 90
        2
176
     1
  1
strokes_ogs.tif
176
     1
290
     0
176
     1
 40
1.0
176
     1
 40
1.0
176
     1
  0
VISUALSTYLE
  5
32
102
{ACAD_REACTORS
330
29
102
}
330
29
100
AcDbVisualStyle
  2
Conceptual
 70
     9
177
     3
291
     0
 70
    58
 90
        3
176
     1
 90
        2
176
     1
 90
        0
176
     1
 90
        0
176
     1
 40
0.6
176
     1
 40
30.0
176
     1
 62
     7
420
 16777215
176
     1
 90
        2
176
     1
 90
        2
176
     1
 62
     7
176
     1
 62
   257
176
     1
 90
        1
176
     1
 90
        1
176
     1
 40
179.0
176
     1
 90
        8
176
     1
 62
     7
176
     1
 40
1.0
176
     1
 90
        1
176
     1
 90
        6
176
     1
 90
        2
176
     1
 62
     7
176
     1
 90
        3
176
     1
 90
        0
176
     1
 90
        0
176
     1
290
     0
176
     1
 90
        1
176
     1
 40
0.0
176
     1
 90
        0
176
     1
290
     0
176
     1
290
     1
176
     1
290
     1
176
     1
290
     0
176
     1
290
     0
176
     1
290
     0
176
     1
290
     0
176
     1
290
     0
176
     1
290
     0
176
     1
 90
       50
176
     1
 40
0.0
176
     1
 40
1.0
176
     1
 90
        0
176
     1
 62
    18
420
        0
176
     1
 90
       50
176
     1
 90
        3
176
     1
 62
     5
420
      255
176
     1
290
     0
176
     1
 90
       50
176
     1
 90
       50
176
     1
 90
       50
176
     1
290
     0
176
     1
 90
       50
176
     1
 62
   256
176
     0
 40
1.0
176
     0
 90
        2
176
     1
  1
strokes_ogs.tif
176
     1
290
     0
176
     1
 40
1.0
176
     1
 40
1.0
176
     1
  0
VISUALSTYLE
  5
34
102
{ACAD_REACTORS
330
29
102
}
330
29
100
AcDbVisualStyle
  2
Dim
 70
    11
177
     3
291
     1
 70
    58
 90
        2
176
     1
 90
        2
176
     1
 90
        0
176
     1
 90
        0
176
     1
 40
0.6
176
     1
 40
30.0
176
     1
 62
     7
420
 16777215
176
     1
 90
        1
176
     1
 90
        4
176
     1
 62
     7
176
     1
 62
   257
176
     1
 90
        1
176
     1
 90
        1
176
     1
 40
1.0
176
     1
 90
        8
176
     1
 62
     7
176
     1
 40
1.0
176
     1
 90
        1
176
     1
 90
        6
176
     1
 90
        2
176
     1
 62
     7
176
     1
 90
        5
176
     1
 90
        0
176
     1
 90
        0
176
     1
290
     0
176
     1
 90
        1
176
     1
 40
-50.0
176
     1
 90
        0
176
     1
290
     0
176
     1
290
     1
176
     1
290
     1
176
     1
290
     0
176
     1
290
     0
176
     1
290
     0
176
     1
290
     0
176
     1
290
     0
176
     1
290
     0
176
     1
 90
       50
176
     1
 40
0.0
176
     1
 40
1.0
176
     1
 90
        0
176
     1
 62
    18
420
        0
176
     1
 90
       50
176
     1
 90
        3
176
     1
 62
     5
420
      255
176
     1
290
     0
176
     1
 90
       50
176
     1
 90
       50
176
     1
 90
       50
176
     1
290
     0
176
     1
 90
       50
176
     1
 62
   256
176
     0
 40
1.0
176
     0
 90
        2
176
     1
  1
strokes_ogs.tif
176
     1
290
     0
176
     1
 40
1.0
176
     1
 40
1.0
176
     1
  0
VISUALSTYLE
  5
41
102
{ACAD_REACTORS
330
29
102
}
330
29
100
AcDbVisualStyle
  2
EdgeColorOff
 70
    22
177
     3
291
     1
 70
    58
 90
        2
176
     0
 90
        2
176
     0
 90
        0
176
     0
 90
        0
176
     0
 40
0.6
176
     0
 40
30.0
176
     0
 62
     7
420
 16777215
176
     0
 90
        1
176
     0
 90
        4
176
     0
 62
     7
176
     0
 62
   257
176
     0
 90
        1
176
     0
 90
        1
176
     0
 40
1.0
176
     0
 90
        8
176
     2
 62
     7
176
     0
 40
1.0
176
     0
 90
        1
176
     0
 90
        6
176
     0
 90
        2
176
     0
 62
     7
176
     0
 90
        5
176
     0
 90
        0
176
     0
 90
        0
176
     0
290
     0
176
     0
 90
        1
176
     0
 40
0.0
176
     0
 90
        0
176
     0
290
     0
176
     0
290
     1
176
     0
290
     1
176
     0
290
     0
176
     0
290
     0
176
     0
290
     0
176
     0
290
     0
176
     0
290
     0
176
     0
290
     0
176
     0
 90
       50
176
     0
 40
0.0
176
     0
 40
1.0
176
     0
 90
        0
176
     0
 62
    18
420
        0
176
     0
 90
       50
176
     0
 90
        3
176
     0
 62
     5
420
      255
176
     0
290
     0
176
     0
 90
       50
176
     0
 90
       50
176
     0
 90
       50
176
     0
290
     0
176
     0
 90
       50
176
     0
 62
   256
176
     0
 40
1.0
176
     0
 90
        2
176
     0
  1
strokes_ogs.tif
176
     0
290
     0
176
     0
 40
1.0
176
     0
 40
1.0
176
     0
  0
VISUALSTYLE
  5
38
102
{ACAD_REACTORS
330
29
102
}
330
29
100
AcDbVisualStyle
  2
Facepattern
 70
    15
177
     3
291
     1
 70
    58
 90
        2
176
     1
 90
        2
176
     1
 90
        0
176
     1
 90
        0
176
     1
 40
0.6
176
     1
 40
30.0
176
     1
 62
     7
420
 16777215
176
     1
 90
        1
176
     1
 90
        4
176
     1
 62
     7
176
     1
 62
   257
176
     1
 90
        1
176
     1
 90
        1
176
     1
 40
1.0
176
     1
 90
        8
176
     1
 62
     7
176
     1
 40
1.0
176
     1
 90
        1
176
     1
 90
        6
176
     1
 90
        2
176
     1
 62
     7
176
     1
 90
        5
176
     1
 90
        0
176
     1
 90
        0
176
     1
290
     0
176
     1
 90
        1
176
     1
 40
0.0
176
     1
 90
        0
176
     1
290
     0
176
     1
290
     1
176
     1
290
     1
176
     1
290
     0
176
     1
290
     0
176
     1
290
     0
176
     1
290
     0
176
     1
290
     0
176
     1
290
     0
176
     1
 90
       50
176
     1
 40
0.0
176
     1
 40
1.0
176
     1
 90
        0
176
     1
 62
    18
420
        0
176
     1
 90
       50
176
     1
 90
        3
176
     1
 62
     5
420
      255
176
     1
290
     0
176
     1
 90
       50
176
     1
 90
       50
176
     1
 90
       50
176
     1
290
     0
176
     1
 90
       50
176
     1
 62
   256
176
     0
 40
1.0
176
     0
 90
        2
176
     1
  1
strokes_ogs.tif
176
     1
290
     0
176
     1
 40
1.0
176
     1
 40
1.0
176
     1
  0
VISUALSTYLE
  5
2A
102
{ACAD_REACTORS
330
29
102
}
330
29
100
AcDbVisualStyle
  2
Flat
 70
     0
177
     3
291
     1
 70
    58
 90
        2
176
     1
 90
        1
176
     1
 90
        1
176
     1
 90
        2
176
     1
 40
0.6
176
     1
 40
30.0
176
     1
 62
     7
420
 16777215
176
     1
 90
        0
176
     1
 90
        0
176
     1
 62
     7
176
     1
 62
   257
176
     1
 90
        1
176
     1
 90
        1
176
     1
 40
1.0
176
     1
 90
        8
176
     1
 62
     7
176
     1
 40
1.0
176
     1
 90
        1
176
     1
 90
        6
176
     1
 90
        2
176
     1
 62
     7
176
     1
 90
        5
176
     1
 90
        0
176
     1
 90
        0
176
     1
290
     0
176
     1
 90
       13
176
     1
 40
0.0
176
     1
 90
        0
176
     1
290
     0
176
     1
290
     1
176
     1
290
     1
176
     1
290
     0
176
     1
290
     0
176
     1
290
     0
176
     1
290
     0
176
     1
290
     0
176
     1
290
     0
176
     1
 90
       50
176
     1
 40
0.0
176
     1
 40
1.0
176
     1
 90
        0
176
     1
 62
    18
420
        0
176
     1
 90
       50
176
     1
 90
        3
176
     1
 62
     5
420
      255
176
     1
290
     0
176
     1
 90
       50
176
     1
 90
       50
176
     1
 90
       50
176
     1
290
     0
176
     1
 90
       50
176
     1
 62
   256
176
     0
 40
1.0
176
     0
 90
        2
176
     1
  1
strokes_ogs.tif
176
     1
290
     0
176
     1
 40
1.0
176
     1
 40
1.0
176
     1
  0
VISUALSTYLE
  5
2B
102
{ACAD_REACTORS
330
29
102
}
330
29
100
AcDbVisualStyle
  2
FlatWithEdges
 70
     1
177
     3
291
     1
 70
    58
 90
        2
176
     1
 90
        1
176
     1
 90
        1
176
     1
 90
        2
176
     1
 40
0.6
176
     1
 40
30.0
176
     1
 62
     7
420
 16777215
176
     1
 90
        1
176
     1
 90
        0
176
     1
 62
     7
176
     1
 62
   257
176
     1
 90
        1
176
     1
 90
        1
176
     1
 40
1.0
176
     1
 90
        0
176
     1
 62
   257
176
     1
 40
1.0
176
     1
 90
        1
176
     1
 90
        6
176
     1
 90
        2
176
     1
 62
     7
176
     1
 90
        5
176
     1
 90
        0
176
     1
 90
        0
176
     1
290
     0
176
     1
 90
       13
176
     1
 40
0.0
176
     1
 90
        0
176
     1
290
     0
176
     1
290
     1
176
     1
290
     1
176
     1
290
     0
176
     1
290
     0
176
     1
290
     0
176
     1
290
     0
176
     1
290
     0
176
     1
290
     0
176
     1
 90
       50
176
     1
 40
0.0
176
     1
 40
1.0
176
     1
 90
        0
176
     1
 62
    18
420
        0
176
     1
 90
       50
176
     1
 90
        3
176
     1
 62
     5
420
      255
176
     1
290
     0
176
     1
 90
       50
176
     1
 90
       50
176
     1
 90
       50
176
     1
290
     0
176
     1
 90
       50
176
     1
 62
   256
176
     0
 40
1.0
176
     0
 90
        2
176
     1
  1
strokes_ogs.tif
176
     1
290
     0
176
     1
 40
1.0
176
     1
 40
1.0
176
     1
  0
VISUALSTYLE
  5
2C
102
{ACAD_REACTORS
330
29
102
}
330
29
100
AcDbVisualStyle
  2
Gouraud
 70
     2
177
     3
291
     1
 70
    58
 90
        2
176
     1
 90
        2
176
     1
 90
        1
176
     1
 90
        2
176
     1
 40
0.6
176
     1
 40
30.0
176
     1
 62
     7
420
 16777215
176
     1
 90
        0
176
     1
 90
        0
176
     1
 62
     7
176
     1
 62
   257
176
     1
 90
        1
176
     1
 90
        1
176
     1
 40
1.0
176
     1
 90
        0
176
     1
 62
     7
176
     1
 40
1.0
176
     1
 90
        1
176
     1
 90
        6
176
     1
 90
        2
176
     1
 62
     7
176
     1
 90
        5
176
     1
 90
        0
176
     1
 90
        0
176
     1
290
     0
176
     1
 90
       13
176
     1
 40
0.0
176
     1
 90
        0
176
     1
290
     0
176
     1
290
     1
176
     1
290
     1
176
     1
290
     0
176
     1
290
     0
176
     1
290
     0
176
     1
290
     0
176
     1
290
     0
176
     1
290
     0
176
     1
 90
       50
176
     1
 40
0.0
176
     1
 40
1.0
176
     1
 90
        0
176
     1
 62
    18
420
        0
176
     1
 90
       50
176
     1
 90
        3
176
     1
 62
     5
420
      255
176
     1
290
     0
176
     1
 90
       50
176
     1
 90
       50
176
     1
 90
       50
176
     1
290
     0
176
     1
 90
       50
176
     1
 62
   256
176
     0
 40
1.0
176
     0
 90
        2
176
     1
  1
strokes_ogs.tif
176
     1
290
     0
176
     1
 40
1.0
176
     1
 40
1.0
176
     1
  0
VISUALSTYLE
  5
2D
102
{ACAD_REACTORS
330
29
102
}
330
29
100
AcDbVisualStyle
  2
GouraudWithEdges
 70
     3
177
     3
291
     1
 70
    58
 90
        2
176
     1
 90
        2
176
     1
 90
        1
176
     1
 90
        2
176
     1
 40
0.6
176
     1
 40
30.0
176
     1
 62
     7
420
 16777215
176
     1
 90
        1
176
     1
 90
        0
176
     1
 62
     7
176
     1
 62
   257
176
     1
 90
        1
176
     1
 90
        1
176
     1
 40
1.0
176
     1
 90
        0
176
     1
 62
   257
176
     1
 40
1.0
176
     1
 90
        1
176
     1
 90
        6
176
     1
 90
        2
176
     1
 62
     7
176
     1
 90
        5
176
     1
 90
        0
176
     1
 90
        0
176
     1
290
     0
176
     1
 90
       13
176
     1
 40
0.0
176
     1
 90
        0
176
     1
290
     0
176
     1
290
     1
176
     1
290
     1
176
     1
290
     0
176
     1
290
     0
176
     1
290
     0
176
     1
290
     0
176
     1
290
     0
176
     1
290
     0
176
     1
 90
       50
176
     1
 40
0.0
176
     1
 40
1.0
176
     1
 90
        0
176
     1
 62
    18
420
        0
176
     1
 90
       50
176
     1
 90
        3
176
     1
 62
     5
420
      255
176
     1
290
     0
176
     1
 90
       50
176
     1
 90
       50
176
     1
 90
       50
176
     1
290
     0
176
     1
 90
       50
176
     1
 62
   256
176
     0
 40
1.0
176
     0
 90
        2
176
     1
  1
strokes_ogs.tif
176
     1
290
     0
176
     1
 40
1.0
176
     1
 40
1.0
176
     1
  0
VISUALSTYLE
  5
31
102
{ACAD_REACTORS
330
29
102
}
330
29
100
AcDbVisualStyle
  2
Hidden
 70
     6
177
     3
291
     0
 70
    58
 90
        1
176
     1
 90
        2
176
     1
 90
        2
176
     1
 90
        0
176
     1
 40
0.6
176
     1
 40
30.0
176
     1
 62
     7
420
 16777215
176
     1
 90
        2
176
     1
 90
        2
176
     1
 62
     7
176
     1
 62
   257
176
     1
 90
        2
176
     1
 90
        1
176
     1
 40
40.0
176
     1
 90
        0
176
     1
 62
   257
176
     1
 40
1.0
176
     1
 90
        1
176
     1
 90
        6
176
     1
 90
        2
176
     1
 62
     7
176
     1
 90
        3
176
     1
 90
        0
176
     1
 90
        0
176
     1
290
     0
176
     1
 90
        1
176
     1
 40
0.0
176
     1
 90
        0
176
     1
290
     0
176
     1
290
     1
176
     1
290
     1
176
     1
290
     0
176
     1
290
     0
176
     1
290
     0
176
     1
290
     0
176
     1
290
     0
176
     1
290
     0
176
     1
 90
       50
176
     1
 40
0.0
176
     1
 40
1.0
176
     1
 90
        0
176
     1
 62
    18
420
        0
176
     1
 90
       50
176
     1
 90
        3
176
     1
 62
     5
420
      255
176
     1
290
     0
176
     1
 90
       50
176
     1
 90
       50
176
     1
 90
       50
176
     1
290
     0
176
     1
 90
       50
176
     1
 62
   256
176
     0
 40
1.0
176
     0
 90
        2
176
     1
  1
strokes_ogs.tif
176
     1
290
     0
176
     1
 40
1.0
176
     1
 40
1.0
176
     1
  0
VISUALSTYLE
  5
3F
102
{ACAD_REACTORS
330
29
102
}
330
29
100
AcDbVisualStyle
  2
JitterOff
 70
    20
177
     3
291
     1
 70
    58
 90
        2
176
     0
 90
        2
176
     0
 90
        0
176
     0
 90
        0
176
     0
 40
0.6
176
     0
 40
30.0
176
     0
 62
     7
420
 16777215
176
     0
 90
        1
176
     0
 90
        4
176
     0
 62
     7
176
     0
 62
   257
176
     0
 90
        1
176
     0
 90
        1
176
     0
 40
1.0
176
     0
 90
       10
176
     2
 62
     7
176
     0
 40
1.0
176
     0
 90
        1
176
     0
 90
        6
176
     0
 90
        2
176
     0
 62
     7
176
     0
 90
        5
176
     0
 90
        0
176
     0
 90
        0
176
     0
290
     0
176
     0
 90
        1
176
     0
 40
0.0
176
     0
 90
        0
176
     0
290
     0
176
     0
290
     1
176
     0
290
     1
176
     0
290
     0
176
     0
290
     0
176
     0
290
     0
176
     0
290
     0
176
     0
290
     0
176
     0
290
     0
176
     0
 90
       50
176
     0
 40
0.0
176
     0
 40
1.0
176
     0
 90
        0
176
     0
 62
    18
420
        0
176
     0
 90
       50
176
     0
 90
        3
176
     0
 62
     5
420
      255
176
     0
290
     0
176
     0
 90
       50
176
     0
 90
       50
176
     0
 90
       50
176
     0
290
     0
176
     0
 90
       50
176
     0
 62
   256
176
     0
 40
1.0
176
     0
 90
        2
176
     0
  1
strokes_ogs.tif
176
     0
290
     0
176
     0
 40
1.0
176
     0
 40
1.0
176
     0
  0
VISUALSTYLE
  5
37
102
{ACAD_REACTORS
330
29
102
}
330
29
100
AcDbVisualStyle
  2
Linepattern
 70
    14
177
     3
291
     1
 70
    58
 90
        2
176
     1
 90
        2
176
     1
 90
        0
176
     1
 90
        0
176
     1
 40
0.6
176
     1
 40
30.0
176
     1
 62
     7
420
 16777215
176
     1
 90
        1
176
     1
 90
        4
176
     1
 62
     7
176
     1
 62
   257
176
     1
 90
        7
176
     1
 90
        7
176
     1
 40
1.0
176
     1
 90
        8
176
     1
 62
     7
176
     1
 40
1.0
176
     1
 90
        1
176
     1
 90
        6
176
     1
 90
        2
176
     1
 62
     7
176
     1
 90
        5
176
     1
 90
        0
176
     1
 90
        0
176
     1
290
     0
176
     1
 90
        1
176
     1
 40
0.0
176
     1
 90
        0
176
     1
290
     0
176
     1
290
     1
176
     1
290
     1
176
     1
290
     0
176
     1
290
     0
176
     1
290
     0
176
     1
290
     0
176
     1
290
     0
176
     1
290
     0
176
     1
 90
       50
176
     1
 40
0.0
176
     1
 40
1.0
176
     1
 90
        0
176
     1
 62
    18
420
        0
176
     1
 90
       50
176
     1
 90
        3
176
     1
 62
     5
420
      255
176
     1
290
     0
176
     1
 90
       50
176
     1
 90
       50
176
     1
 90
       50
176
     1
290
     0
176
     1
 90
       50
176
     1
 62
   256
176
     0
 40
1.0
176
     0
 90
        2
176
     1
  1
strokes_ogs.tif
176
     1
290
     0
176
     1
 40
1.0
176
     1
 40
1.0
176
     1
  0
VISUALSTYLE
  5
40
102
{ACAD_REACTORS
330
29
102
}
330
29
100
AcDbVisualStyle
  2
OverhangOff
 70
    21
177
     3
291
     1
 70
    58
 90
        2
176
     0
 90
        2
176
     0
 90
        0
176
     0
 90
        0
176
     0
 40
0.6
176
     0
 40
30.0
176
     0
 62
     7
420
 16777215
176
     0
 90
        1
176
     0
 90
        4
176
     0
 62
     7
176
     0
 62
   257
176
     0
 90
        1
176
     0
 90
        1
176
     0
 40
1.0
176
     0
 90
        9
176
     2
 62
     7
176
     0
 40
1.0
176
     0
 90
        1
176
     0
 90
        6
176
     0
 90
        2
176
     0
 62
     7
176
     0
 90
        5
176
     0
 90
        0
176
     0
 90
        0
176
     0
290
     0
176
     0
 90
        1
176
     0
 40
0.0
176
     0
 90
        0
176
     0
290
     0
176
     0
290
     1
176
     0
290
     1
176
     0
290
     0
176
     0
290
     0
176
     0
290
     0
176
     0
290
     0
176
     0
290
     0
176
     0
290
     0
176
     0
 90
       50
176
     0
 40
0.0
176
     0
 40
1.0
176
     0
 90
        0
176
     0
 62
    18
420
        0
176
     0
 90
       50
176
     0
 90
        3
176
     0
 62
     5
420
      255
176
     0
290
     0
176
     0
 90
       50
176
     0
 90
       50
176
     0
 90
       50
176
     0
290
     0
176
     0
 90
       50
176
     0
 62
   256
176
     0
 40
1.0
176
     0
 90
        2
176
     0
  1
strokes_ogs.tif
176
     0
290
     0
176
     0
 40
1.0
176
     0
 40
1.0
176
     0
  0
VISUALSTYLE
  5
33
102
{ACAD_REACTORS
330
29
102
}
330
29
100
AcDbVisualStyle
  2
Realistic
 70
     8
177
     3
291
     0
 70
    58
 90
        2
176
     1
 90
        3
176
     1
 90
        0
176
     1
 90
        2
176
     1
 40
0.6
176
     1
 40
30.0
176
     1
 62
     7
420
 16777215
176
     1
 90
        0
176
     1
 90
        0
176
     1
 62
     7
176
     1
 62
   257
176
     1
 90
        1
176
     1
 90
        1
176
     1
 40
1.0
176
     1
 90
        8
176
     1
 62
   257
176
     1
 40
1.0
176
     1
 90
        1
176
     1
 90
        6
176
     1
 90
        2
176
     1
 62
     7
176
     1
 90
        3
176
     1
 90
        0
176
     1
 90
        0
176
     1
290
     0
176
     1
 90
       13
176
     1
 40
0.0
176
     1
 90
        0
176
     1
290
     0
176
     1
290
     1
176
     1
290
     1
176
     1
290
     0
176
     1
290
     0
176
     1
290
     0
176
     1
290
     0
176
     1
290
     0
176
     1
290
     0
176
     1
 90
       50
176
     1
 40
0.0
176
     1
 40
1.0
176
     1
 90
        0
176
     1
 62
    18
420
        0
176
     1
 90
       50
176
     1
 90
        3
176
     1
 62
     5
420
      255
176
     1
290
     0
176
     1
 90
       50
176
     1
 90
       50
176
     1
 90
       50
176
     1
290
     0
176
     1
 90
       50
176
     1
 62
   256
176
     0
 40
1.0
176
     0
 90
        2
176
     1
  1
strokes_ogs.tif
176
     1
290
     0
176
     1
 40
1.0
176
     1
 40
1.0
176
     1
  0
VISUALSTYLE
  5
3E
102
{ACAD_REACTORS
330
29
102
}
330
29
100
AcDbVisualStyle
  2
Shaded
 70
    27
177
     3
291
     0
 70
    58
 90
        2
176
     1
 90
        2
176
     1
 90
        1
176
     1
 90
        2
176
     1
 40
0.6
176
     1
 40
30.0
176
     1
 62
     7
420
 16777215
176
     1
 90
        0
176
     1
 90
        4
176
     1
 62
     7
176
     1
 62
   257
176
     1
 90
        1
176
     1
 90
        1
176
     1
 40
1.0
176
     1
 90
        8
176
     1
 62
   257
176
     1
 40
1.0
176
     1
 90
        1
176
     1
 90
        6
176
     1
 90
        2
176
     1
 62
     8
420
  7895160
176
     1
 90
        3
176
     1
 90
        0
176
     1
 90
        0
176
     1
290
     0
176
     1
 90
        5
176
     1
 40
0.0
176
     1
 90
        0
176
     1
290
     0
176
     1
290
     1
176
     1
290
     1
176
     1
290
     0
176
     1
290
     0
176
     1
290
     0
176
     1
290
     0
176
     1
290
     0
176
     1
290
     0
176
     1
 90
       50
176
     1
 40
0.0
176
     1
 40
1.0
176
     1
 90
        0
176
     1
 62
    18
420
        0
176
     1
 90
       50
176
     1
 90
        3
176
     1
 62
     5
420
      255
176
     1
290
     0
176
     1
 90
       50
176
     1
 90
       50
176
     1
 90
       50
176
     1
290
     0
176
     1
 90
       50
176
     1
 62
   256
176
     0
 40
1.0
176
     0
 90
        2
176
     1
  1
strokes_ogs.tif
176
     1
290
     0
176
     1
 40
1.0
176
     1
 40
1.0
176
     1
  0
VISUALSTYLE
  5
3D
102
{ACAD_REACTORS
330
29
102
}
330
29
100
AcDbVisualStyle
  2
Shaded with edges
 70
    26
177
     3
291
     0
 70
    58
 90
        2
176
     1
 90
        2
176
     1
 90
        1
176
     1
 90
        2
176
     1
 40
0.6
176
     1
 40
30.0
176
     1
 62
     7
420
 16777215
176
     1
 90
        1
176
     1
 90
        2
176
     1
 62
     7
176
     1
 62
   257
176
     1
 90
        2
176
     1
 90
        1
176
     1
 40
1.0
176
     1
 90
        8
176
     1
 62
   257
176
     1
 40
1.0
176
     1
 90
        1
176
     1
 90
        6
176
     1
 90
        2
176
     1
 62
     7
176
     1
 90
        3
176
     1
 90
        0
176
     1
 90
        0
176
     1
290
     0
176
     1
 90
        5
176
     1
 40
0.0
176
     1
 90
        0
176
     1
290
     0
176
     1
290
     1
176
     1
290
     1
176
     1
290
     0
176
     1
290
     0
176
     1
290
     0
176
     1
290
     0
176
     1
290
     0
176
     1
290
     0
176
     1
 90
       50
176
     1
 40
0.0
176
     1
 40
1.0
176
     1
 90
        0
176
     1
 62
    18
420
        0
176
     1
 90
       50
176
     1
 90
        3
176
     1
 62
     5
420
      255
176
     1
290
     0
176
     1
 90
       50
176
     1
 90
       50
176
     1
 90
       50
176
     1
290
     0
176
     1
 90
       50
176
     1
 62
   256
176
     0
 40
1.0
176
     0
 90
        2
176
     1
  1
strokes_ogs.tif
176
     1
290
     0
176
     1
 40
1.0
176
     1
 40
1.0
176
     1
  0
VISUALSTYLE
  5
3A
102
{ACAD_REACTORS
330
29
102
}
330
29
100
AcDbVisualStyle
  2
Shades of Gray
 70
    23
177
     3
291
     0
 70
    58
 90
        2
176
     1
 90
        2
176
     1
 90
        3
176
     1
 90
        0
176
     1
 40
0.6
176
     1
 40
30.0
176
     1
 62
     7
420
 16777215
176
     1
 90
        2
176
     1
 90
        2
176
     1
 62
     7
176
     1
 62
     7
176
     1
 90
        1
176
     1
 90
        1
176
     1
 40
40.0
176
     1
 90
        8
176
     1
 62
     7
176
     1
 40
1.0
176
     1
 90
        1
176
     1
 90
        6
176
     1
 90
        2
176
     1
 62
     7
176
     1
 90
        3
176
     1
 90
        0
176
     1
 90
        0
176
     1
290
     0
176
     1
 90
        1
176
     1
 40
0.0
176
     1
 90
        0
176
     1
290
     0
176
     1
290
     1
176
     1
290
     1
176
     1
290
     0
176
     1
290
     0
176
     1
290
     0
176
     1
290
     0
176
     1
290
     0
176
     1
290
     0
176
     1
 90
       50
176
     1
 40
0.0
176
     1
 40
1.0
176
     1
 90
        0
176
     1
 62
    18
420
        0
176
     1
 90
       50
176
     1
 90
        3
176
     1
 62
     5
420
      255
176
     1
290
     0
176
     1
 90
       50
176
     1
 90
       50
176
     1
 90
       50
176
     1
290
     0
176
     1
 90
       50
176
     1
 62
   256
176
     0
 40
1.0
176
     0
 90
        2
176
     1
  1
strokes_ogs.tif
176
     1
290
     0
176
     1
 40
1.0
176
     1
 40
1.0
176
     1
  0
VISUALSTYLE
  5
3B
102
{ACAD_REACTORS
330
29
102
}
330
29
100
AcDbVisualStyle
  2
Sketchy
 70
    24
177
     3
291
     0
 70
    58
 90
        1
176
     1
 90
        2
176
     1
 90
        2
176
     1
 90
        0
176
     1
 40
0.6
176
     1
 40
30.0
176
     1
 62
     7
420
 16777215
176
     1
 90
        2
176
     1
 90
        2
176
     1
 62
     7
176
     1
 62
     7
176
     1
 90
        1
176
     1
 90
        1
176
     1
 40
40.0
176
     1
 90
       11
176
     1
 62
     7
176
     1
 40
1.0
176
     1
 90
        1
176
     1
 90
        6
176
     1
 90
        2
176
     1
 62
     7
176
     1
 90
        6
176
     1
 90
        0
176
     1
 90
        0
176
     1
290
     0
176
     1
 90
        1
176
     1
 40
0.0
176
     1
 90
        0
176
     1
290
     0
176
     1
290
     1
176
     1
290
     1
176
     1
290
     0
176
     1
290
     0
176
     1
290
     0
176
     1
290
     0
176
     1
290
     0
176
     1
290
     0
176
     1
 90
       50
176
     1
 40
0.0
176
     1
 40
1.0
176
     1
 90
        0
176
     1
 62
    18
420
        0
176
     1
 90
       50
176
     1
 90
        3
176
     1
 62
     5
420
      255
176
     1
290
     0
176
     1
 90
       50
176
     1
 90
       50
176
     1
 90
       50
176
     1
290
     0
176
     1
 90
       50
176
     1
 62
   256
176
     0
 40
1.0
176
     0
 90
        2
176
     1
  1
strokes_ogs.tif
176
     1
290
     0
176
     1
 40
1.0
176
     1
 40
1.0
176
     1
  0
VISUALSTYLE
  5
36
102
{ACAD_REACTORS
330
29
102
}
330
29
100
AcDbVisualStyle
  2
Thicken
 70
    13
177
     3
291
     1
 70
    58
 90
        2
176
     1
 90
        2
176
     1
 90
        0
176
     1
 90
        0
176
     1
 40
0.6
176
     1
 40
30.0
176
     1
 62
     7
420
 16777215
176
     1
 90
        1
176
     1
 90
        4
176
     1
 62
     7
176
     1
 62
   257
176
     1
 90
        1
176
     1
 90
        1
176
     1
 40
1.0
176
     1
 90
       12
176
     1
 62
     7
176
     1
 40
1.0
176
     1
 90
        1
176
     1
 90
        6
176
     1
 90
        2
176
     1
 62
     7
176
     1
 90
        5
176
     1
 90
        0
176
     1
 90
        0
176
     1
290
     0
176
     1
 90
        1
176
     1
 40
0.0
176
     1
 90
        0
176
     1
290
     0
176
     1
290
     1
176
     1
290
     1
176
     1
290
     0
176
     1
290
     0
176
     1
290
     0
176
     1
290
     0
176
     1
290
     0
176
     1
290
     0
176
     1
 90
       50
176
     1
 40
0.0
176
     1
 40
1.0
176
     1
 90
        0
176
     1
 62
    18
420
        0
176
     1
 90
       50
176
     1
 90
        3
176
     1
 62
     5
420
      255
176
     1
290
     0
176
     1
 90
       50
176
     1
 90
       50
176
     1
 90
       50
176
     1
290
     0
176
     1
 90
       50
176
     1
 62
   256
176
     0
 40
1.0
176
     0
 90
        2
176
     1
  1
strokes_ogs.tif
176
     1
290
     0
176
     1
 40
1.0
176
     1
 40
1.0
176
     1
  0
VISUALSTYLE
  5
30
102
{ACAD_REACTORS
330
29
102
}
330
29
100
AcDbVisualStyle
  2
Wireframe
 70
     5
177
     3
291
     0
 70
    58
 90
        0
176
     1
 90
        2
176
     1
 90
        0
176
     1
 90
        0
176
     1
 40
0.6
176
     1
 40
30.0
176
     1
 62
     7
420
 16777215
176
     1
 90
        1
176
     1
 90
        4
176
     1
 62
     7
176
     1
 62
   257
176
     1
 90
        1
176
     1
 90
        1
176
     1
 40
1.0
176
     1
 90
        0
176
     1
 62
   257
176
     1
 40
1.0
176
     1
 90
        1
176
     1
 90
        6
176
     1
 90
        2
176
     1
 62
     7
176
     1
 90
        3
176
     1
 90
        0
176
     1
 90
        0
176
     1
290
     0
176
     1
 90
        1
176
     1
 40
0.0
176
     1
 90
        0
176
     1
290
     0
176
     1
290
     1
176
     1
290
     1
176
     1
290
     0
176
     1
290
     0
176
     1
290
     0
176
     1
290
     0
176
     1
290
     0
176
     1
290
     0
176
     1
 90
       50
176
     1
 40
0.0
176
     1
 40
1.0
176
     1
 90
        0
176
     1
 62
    18
420
        0
176
     1
 90
       50
176
     1
 90
        3
176
     1
 62
     5
420
      255
176
     1
290
     0
176
     1
 90
       50
176
     1
 90
       50
176
     1
 90
       50
176
     1
290
     0
176
     1
 90
       50
176
     1
 62
   256
176
     0
 40
1.0
176
     0
 90
        2
176
     1
  1
strokes_ogs.tif
176
     1
290
     0
176
     1
 40
1.0
176
     1
 40
1.0
176
     1
  0
VISUALSTYLE
  5
3C
102
{ACAD_REACTORS
330
29
102
}
330
29
100
AcDbVisualStyle
  2
X-Ray
 70
    25
177
     3
291
     0
 70
    58
 90
        2
176
     1
 90
        2
176
     1
 90
        1
176
     1
 90
        1
176
     1
 40
0.5
176
     1
 40
30.0
176
     1
 62
     7
420
 16777215
176
     1
 90
        1
176
     1
 90
        0
176
     1
 62
     7
176
     1
 62
   257
176
     1
 90
        1
176
     1
 90
        1
176
     1
 40
1.0
176
     1
 90
        8
176
     1
 62
     7
176
     1
 40
1.0
176
     1
 90
        1
176
     1
 90
        6
176
     1
 90
        2
176
     1
 62
     7
176
     1
 90
        3
176
     1
 90
        0
176
     1
 90
        0
176
     1
290
     0
176
     1
 90
       13
176
     1
 40
0.0
176
     1
 90
        0
176
     1
290
     0
176
     1
290
     1
176
     1
290
     1
176
     1
290
     0
176
     1
290
     0
176
     1
290
     0
176
     1
290
     0
176
     1
290
     0
176
     1
290
     0
176
     1
 90
       50
176
     1
 40
0.0
176
     1
 40
1.0
176
     1
 90
        0
176
     1
 62
    18
420
        0
176
     1
 90
       50
176
     1
 90
        3
176
     1
 62
     5
420
      255
176
     1
290
     0
176
     1
 90
       50
176
     1
 90
       50
176
     1
 90
       50
176
     1
290
     0
176
     1
 90
       50
176
     1
 62
   256
176
     0
 40
1.0
176
     0
 90
        2
176
     1
  1
strokes_ogs.tif
176
     1
290
     0
176
     1
 40
1.0
176
     1
 40
1.0
176
     1
  0
DICTIONARYVAR
  5
139
102
{ACAD_REACTORS
330
134
102
}
330
134
100
DictionaryVariables
280
     0
  1
1:1
  0
DICTIONARYVAR
  5
136
102
{ACAD_REACTORS
330
134
102
}
330
134
100
DictionaryVariables
280
     0
  1
STANDARD
  0
DICTIONARYVAR
  5
135
102
{ACAD_REACTORS
330
134
102
}
330
134
100
DictionaryVariables
280
     0
  1
STANDARD
  0
DICTIONARYVAR
  5
137
102
{ACAD_REACTORS
330
134
102
}
330
134
100
DictionaryVariables
280
     0
  1
Imperial24
  0
DICTIONARYVAR
  5
138
102
{ACAD_REACTORS
330
134
102
}
330
134
100
DictionaryVariables
280
     0
  1
Imperial24
  0
DICTIONARY
  5
1A
330
19
100
AcDbDictionary
280
     1
281
     1
  3
BUMPTILE
360
1C
  3
DIFFUSETILE
360
1B
  3
OPACITYTILE
360
1F
  3
REFLECTIONTILE
360
1E
  3
REFRACTIONTILE
360
20
  3
SPECULARTILE
360
1D
  0
DICTIONARY
  5
12
330
11
100
AcDbDictionary
280
     1
281
     1
  3
BUMPTILE
360
14
  3
DIFFUSETILE
360
13
  3
OPACITYTILE
360
17
  3
REFLECTIONTILE
360
16
  3
REFRACTIONTILE
360
18
  3
SPECULARTILE
360
15
  0
DICTIONARY
  5
22
330
21
100
AcDbDictionary
280
     1
281
     1
  3
BUMPTILE
360
24
  3
DIFFUSETILE
360
23
  3
OPACITYTILE
360
27
  3
REFLECTIONTILE
360
26
  3
REFRACTIONTILE
360
28
  3
SPECULARTILE
360
25
  0
DICTIONARY
  5
13A
330
65
100
AcDbDictionary
280
     1
281
     1
  3
ACAD_ROUNDTRIP_2008_TABLESTYLE_CELLSTYLEMAP
360
13B
  0
XRECORD
  5
1C
102
{ACAD_REACTORS
330
1A
102
}
330
1A
100
AcDbXrecord
280
     1
270
     1
271
     1
  0
XRECORD
  5
1B
102
{ACAD_REACTORS
330
1A
102
}
330
1A
100
AcDbXrecord
280
     1
270
     1
271
     1
  0
XRECORD
  5
1F
102
{ACAD_REACTORS
330
1A
102
}
330
1A
100
AcDbXrecord
280
     1
270
     1
271
     1
  0
XRECORD
  5
1E
102
{ACAD_REACTORS
330
1A
102
}
330
1A
100
AcDbXrecord
280
     1
270
     1
271
     1
  0
XRECORD
  5
20
102
{ACAD_REACTORS
330
1A
102
}
330
1A
100
AcDbXrecord
280
     1
270
     1
271
     1
  0
XRECORD
  5
1D
102
{ACAD_REACTORS
330
1A
102
}
330
1A
100
AcDbXrecord
280
     1
270
     1
271
     1
  0
XRECORD
  5
14
102
{ACAD_REACTORS
330
12
102
}
330
12
100
AcDbXrecord
280
     1
270
     1
271
     1
  0
XRECORD
  5
13
102
{ACAD_REACTORS
330
12
102
}
330
12
100
AcDbXrecord
280
     1
270
     1
271
     1
  0
XRECORD
  5
17
102
{ACAD_REACTORS
330
12
102
}
330
12
100
AcDbXrecord
280
     1
270
     1
271
     1
  0
XRECORD
  5
16
102
{ACAD_REACTORS
330
12
102
}
330
12
100
AcDbXrecord
280
     1
270
     1
271
     1
  0
XRECORD
  5
18
102
{ACAD_REACTORS
330
12
102
}
330
12
100
AcDbXrecord
280
     1
270
     1
271
     1
  0
XRECORD
  5
15
102
{ACAD_REACTORS
330
12
102
}
330
12
100
AcDbXrecord
280
     1
270
     1
271
     1
  0
XRECORD
  5
24
102
{ACAD_REACTORS
330
22
102
}
330
22
100
AcDbXrecord
280
     1
270
     1
271
     1
  0
XRECORD
  5
23
102
{ACAD_REACTORS
330
22
102
}
330
22
100
AcDbXrecord
280
     1
270
     1
271
     1
  0
XRECORD
  5
27
102
{ACAD_REACTORS
330
22
102
}
330
22
100
AcDbXrecord
280
     1
270
     1
271
     1
  0
XRECORD
  5
26
102
{ACAD_REACTORS
330
22
102
}
330
22
100
AcDbXrecord
280
     1
270
     1
271
     1
  0
XRECORD
  5
28
102
{ACAD_REACTORS
330
22
102
}
330
22
100
AcDbXrecord
280
     1
270
     1
271
     1
  0
XRECORD
  5
25
102
{ACAD_REACTORS
330
22
102
}
330
22
100
AcDbXrecord
280
     1
270
     1
271
     1
  0
CELLSTYLEMAP
  5
13B
102
{ACAD_REACTORS
330
13A
102
}
330
13A
100
AcDbCellStyleMap
 90
        3
300
CELLSTYLE
  1
TABLEFORMAT_BEGIN
 90
        5
170
     1
 91
        0
 92
    32768
 62
   257
 93
        1
300
CONTENTFORMAT
  1
CONTENTFORMAT_BEGIN
 90
        0
 91
        0
 92
      512
 93
        0
300

 40
0.0
140
1.0
 94
        5
 62
     0
340
55
144
0.25
309
CONTENTFORMAT_END
171
     0
 94
        0
309
TABLEFORMAT_END
  1
CELLSTYLE_BEGIN
 90
        1
 91
        1
300
_TITLE
309
CELLSTYLE_END
300
CELLSTYLE
  1
TABLEFORMAT_BEGIN
 90
        5
170
     1
 91
        0
 92
        0
 62
   257
 93
        1
300
CONTENTFORMAT
  1
CONTENTFORMAT_BEGIN
 90
        0
 91
        0
 92
      512
 93
        0
300

 40
0.0
140
1.0
 94
        5
 62
     0
340
55
144
0.18
309
CONTENTFORMAT_END
171
     0
 94
        0
309
TABLEFORMAT_END
  1
CELLSTYLE_BEGIN
 90
        2
 91
        1
300
_HEADER
309
CELLSTYLE_END
300
CELLSTYLE
  1
TABLEFORMAT_BEGIN
 90
        5
170
     1
 91
        0
 92
        0
 62
   257
 93
        1
300
CONTENTFORMAT
  1
CONTENTFORMAT_BEGIN
 90
        0
 91
        0
 92
      512
 93
        0
300

 40
0.0
140
1.0
 94
        2
 62
     0
340
55
144
0.18
309
CONTENTFORMAT_END
171
     0
 94
        0
309
TABLEFORMAT_END
  1
CELLSTYLE_BEGIN
 90
        3
 91
        2
300
_DATA
309
CELLSTYLE_END
  0
ENDSEC
  0
EOF
