  0
SECTION
  2
HEADER
  9
$ACADVER
  1
AC1032
  9
$ACADMAINTVER
 90
      329
  9
$DWGCODEPAGE
  3
ANSI_936
  9
$REQUIREDVERSIONS
160
                 0
  9
$INSBASE
 10
0.0
 20
0.0
 30
0.0
  9
$EXTMIN
 10
1.000000000000000E+20
 20
1.000000000000000E+20
 30
1.000000000000000E+20
  9
$EXTMAX
 10
-1.000000000000000E+20
 20
-1.000000000000000E+20
 30
-1.000000000000000E+20
  9
$LIMMIN
 10
0.0
 20
0.0
  9
$LIMMAX
 10
12.0
 20
9.0
  9
$ORTHOMODE
 70
     0
  9
$REGENMODE
 70
     1
  9
$FILLMODE
 70
     1
  9
$QTEXTMODE
 70
     0
  9
$MIRRTEXT
 70
     0
  9
$LTSCALE
 40
1.0
  9
$ATTMODE
 70
     1
  9
$TEXTSIZE
 40
0.2
  9
$TRACEWID
 40
0.05
  9
$TEXTSTYLE
  7
Standard
  9
$CLAYER
  8
0
  9
$CELTYPE
  6
ByLayer
  9
$CECOLOR
 62
   256
  9
$CELTSCALE
 40
1.0
  9
$DISPSILH
 70
     0
  9
$DIMSCALE
 40
1.0
  9
$DIMASZ
 40
0.18
  9
$DIMEXO
 40
0.0625
  9
$DIMDLI
 40
0.38
  9
$DIMRND
 40
0.0
  9
$DIMDLE
 40
0.0
  9
$DIMEXE
 40
0.18
  9
$DIMTP
 40
0.0
  9
$DIMTM
 40
0.0
  9
$DIMTXT
 40
0.18
  9
$DIMCEN
 40
0.09
  9
$DIMTSZ
 40
0.0
  9
$DIMTOL
 70
     0
  9
$DIMLIM
 70
     0
  9
$DIMTIH
 70
     1
  9
$DIMTOH
 70
     1
  9
$DIMSE1
 70
     0
  9
$DIMSE2
 70
     0
  9
$DIMTAD
 70
     0
  9
$DIMZIN
 70
     0
  9
$DIMBLK
  1

  9
$DIMASO
 70
     1
  9
$DIMSHO
 70
     1
  9
$DIMPOST
  1

  9
$DIMAPOST
  1

  9
$DIMALT
 70
     0
  9
$DIMALTD
 70
     2
  9
$DIMALTF
 40
25.4
  9
$DIMLFAC
 40
1.0
  9
$DIMTOFL
 70
     0
  9
$DIMTVP
 40
0.0
  9
$DIMTIX
 70
     0
  9
$DIMSOXD
 70
     0
  9
$DIMSAH
 70
     0
  9
$DIMBLK1
  1

  9
$DIMBLK2
  1

  9
$DIMSTYLE
  2
Standard
  9
$DIMCLRD
 70
     0
  9
$DIMCLRE
 70
     0
  9
$DIMCLRT
 70
     0
  9
$DIMTFAC
 40
1.0
  9
$DIMGAP
 40
0.09
  9
$DIMJUST
 70
     0
  9
$DIMSD1
 70
     0
  9
$DIMSD2
 70
     0
  9
$DIMTOLJ
 70
     1
  9
$DIMTZIN
 70
     0
  9
$DIMALTZ
 70
     0
  9
$DIMALTTZ
 70
     0
  9
$DIMUPT
 70
     0
  9
$DIMDEC
 70
     4
  9
$DIMTDEC
 70
     4
  9
$DIMALTU
 70
     2
  9
$DIMALTTD
 70
     2
  9
$DIMTXSTY
  7
Standard
  9
$DIMAUNIT
 70
     0
  9
$DIMADEC
 70
     0
  9
$DIMALTRND
 40
0.0
  9
$DIMAZIN
 70
     0
  9
$DIMDSEP
 70
    46
  9
$DIMATFIT
 70
     3
  9
$DIMFRAC
 70
     0
  9
$DIMLDRBLK
  1

  9
$DIMLUNIT
 70
     2
  9
$DIMLWD
 70
    -2
  9
$DIMLWE
 70
    -2
  9
$DIMTMOVE
 70
     0
  9
$DIMFXL
 40
1.0
  9
$DIMFXLON
 70
     0
  9
$DIMJOGANG
 40
0.7853981633974483
  9
$DIMTFILL
 70
     0
  9
$DIMTFILLCLR
 70
     0
  9
$DIMARCSYM
 70
     0
  9
$DIMLTYPE
  6

  9
$DIMLTEX1
  6

  9
$DIMLTEX2
  6

  9
$DIMTXTDIRECTION
 70
     0
  9
$LUNITS
 70
     2
  9
$LUPREC
 70
     4
  9
$SKETCHINC
 40
0.1
  9
$FILLETRAD
 40
0.0
  9
$AUNITS
 70
     0
  9
$AUPREC
 70
     0
  9
$MENU
  1
.
  9
$ELEVATION
 40
0.0
  9
$PELEVATION
 40
0.0
  9
$THICKNESS
 40
0.0
  9
$LIMCHECK
 70
     0
  9
$CHAMFERA
 40
0.0
  9
$CHAMFERB
 40
0.0
  9
$CHAMFERC
 40
0.0
  9
$CHAMFERD
 40
0.0
  9
$SKPOLY
 70
     0
  9
$TDCREATE
 40
2460900.374583333
  9
$TDUCREATE
 40
2460900.041250000
  9
$TDUPDATE
 40
2460900.374583333
  9
$TDUUPDATE
 40
2460900.041250000
  9
$TDINDWG
 40
0.0000000000
  9
$TDUSRTIMER
 40
0.0000000000
  9
$USRTIMER
 70
     1
  9
$ANGBASE
 50
0.0
  9
$ANGDIR
 70
     0
  9
$PDMODE
 70
     0
  9
$PDSIZE
 40
0.0
  9
$PLINEWID
 40
0.0
  9
$SPLFRAME
 70
     0
  9
$SPLINETYPE
 70
     6
  9
$SPLINESEGS
 70
     8
  9
$HANDSEED
  5
114
  9
$SURFTAB1
 70
     6
  9
$SURFTAB2
 70
     6
  9
$SURFTYPE
 70
     6
  9
$SURFU
 70
     6
  9
$SURFV
 70
     6
  9
$UCSBASE
  2

  9
$UCSNAME
  2

  9
$UCSORG
 10
0.0
 20
0.0
 30
0.0
  9
$UCSXDIR
 10
1.0
 20
0.0
 30
0.0
  9
$UCSYDIR
 10
0.0
 20
1.0
 30
0.0
  9
$UCSORTHOREF
  2

  9
$UCSORTHOVIEW
 70
     0
  9
$UCSORGTOP
 10
0.0
 20
0.0
 30
0.0
  9
$UCSORGBOTTOM
 10
0.0
 20
0.0
 30
0.0
  9
$UCSORGLEFT
 10
0.0
 20
0.0
 30
0.0
  9
$UCSORGRIGHT
 10
0.0
 20
0.0
 30
0.0
  9
$UCSORGFRONT
 10
0.0
 20
0.0
 30
0.0
  9
$UCSORGBACK
 10
0.0
 20
0.0
 30
0.0
  9
$PUCSBASE
  2

  9
$PUCSNAME
  2

  9
$PUCSORG
 10
0.0
 20
0.0
 30
0.0
  9
$PUCSXDIR
 10
1.0
 20
0.0
 30
0.0
  9
$PUCSYDIR
 10
0.0
 20
1.0
 30
0.0
  9
$PUCSORTHOREF
  2

  9
$PUCSORTHOVIEW
 70
     0
  9
$PUCSORGTOP
 10
0.0
 20
0.0
 30
0.0
  9
$PUCSORGBOTTOM
 10
0.0
 20
0.0
 30
0.0
  9
$PUCSORGLEFT
 10
0.0
 20
0.0
 30
0.0
  9
$PUCSORGRIGHT
 10
0.0
 20
0.0
 30
0.0
  9
$PUCSORGFRONT
 10
0.0
 20
0.0
 30
0.0
  9
$PUCSORGBACK
 10
0.0
 20
0.0
 30
0.0
  9
$USERI1
 70
     0
  9
$USERI2
 70
     0
  9
$USERI3
 70
     0
  9
$USERI4
 70
     0
  9
$USERI5
 70
     0
  9
$USERR1
 40
0.0
  9
$USERR2
 40
0.0
  9
$USERR3
 40
0.0
  9
$USERR4
 40
0.0
  9
$USERR5
 40
0.0
  9
$WORLDVIEW
 70
     1
  9
$SHADEDGE
 70
     3
  9
$SHADEDIF
 70
    70
  9
$TILEMODE
 70
     1
  9
$MAXACTVP
 70
    64
  9
$PINSBASE
 10
0.0
 20
0.0
 30
0.0
  9
$PLIMCHECK
 70
     0
  9
$PEXTMIN
 10
1.000000000000000E+20
 20
1.000000000000000E+20
 30
1.000000000000000E+20
  9
$PEXTMAX
 10
-1.000000000000000E+20
 20
-1.000000000000000E+20
 30
-1.000000000000000E+20
  9
$PLIMMIN
 10
0.0
 20
0.0
  9
$PLIMMAX
 10
12.0
 20
9.0
  9
$UNITMODE
 70
     0
  9
$VISRETAIN
 70
     1
  9
$PLINEGEN
 70
     0
  9
$PSLTSCALE
 70
     1
  9
$TREEDEPTH
 70
  3020
  9
$CMLSTYLE
  2
Standard
  9
$CMLJUST
 70
     0
  9
$CMLSCALE
 40
1.0
  9
$PROXYGRAPHICS
 70
     1
  9
$MEASUREMENT
 70
     0
  9
$CELWEIGHT
370
    -1
  9
$ENDCAPS
280
     0
  9
$JOINSTYLE
280
     0
  9
$LWDISPLAY
290
     1
  9
$INSUNITS
 70
     1
  9
$HYPERLINKBASE
  1

  9
$STYLESHEET
  1

  9
$XEDIT
290
     1
  9
$CEPSNTYPE
380
     0
  9
$PSTYLEMODE
290
     1
  9
$FINGERPRINTGUID
  2
{CA879E9E-BAA0-774B-90DA-7FC0391C0714}
  9
$VERSIONGUID
  2
{1F564C56-756A-AF45-AF10-7C3160E22426}
  9
$EXTNAMES
290
     1
  9
$PSVPSCALE
 40
0.0
  9
$OLESTARTUP
290
     0
  9
$SORTENTS
280
   127
  9
$INDEXCTL
280
     0
  9
$HIDETEXT
280
     1
  9
$XCLIPFRAME
280
     2
  9
$HALOGAP
280
     0
  9
$OBSCOLOR
 70
   257
  9
$OBSLTYPE
280
     0
  9
$INTERSECTIONDISPLAY
280
     0
  9
$INTERSECTIONCOLOR
 70
   257
  9
$DIMASSOC
280
     2
  9
$PROJECTNAME
  1

  9
$CAMERADISPLAY
290
     0
  9
$LENSLENGTH
 40
50.0
  9
$CAMERAHEIGHT
 40
0.0
  9
$STEPSPERSEC
 40
2.0
  9
$STEPSIZE
 40
6.0
  9
$3DDWFPREC
 40
2.0
  9
$PSOLWIDTH
 40
0.25
  9
$PSOLHEIGHT
 40
4.0
  9
$LOFTANG1
 40
1.570796326794896
  9
$LOFTANG2
 40
1.570796326794896
  9
$LOFTMAG1
 40
0.0
  9
$LOFTMAG2
 40
0.0
  9
$LOFTPARAM
 70
     7
  9
$LOFTNORMALS
280
     1
  9
$LATITUDE
 40
37.795
  9
$LONGITUDE
 40
-122.394
  9
$NORTHDIRECTION
 40
0.0
  9
$TIMEZONE
 70
 -8000
  9
$LIGHTGLYPHDISPLAY
280
     1
  9
$TILEMODELIGHTSYNCH
280
     1
  9
$CMATERIAL
347
11
  9
$SOLIDHIST
280
     0
  9
$SHOWHIST
280
     1
  9
$DWFFRAME
280
     2
  9
$DGNFRAME
280
     0
  9
$REALWORLDSCALE
290
     1
  9
$INTERFERECOLOR
 62
     1
  9
$INTERFEREOBJVS
345
33
  9
$INTERFEREVPVS
346
30
  9
$CSHADOW
280
     0
  9
$SHADOWPLANELOCATION
 40
0.0
  0
ENDSEC
  0
SECTION
  2
CLASSES
  0
CLASS
  1
ACDBDICTIONARYWDFLT
  2
AcDbDictionaryWithDefault
  3
ObjectDBX Classes
 90
        0
 91
        1
280
     0
281
     0
  0
CLASS
  1
MATERIAL
  2
AcDbMaterial
  3
ObjectDBX Classes
 90
     1153
 91
        3
280
     0
281
     0
  0
CLASS
  1
VISUALSTYLE
  2
AcDbVisualStyle
  3
ObjectDBX Classes
 90
     4095
 91
       24
280
     0
281
     0
  0
CLASS
  1
SCALE
  2
AcDbScale
  3
ObjectDBX Classes
 90
     1153
 91
       17
280
     0
281
     0
  0
CLASS
  1
TABLESTYLE
  2
AcDbTableStyle
  3
ObjectDBX Classes
 90
     4095
 91
        1
280
     0
281
     0
  0
CLASS
  1
MLEADERSTYLE
  2
AcDbMLeaderStyle
  3
ACDB_MLEADERSTYLE_CLASS
 90
     4095
 91
        1
280
     0
281
     0
  0
CLASS
  1
ACDBSECTIONVIEWSTYLE
  2
AcDbSectionViewStyle
  3
ObjectDBX Classes
 90
     1025
 91
        1
280
     0
281
     0
  0
CLASS
  1
ACDBDETAILVIEWSTYLE
  2
AcDbDetailViewStyle
  3
ObjectDBX Classes
 90
     1025
 91
        1
280
     0
281
     0
  0
CLASS
  1
DICTIONARYVAR
  2
AcDbDictionaryVar
  3
ObjectDBX Classes
 90
        0
 91
        5
280
     0
281
     0
  0
CLASS
  1
CELLSTYLEMAP
  2
AcDbCellStyleMap
  3
ObjectDBX Classes
 90
     1152
 91
        1
280
     0
281
     0
  0
ENDSEC
  0
SECTION
  2
TABLES
  0
TABLE
  2
VPORT
  5
8
330
0
100
AcDbSymbolTable
 70
     1
  0
VPORT
  5
57
330
8
100
AcDbSymbolTableRecord
100
AcDbViewportTableRecord
  2
*Active
 70
     0
 10
0.0
 20
0.0
 11
1.0
 21
1.0
 12
0.0
 22
0.0
 13
0.0
 23
0.0
 14
1.0
 24
1.0
 15
0.0
 25
0.0
 16
0.0
 26
0.0
 36
1.0
 17
15.0
 27
-17.5
 37
0.0
 40
35.7
 41
0.8571428571428571
 42
50.0
 43
0.0
 44
0.0
 50
0.0
 51
0.0
 71
     0
 72
   100
 73
     1
 74
     1
 75
     0
 76
     0
 77
     0
 78
     0
281
     0
 65
     1
110
0.0
120
0.0
130
0.0
111
1.0
121
0.0
131
0.0
112
0.0
122
1.0
132
0.0
 79
     0
146
0.0
 60
     3
 61
     5
292
     1
282
     1
141
0.0
142
0.0
 63
   250
421
  3355443
  0
ENDTAB
  0
TABLE
  2
LTYPE
  5
5
330
0
100
AcDbSymbolTable
 70
     1
  0
LTYPE
  5
5B
330
5
100
AcDbSymbolTableRecord
100
AcDbLinetypeTableRecord
  2
ByBlock
 70
     0
  3

 72
    65
 73
     0
 40
0.0
  0
LTYPE
  5
5C
330
5
100
AcDbSymbolTableRecord
100
AcDbLinetypeTableRecord
  2
ByLayer
 70
     0
  3

 72
    65
 73
     0
 40
0.0
  0
LTYPE
  5
5D
330
5
100
AcDbSymbolTableRecord
100
AcDbLinetypeTableRecord
  2
Continuous
 70
     0
  3
Solid line
 72
    65
 73
     0
 40
0.0
  0
ENDTAB
  0
TABLE
  2
LAYER
  5
2
330
0
100
AcDbSymbolTable
 70
     2
  0
LAYER
  5
54
330
2
100
AcDbSymbolTableRecord
100
AcDbLayerTableRecord
  2
0
 70
     0
 62
     7
  6
Continuous
370
    -3
390
F
347
21
348
0
  0
LAYER
  5
78
330
2
100
AcDbSymbolTableRecord
100
AcDbLayerTableRecord
  2
Layer 1
 70
     0
 62
     7
  6
Continuous
370
     0
390
F
347
21
348
0
  0
ENDTAB
  0
TABLE
  2
STYLE
  5
3
330
0
100
AcDbSymbolTable
 70
     2
  0
STYLE
  5
55
330
3
100
AcDbSymbolTableRecord
100
AcDbTextStyleTableRecord
  2
Standard
 70
     0
 40
0.0
 41
1.0
 50
0.0
 71
     0
 42
0.2
  3
txt
  4

  0
STYLE
  5
5A
330
3
100
AcDbSymbolTableRecord
100
AcDbTextStyleTableRecord
  2
Annotative
 70
     0
 40
0.0
 41
1.0
 50
0.0
 71
     0
 42
0.2
  3
txt
  4

1001
AcadAnnotative
1000
AnnotativeData
1002
{
1070
     1
1070
     1
1002
}
  0
ENDTAB
  0
TABLE
  2
VIEW
  5
6
330
0
100
AcDbSymbolTable
 70
     0
  0
ENDTAB
  0
TABLE
  2
UCS
  5
7
330
0
100
AcDbSymbolTable
 70
     0
  0
ENDTAB
  0
TABLE
  2
APPID
  5
9
330
0
100
AcDbSymbolTable
 70
     2
  0
APPID
  5
56
330
9
100
AcDbSymbolTableRecord
100
AcDbRegAppTableRecord
  2
ACAD
 70
     0
  0
APPID
  5
5E
330
9
100
AcDbSymbolTableRecord
100
AcDbRegAppTableRecord
  2
AcadAnnotative
 70
     0
  0
ENDTAB
  0
TABLE
  2
DIMSTYLE
  5
A
330
0
100
AcDbSymbolTable
 70
     2
100
AcDbDimStyleTable
 71
     0
  0
DIMSTYLE
105
58
330
A
100
AcDbSymbolTableRecord
100
AcDbDimStyleTableRecord
  2
Standard
 70
     0
340
55
  0
DIMSTYLE
105
59
330
A
100
AcDbSymbolTableRecord
100
AcDbDimStyleTableRecord
  2
Annotative
 70
     0
340
55
1001
AcadAnnotative
1000
AnnotativeData
1002
{
1070
     1
1070
     1
1002
}
  0
ENDTAB
  0
TABLE
  2
BLOCK_RECORD
  5
1
330
0
100
AcDbSymbolTable
 70
     1
  0
BLOCK_RECORD
  5
70
330
1
100
AcDbSymbolTableRecord
100
AcDbBlockTableRecord
  2
*Model_Space
340
73
 70
     0
280
     1
281
     0
  0
BLOCK_RECORD
  5
6C
330
1
100
AcDbSymbolTableRecord
100
AcDbBlockTableRecord
  2
*Paper_Space
340
6F
 70
     0
280
     1
281
     0
  0
BLOCK_RECORD
  5
74
330
1
100
AcDbSymbolTableRecord
100
AcDbBlockTableRecord
  2
*Paper_Space0
340
77
 70
     0
280
     1
281
     0
  0
ENDTAB
  0
ENDSEC
  0
SECTION
  2
BLOCKS
  0
BLOCK
  5
71
330
70
100
AcDbEntity
  8
0
100
AcDbBlockBegin
  2
*Model_Space
 70
     0
 10
0.0
 20
0.0
 30
0.0
  3
*Model_Space
  1

  0
ENDBLK
  5
72
330
70
100
AcDbEntity
  8
0
100
AcDbBlockEnd
  0
BLOCK
  5
6D
330
6C
100
AcDbEntity
 67
     1
  8
0
100
AcDbBlockBegin
  2
*Paper_Space
 70
     0
 10
0.0
 20
0.0
 30
0.0
  3
*Paper_Space
  1

  0
ENDBLK
  5
6E
330
6C
100
AcDbEntity
 67
     1
  8
0
100
AcDbBlockEnd
  0
BLOCK
  5
75
330
74
100
AcDbEntity
 67
     1
  8
0
100
AcDbBlockBegin
  2
*Paper_Space0
 70
     0
 10
0.0
 20
0.0
 30
0.0
  3
*Paper_Space0
  1

  0
ENDBLK
  5
76
330
74
100
AcDbEntity
 67
     1
  8
0
100
AcDbBlockEnd
  0
ENDSEC
  0
SECTION
  2
ENTITIES
  0
LINE
  5
79
330
70
100
AcDbEntity
  8
Layer 1
 62
    18
420
        0
370
     5
100
AcDbLine
 10
7.648369207757948
 20
-15.77192293502637
 30
0.0
 11
7.648369207757948
 21
-17.73678791265115
 31
0.0
  0
LINE
  5
7A
330
70
100
AcDbEntity
  8
Layer 1
 62
    18
420
        0
370
     5
100
AcDbLine
 10
8.460460266046551
 20
-15.77192293502637
 30
0.0
 11
8.460460266046551
 21
-17.73678791265115
 31
0.0
  0
LINE
  5
7B
330
70
100
AcDbEntity
  8
Layer 1
 62
    18
420
        0
370
     5
100
AcDbLine
 10
4.519649266899679
 20
-2.359109142196125
 30
0.0
 11
4.519649266899679
 21
-1.984067089415096
 31
0.0
  0
LINE
  5
7C
330
70
100
AcDbEntity
  8
Layer 1
 62
    18
420
        0
370
     5
100
AcDbLine
 10
7.028717400731427
 20
-2.496631062078146
 30
0.0
 11
7.066228106538472
 21
-2.459120356271126
 31
0.0
  0
LINE
  5
7D
330
70
100
AcDbEntity
  8
Layer 1
 62
    18
420
        0
370
     5
100
AcDbLine
 10
7.01992961877344
 20
-2.517846644442657
 30
0.0
 11
7.01992961877344
 21
-2.990647494939379
 31
0.0
  0
LINE
  5
7E
330
70
100
AcDbEntity
  8
Layer 1
 62
    18
420
        0
370
     5
100
AcDbLine
 10
7.01992961877344
 20
-3.082309286608834
 30
0.0
 11
7.01992961877344
 21
-4.965694710279889
 31
0.0
  0
LINE
  5
7F
330
70
100
AcDbEntity
  8
Layer 1
 62
    18
420
        0
370
     5
100
AcDbLine
 10
8.980149414642569
 20
-5.005699195909881
 30
0.0
 11
8.460460266046551
 21
-5.005699195909881
 31
0.0
  0
LINE
  5
80
330
70
100
AcDbEntity
  8
Layer 1
 62
    18
420
        0
370
     5
100
AcDbLine
 10
7.648369207757948
 20
-5.005699195909881
 30
0.0
 11
7.059934104403459
 21
-5.005699195909881
 31
0.0
  0
LINE
  5
81
330
70
100
AcDbEntity
  8
Layer 1
 62
    18
420
        0
370
     5
100
AcDbLine
 10
7.648369208958077
 20
-7.624534085687766
 30
0.0
 11
7.648369207757948
 21
-7.624512309846068
 31
0.0
  0
LINE
  5
82
330
70
100
AcDbEntity
  8
Layer 1
 62
    18
420
        0
370
     5
100
AcDbLine
 10
7.648369207757948
 20
-2.45656101419676
 30
0.0
 11
7.648369207757948
 21
-7.624512309846068
 31
0.0
  0
LINE
  5
83
330
70
100
AcDbEntity
  8
Layer 1
 62
    18
420
        0
370
     5
100
AcDbLine
 10
8.460460266046551
 20
-2.45656101419676
 30
0.0
 11
8.460460266046551
 21
-7.624512309846068
 31
0.0
  0
LINE
  5
84
330
70
100
AcDbEntity
  8
Layer 1
 62
    18
420
        0
370
     5
100
AcDbLine
 10
9.020153900272562
 20
-3.082309286608834
 30
0.0
 11
9.020153900272562
 21
-4.965694710279889
 31
0.0
  0
LINE
  5
85
330
70
100
AcDbEntity
  8
Layer 1
 62
    18
420
        0
370
     5
100
AcDbLine
 10
9.020153900272562
 20
-2.990647494939379
 30
0.0
 11
9.020153900272562
 21
-2.517846644442657
 31
0.0
  0
LINE
  5
86
330
70
100
AcDbEntity
  8
Layer 1
 62
    18
420
        0
370
     5
100
AcDbLine
 10
9.008152554583563
 20
-3.063976928334871
 30
0.0
 11
8.460460266046551
 21
-3.063976928334871
 31
0.0
  0
LINE
  5
87
330
70
100
AcDbEntity
  8
Layer 1
 62
    18
420
        0
370
     5
100
AcDbLine
 10
7.648369207757948
 20
-3.063976928334871
 30
0.0
 11
7.03193096446249
 21
-3.063976928334871
 31
0.0
  0
LINE
  5
88
330
70
100
AcDbEntity
  8
Layer 1
 62
    18
420
        0
370
     5
100
AcDbLine
 10
7.03193096446249
 20
-3.008979853213241
 30
0.0
 11
7.648369207757948
 21
-3.008979853213241
 31
0.0
  0
LINE
  5
89
330
70
100
AcDbEntity
  8
Layer 1
 62
    18
420
        0
370
     5
100
AcDbLine
 10
8.460460266046551
 20
-3.008979853213241
 30
0.0
 11
9.008152554583563
 21
-3.008979853213241
 31
0.0
  0
LINE
  5
8A
330
70
100
AcDbEntity
  8
Layer 1
 62
    18
420
        0
370
     5
100
AcDbLine
 10
9.020153900272562
 20
-2.517846644442657
 30
0.0
 11
8.460460266046551
 21
-2.517846644442657
 31
0.0
  0
LINE
  5
8B
330
70
100
AcDbEntity
  8
Layer 1
 62
    18
420
        0
370
     5
100
AcDbLine
 10
7.648369207757948
 20
-2.517846644442657
 30
0.0
 11
7.01992961877344
 21
-2.517846644442657
 31
0.0
  0
LINE
  5
8C
330
70
100
AcDbEntity
  8
Layer 1
 62
    18
420
        0
370
     5
100
AcDbLine
 10
4.619687517906211
 20
-2.459120356271126
 30
0.0
 11
7.648369207757948
 21
-2.459120356271126
 31
0.0
  0
LINE
  5
8D
330
70
100
AcDbEntity
  8
Layer 1
 62
    18
420
        0
370
     5
100
AcDbLine
 10
8.460460266046551
 20
-2.459120356271126
 30
0.0
 11
11.42039600123981
 21
-2.459120356271126
 31
0.0
  0
LINE
  5
8E
330
70
100
AcDbEntity
  8
Layer 1
 62
    18
420
        0
370
     5
100
AcDbLine
 10
9.255336795101419
 20
-2.45656101419676
 30
0.0
 11
6.853492678703054
 21
-2.45656101419676
 31
0.0
  0
LINE
  5
8F
330
70
100
AcDbEntity
  8
Layer 1
 62
    18
420
        0
370
     5
100
AcDbLine
 10
9.011366118414583
 20
-2.496631062078146
 30
0.0
 11
8.973855412607589
 21
-2.459120356271126
 31
0.0
  0
LINE
  5
90
330
70
100
AcDbEntity
  8
Layer 1
 62
    18
420
        0
370
     5
100
AcDbLine
 10
11.52043408442757
 20
-1.984067089415096
 30
0.0
 11
9.294709779422317
 21
-1.984067089415096
 31
0.0
  0
LINE
  5
91
330
70
100
AcDbEntity
  8
Layer 1
 62
    18
420
        0
370
     5
100
AcDbLine
 10
4.519680651418765
 20
-1.984067089415096
 30
0.0
 11
6.814119694382156
 21
-1.984067089415096
 31
0.0
  0
LINE
  5
92
330
70
100
AcDbEntity
  8
Layer 1
 62
    18
420
        0
370
     5
100
AcDbLine
 10
11.52043425214639
 20
-2.359109142196125
 30
0.0
 11
11.52043408442757
 21
-1.984067089415096
 31
0.0
  0
LINE
  5
93
330
70
100
AcDbEntity
  8
Layer 1
 62
    18
420
        0
370
     5
100
AcDbLine
 10
19.70277775719399
 20
-31.27366111664406
 30
0.0
 11
19.32773570441296
 21
-31.27366111664406
 31
0.0
  0
LINE
  5
94
330
70
100
AcDbEntity
  8
Layer 1
 62
    18
420
        0
370
     5
100
AcDbLine
 10
22.30936332517786
 20
-28.77338076477034
 30
0.0
 11
20.4259779016067
 21
-28.77338076477034
 31
0.0
  0
LINE
  5
95
330
70
100
AcDbEntity
  8
Layer 1
 62
    18
420
        0
370
     5
100
AcDbLine
 10
20.33431610983727
 20
-28.77338076477034
 30
0.0
 11
19.86151525934054
 21
-28.77338076477034
 31
0.0
  0
LINE
  5
96
330
70
100
AcDbEntity
  8
Layer 1
 62
    18
420
        0
370
     5
100
AcDbLine
 10
19.84029967707602
 20
-28.7645929828124
 30
0.0
 11
19.80278897126903
 21
-28.72708227700539
 31
0.0
  0
LINE
  5
97
330
70
100
AcDbEntity
  8
Layer 1
 62
    18
420
        0
370
     5
100
AcDbLine
 10
22.30936332517786
 20
-26.7731564832712
 30
0.0
 11
20.4259779016067
 21
-26.7731564832712
 31
0.0
  0
LINE
  5
98
330
70
100
AcDbEntity
  8
Layer 1
 62
    18
420
        0
370
     5
100
AcDbLine
 10
20.33431610983727
 20
-26.7731564832712
 30
0.0
 11
19.86151525934054
 21
-26.7731564832712
 31
0.0
  0
LINE
  5
99
330
70
100
AcDbEntity
  8
Layer 1
 62
    18
420
        0
370
     5
100
AcDbLine
 10
19.32773570441296
 20
-31.27364920180821
 30
0.0
 11
19.32773570441296
 21
-24.27287799970688
 31
0.0
  0
LINE
  5
9A
330
70
100
AcDbEntity
  8
Layer 1
 62
    18
420
        0
370
     5
100
AcDbLine
 10
19.8002296290946
 20
-14.57100087622706
 30
0.0
 11
19.8002296290946
 21
-16.97284499382559
 31
0.0
  0
LINE
  5
9B
330
70
100
AcDbEntity
  8
Layer 1
 62
    18
420
        0
370
     5
100
AcDbLine
 10
19.80278897126903
 20
-31.17364379138391
 30
0.0
 11
19.80278897126903
 21
-24.37289345665754
 31
0.0
  0
LINE
  5
9C
330
70
100
AcDbEntity
  8
Layer 1
 62
    18
420
        0
370
     5
100
AcDbLine
 10
19.86151525934054
 20
-26.7731564832712
 30
0.0
 11
19.86151525934054
 21
-28.77338076477034
 31
0.0
  0
LINE
  5
9D
330
70
100
AcDbEntity
  8
Layer 1
 62
    18
420
        0
370
     5
100
AcDbLine
 10
24.73716974238159
 20
-18.03404472961569
 30
0.0
 11
25.26543774170844
 21
-17.50577673028879
 31
0.0
  0
LINE
  5
9E
330
70
100
AcDbEntity
  8
Layer 1
 62
    18
420
        0
370
     5
100
AcDbLine
 10
25.25529847191064
 20
-17.52038897323296
 30
0.0
 11
24.75178198532575
 21
-18.02390545981787
 31
0.0
  0
LINE
  5
9F
330
70
100
AcDbEntity
  8
Layer 1
 62
    18
420
        0
370
     5
100
AcDbLine
 10
20.35264846821112
 20
-28.76137941908132
 30
0.0
 11
20.35264846821112
 21
-26.78515782896023
 31
0.0
  0
LINE
  5
A0
330
70
100
AcDbEntity
  8
Layer 1
 62
    18
420
        0
370
     5
100
AcDbLine
 10
20.4076455432328
 20
-26.78515782896023
 30
0.0
 11
20.4076455432328
 21
-28.76137941908132
 31
0.0
  0
LINE
  5
A1
330
70
100
AcDbEntity
  8
Layer 1
 62
    18
420
        0
370
     5
100
AcDbLine
 10
19.70277775719399
 20
-24.27287613139743
 30
0.0
 11
19.32773570441296
 21
-24.27287613139743
 31
0.0
  0
LINE
  5
A2
330
70
100
AcDbEntity
  8
Layer 1
 62
    18
420
        0
370
     5
100
AcDbLine
 10
22.34936781080783
 20
-26.8131722204628
 30
0.0
 11
22.34936781080783
 21
-28.73336502757868
 31
0.0
  0
LINE
  5
A3
330
70
100
AcDbEntity
  8
Layer 1
 62
    18
420
        0
370
     5
100
AcDbLine
 10
19.84029967707602
 20
-26.78194426522924
 30
0.0
 11
19.80278897126903
 21
-26.81945497103612
 31
0.0
  0
LINE
  5
A4
330
70
100
AcDbEntity
  8
Layer 1
 62
    18
420
        0
370
     5
100
AcDbLine
 10
19.32773570441296
 20
-17.01221948751572
 30
0.0
 11
19.7608551354045
 21
-17.01221948751572
 31
0.0
  0
LINE
  5
A5
330
70
100
AcDbEntity
  8
Layer 1
 62
    18
420
        0
370
     5
100
AcDbLine
 10
23.19366788443456
 20
-16.53650996657512
 30
0.0
 11
24.68106337767734
 21
-18.02390545981787
 31
0.0
  0
LINE
  5
A6
330
70
100
AcDbEntity
  8
Layer 1
 62
    18
420
        0
370
     5
100
AcDbLine
 10
19.8002296290946
 20
-16.17796846417064
 30
0.0
 11
22.32807212666156
 21
-16.17796846417064
 31
0.0
  0
LINE
  5
A7
330
70
100
AcDbEntity
  8
Layer 1
 62
    18
420
        0
370
     5
100
AcDbLine
 10
23.76790297866791
 20
-15.96227487234177
 30
0.0
 11
25.25529847191064
 21
-17.44967036558455
 31
0.0
  0
LINE
  5
A8
330
70
100
AcDbEntity
  8
Layer 1
 62
    18
420
        0
370
     5
100
AcDbLine
 10
19.8002296290946
 20
-15.3658774058821
 30
0.0
 11
22.32807212666156
 21
-15.3658774058821
 31
0.0
  0
LINE
  5
A9
330
70
100
AcDbEntity
  8
Layer 1
 62
    18
420
        0
370
     5
100
AcDbLine
 10
19.32773570441296
 20
-14.53162638253691
 30
0.0
 11
19.7608551354045
 21
-14.53162638253691
 31
0.0
  0
SPLINE
  5
AA
330
70
100
AcDbEntity
  8
Layer 1
 62
    18
420
        0
370
     5
100
AcDbSpline
210
0.0
220
0.0
230
1.0
 70
     8
 71
     3
 72
     8
 73
     4
 74
     0
 42
0.0000000001
 43
0.0000000001
 40
0.0
 40
0.0
 40
0.0
 40
0.0
 40
1.0
 40
1.0
 40
1.0
 40
1.0
 10
7.761178991469705
 20
-17.74917221212359
 30
0.0
 10
7.762173507401686
 20
-17.75548646951706
 30
0.0
 10
7.763561810774527
 20
-17.76173237489436
 30
0.0
 10
7.765335777948203
 20
-17.76787338041741
 30
0.0
  0
SPLINE
  5
AB
330
70
100
AcDbEntity
  8
Layer 1
 62
    18
420
        0
370
     5
100
AcDbSpline
210
0.0
220
0.0
230
1.0
 70
     8
 71
     3
 72
     8
 73
     4
 74
     0
 42
0.0000000001
 43
0.0000000001
 40
0.0
 40
0.0
 40
0.0
 40
0.0
 40
1.0
 40
1.0
 40
1.0
 40
1.0
 10
7.761178991504266
 20
-17.74915512598878
 30
0.0
 10
7.759984741169445
 20
-17.75676093824113
 30
0.0
 10
7.759384707577345
 20
-17.76444821570003
 30
0.0
 10
7.759384334455666
 20
-17.7721472165276
 30
0.0
  0
CIRCLE
  5
AC
330
70
100
AcDbEntity
  8
Layer 1
 62
    18
420
        0
370
     5
100
AcDbCircle
 10
8.020041759523028
 20
-27.77326862402079
 30
0.0
 40
3.500392492623353
  0
SPLINE
  5
AD
330
70
100
AcDbEntity
  8
Layer 1
 62
    18
420
        0
370
     5
100
AcDbSpline
210
0.0
220
0.0
230
1.0
 70
     8
 71
     3
 72
    11
 73
     7
 74
     0
 42
0.0000000001
 43
0.0000000001
 40
0.0
 40
0.0
 40
0.0
 40
0.0
 40
1.0
 40
1.0
 40
1.0
 40
2.0
 40
2.0
 40
2.0
 40
2.0
 10
8.360185298742383
 20
-28.71376140272875
 30
0.0
 10
8.879605117748798
 20
-28.52590531326445
 30
0.0
 10
9.148390627695384
 20
-27.95254490380782
 30
0.0
 10
8.960534538231032
 20
-27.43312508480143
 30
0.0
 10
8.859505831630498
 20
-27.15378193097255
 30
0.0
 10
8.639528452536017
 20
-26.93380455188738
 30
0.0
 10
8.360185298702919
 20
-26.83277584529845
 30
0.0
  0
SPLINE
  5
AE
330
70
100
AcDbEntity
  8
Layer 1
 62
    18
420
        0
370
     5
100
AcDbSpline
210
0.0
220
0.0
230
1.0
 70
     8
 71
     3
 72
    11
 73
     7
 74
     0
 42
0.0000000001
 43
0.0000000001
 40
0.0
 40
0.0
 40
0.0
 40
0.0
 40
1.0
 40
1.0
 40
1.0
 40
2.0
 40
2.0
 40
2.0
 40
2.0
 10
7.679898220303735
 20
-26.83277584531273
 30
0.0
 10
7.160478401297293
 20
-27.02063193477703
 30
0.0
 10
6.891692891350695
 20
-27.59399234423366
 30
0.0
 10
7.079548980814971
 20
-28.11341216324005
 30
0.0
 10
7.180577687415519
 20
-28.39275531706891
 30
0.0
 10
7.400555066510023
 20
-28.61273269615418
 30
0.0
 10
7.679898220343122
 20
-28.71376140274302
 30
0.0
  0
SPLINE
  5
AF
330
70
100
AcDbEntity
  8
Layer 1
 62
    18
420
        0
370
     5
100
AcDbSpline
210
0.0
220
0.0
230
1.0
 70
     8
 71
     3
 72
     8
 73
     4
 74
     0
 42
0.0000000001
 43
0.0000000001
 40
0.0
 40
0.0
 40
0.0
 40
0.0
 40
1.0
 40
1.0
 40
1.0
 40
1.0
 10
8.360234175249717
 20
-27.90145211267193
 30
0.0
 10
8.39136530239773
 20
-27.81883169517338
 30
0.0
 10
8.39136530525295
 20
-27.72770557613689
 30
0.0
 10
8.360234183282248
 20
-27.64508515668755
 30
0.0
  0
SPLINE
  5
B0
330
70
100
AcDbEntity
  8
Layer 1
 62
    18
420
        0
370
     5
100
AcDbSpline
210
0.0
220
0.0
230
1.0
 70
     8
 71
     3
 72
     8
 73
     4
 74
     0
 42
0.0000000001
 43
0.0000000001
 40
0.0
 40
0.0
 40
0.0
 40
0.0
 40
1.0
 40
1.0
 40
1.0
 40
1.0
 10
7.679849343796351
 20
-27.6450851353696
 30
0.0
 10
7.648718216648299
 20
-27.72770555286808
 30
0.0
 10
7.648718213793181
 20
-27.81883167190474
 30
0.0
 10
7.679849335763858
 20
-27.90145209135403
 30
0.0
  0
LINE
  5
B1
330
70
100
AcDbEntity
  8
Layer 1
 62
    18
420
        0
370
     5
100
AcDbLine
 10
8.360245021222693
 20
-27.69749770777354
 30
0.0
 11
8.360245021222693
 21
-27.69749770777354
 31
0.0
  0
LINE
  5
B2
330
70
100
AcDbEntity
  8
Layer 1
 62
    18
420
        0
370
     5
100
AcDbLine
 10
8.360245021193424
 20
-27.84903954039922
 30
0.0
 11
8.360245021193424
 21
-27.84903954039922
 31
0.0
  0
LINE
  5
B3
330
70
100
AcDbEntity
  8
Layer 1
 62
    18
420
        0
370
     5
100
AcDbLine
 10
7.679838497823387
 20
-27.84903954026805
 30
0.0
 11
7.679838497823387
 21
-27.84903954026805
 31
0.0
  0
LINE
  5
B4
330
70
100
AcDbEntity
  8
Layer 1
 62
    18
420
        0
370
     5
100
AcDbLine
 10
7.679838497852604
 20
-27.69749770764232
 30
0.0
 11
7.679838497852604
 21
-27.69749770764232
 31
0.0
  0
SPLINE
  5
B5
330
70
100
AcDbEntity
  8
Layer 1
 62
    18
420
        0
370
     5
100
AcDbSpline
210
0.0
220
0.0
230
1.0
 70
     8
 71
     3
 72
    17
 73
    13
 74
     0
 42
0.0000000001
 43
0.0000000001
 40
0.0
 40
0.0
 40
0.0
 40
0.0
 40
1.0
 40
1.0
 40
1.0
 40
2.0
 40
2.0
 40
2.0
 40
3.0
 40
3.0
 40
3.0
 40
4.0
 40
4.0
 40
4.0
 40
4.0
 10
8.460527786169146
 20
-16.94384773181673
 30
0.0
 10
9.107763979385
 20
-16.71955768799931
 30
0.0
 10
9.450629577510033
 20
-16.01304607897532
 30
0.0
 10
9.226339533692653
 20
-15.36580988575942
 30
0.0
 10
9.002049489875275
 20
-14.71857369254358
 30
0.0
 10
8.295537880851231
 20
-14.37570809441856
 30
0.0
 10
7.648301687635353
 20
-14.59999813823596
 30
0.0
 10
7.00106549441946
 20
-14.82428818205335
 30
0.0
 10
6.658199896294503
 20
-15.53079979107734
 30
0.0
 10
6.882489940111882
 20
-16.17803598429327
 30
0.0
 10
7.006939032779023
 20
-16.53716007030337
 30
0.0
 10
7.289177004885901
 20
-16.81939820319917
 30
0.0
 10
7.648301019998206
 20
-16.94384750045684
 30
0.0
  0
SPLINE
  5
B6
330
70
100
AcDbEntity
  8
Layer 1
 62
    18
420
        0
370
     5
100
AcDbSpline
210
0.0
220
0.0
230
1.0
 70
     8
 71
     3
 72
    11
 73
     7
 74
     0
 42
0.0000000001
 43
0.0000000001
 40
0.0
 40
0.0
 40
0.0
 40
0.0
 40
1.0
 40
1.0
 40
1.0
 40
2.0
 40
2.0
 40
2.0
 40
2.0
 10
8.460460266046551
 20
-15.77192293502637
 30
0.0
 10
8.460460266046551
 20
-15.5476701815429
 30
0.0
 10
8.278667490385601
 20
-15.3658774058821
 30
0.0
 10
8.054414736902243
 20
-15.3658774058821
 30
0.0
 10
7.830161983418898
 20
-15.3658774058821
 30
0.0
 10
7.648369207757948
 20
-15.5476701815429
 30
0.0
 10
7.648369207757948
 20
-15.77192293502637
 30
0.0
  0
SPLINE
  5
B7
330
70
100
AcDbEntity
  8
Layer 1
 62
    18
420
        0
370
     5
100
AcDbSpline
210
0.0
220
0.0
230
1.0
 70
     8
 71
     3
 72
     8
 73
     4
 74
     0
 42
0.0000000001
 43
0.0000000001
 40
0.0
 40
0.0
 40
0.0
 40
0.0
 40
1.0
 40
1.0
 40
1.0
 40
1.0
 10
8.343493695888165
 20
-17.7678733803201
 30
0.0
 10
8.34527080279161
 20
-17.7617331768189
 30
0.0
 10
8.346659150279542
 20
-17.75548707296997
 30
0.0
 10
8.347650482365565
 20
-17.74917221203112
 30
0.0
  0
SPLINE
  5
B8
330
70
100
AcDbEntity
  8
Layer 1
 62
    18
420
        0
370
     5
100
AcDbSpline
210
0.0
220
0.0
230
1.0
 70
     8
 71
     3
 72
     8
 73
     4
 74
     0
 42
0.0000000001
 43
0.0000000001
 40
0.0
 40
0.0
 40
0.0
 40
0.0
 40
1.0
 40
1.0
 40
1.0
 40
1.0
 10
8.349445139457758
 20
-17.77214721651724
 30
0.0
 10
8.349443575430591
 20
-17.7644482621696
 30
0.0
 10
8.348843549049382
 20
-17.75676107709281
 30
0.0
 10
8.3476504824085
 20
-17.74915512597004
 30
0.0
  0
SPLINE
  5
B9
330
70
100
AcDbEntity
  8
Layer 1
 62
    18
420
        0
370
     5
100
AcDbSpline
210
0.0
220
0.0
230
1.0
 70
     8
 71
     3
 72
     8
 73
     4
 74
     0
 42
0.0000000001
 43
0.0000000001
 40
0.0
 40
0.0
 40
0.0
 40
0.0
 40
1.0
 40
1.0
 40
1.0
 40
1.0
 10
8.460052065075501
 20
-7.637361792116974
 30
0.0
 10
8.460129055563999
 20
-7.636144745095899
 30
0.0
 10
8.460195115468826
 20
-7.634927031239499
 30
0.0
 10
8.46025023679974
 20
-7.633708797835828
 30
0.0
  0
SPLINE
  5
BA
330
70
100
AcDbEntity
  8
Layer 1
 62
    18
420
        0
370
     5
100
AcDbSpline
210
0.0
220
0.0
230
1.0
 70
     8
 71
     3
 72
     8
 73
     4
 74
     0
 42
0.0000000001
 43
0.0000000001
 40
0.0
 40
0.0
 40
0.0
 40
0.0
 40
1.0
 40
1.0
 40
1.0
 40
1.0
 10
8.460250236734887
 20
-7.633708797908512
 30
0.0
 10
8.460388850263118
 20
-7.630645260653396
 30
0.0
 10
8.460458193868298
 20
-7.627578981413269
 30
0.0
 10
8.460458214411952
 20
-7.624512309891352
 30
0.0
  0
SPLINE
  5
BB
330
70
100
AcDbEntity
  8
Layer 1
 62
    18
420
        0
370
     5
100
AcDbSpline
210
0.0
220
0.0
230
1.0
 70
     8
 71
     3
 72
     8
 73
     4
 74
     0
 42
0.0000000001
 43
0.0000000001
 40
0.0
 40
0.0
 40
0.0
 40
0.0
 40
1.0
 40
1.0
 40
1.0
 40
1.0
 10
4.519649266899679
 20
-2.359109142196125
 30
0.0
 10
4.519649266899679
 20
-2.414343810541809
 30
0.0
 10
4.564425812628971
 20
-2.459120356271126
 30
0.0
 10
4.619660480974604
 20
-2.459120356271126
 30
0.0
  0
SPLINE
  5
BC
330
70
100
AcDbEntity
  8
Layer 1
 62
    18
420
        0
370
     5
100
AcDbSpline
210
0.0
220
0.0
230
1.0
 70
     8
 71
     3
 72
     8
 73
     4
 74
     0
 42
0.0000000001
 43
0.0000000001
 40
0.0
 40
0.0
 40
0.0
 40
0.0
 40
1.0
 40
1.0
 40
1.0
 40
1.0
 10
11.42042303807142
 20
-2.459120356271126
 30
0.0
 10
11.47565770641707
 20
-2.459120356271126
 30
0.0
 10
11.52043425214639
 20
-2.414343810541809
 30
0.0
 10
11.52043425214639
 20
-2.359109142196125
 30
0.0
  0
SPLINE
  5
BD
330
70
100
AcDbEntity
  8
Layer 1
 62
    18
420
        0
370
     5
100
AcDbSpline
210
0.0
220
0.0
230
1.0
 70
     8
 71
     3
 72
     8
 73
     4
 74
     0
 42
0.0000000001
 43
0.0000000001
 40
0.0
 40
0.0
 40
0.0
 40
0.0
 40
1.0
 40
1.0
 40
1.0
 40
1.0
 10
8.980149414642569
 20
-5.005699195909881
 30
0.0
 10
9.002243281980831
 20
-5.005699195909881
 30
0.0
 10
9.020153900272562
 20
-4.987788577618188
 30
0.0
 10
9.020153900272562
 20
-4.965694710279889
 30
0.0
  0
SPLINE
  5
BE
330
70
100
AcDbEntity
  8
Layer 1
 62
    18
420
        0
370
     5
100
AcDbSpline
210
0.0
220
0.0
230
1.0
 70
     8
 71
     3
 72
     8
 73
     4
 74
     0
 42
0.0000000001
 43
0.0000000001
 40
0.0
 40
0.0
 40
0.0
 40
0.0
 40
1.0
 40
1.0
 40
1.0
 40
1.0
 10
7.01992961877344
 20
-4.965694710279889
 30
0.0
 10
7.01992961877344
 20
-4.987788577618188
 30
0.0
 10
7.037840237065223
 20
-5.005699195909881
 30
0.0
 10
7.059934104403459
 20
-5.005699195909881
 30
0.0
  0
SPLINE
  5
BF
330
70
100
AcDbEntity
  8
Layer 1
 62
    18
420
        0
370
     5
100
AcDbSpline
210
0.0
220
0.0
230
1.0
 70
     8
 71
     3
 72
     8
 73
     4
 74
     0
 42
0.0000000001
 43
0.0000000001
 40
0.0
 40
0.0
 40
0.0
 40
0.0
 40
1.0
 40
1.0
 40
1.0
 40
1.0
 10
9.255336795701483
 20
-2.456561014096716
 30
0.0
 10
9.27708272809885
 20
-2.456561014096716
 30
0.0
 10
9.294711289391658
 20
-2.438932452803985
 30
0.0
 10
9.294711289391658
 20
-2.417186520406617
 30
0.0
  0
SPLINE
  5
C0
330
70
100
AcDbEntity
  8
Layer 1
 62
    18
420
        0
370
     5
100
AcDbSpline
210
0.0
220
0.0
230
1.0
 70
     8
 71
     3
 72
     8
 73
     4
 74
     0
 42
0.0000000001
 43
0.0000000001
 40
0.0
 40
0.0
 40
0.0
 40
0.0
 40
1.0
 40
1.0
 40
1.0
 40
1.0
 10
6.814118184412866
 20
-2.417186520406617
 30
0.0
 10
6.814118184412866
 20
-2.438932452803985
 30
0.0
 10
6.831746745705622
 20
-2.456561014096716
 30
0.0
 10
6.853492678102965
 20
-2.456561014096716
 30
0.0
  0
SPLINE
  5
C1
330
70
100
AcDbEntity
  8
Layer 1
 62
    18
420
        0
370
     5
100
AcDbSpline
210
0.0
220
0.0
230
1.0
 70
     8
 71
     3
 72
    11
 73
     7
 74
     0
 42
0.0000000001
 43
0.0000000001
 40
0.0
 40
0.0
 40
0.0
 40
0.0
 40
1.0
 40
1.0
 40
1.0
 40
2.0
 40
2.0
 40
2.0
 40
2.0
 10
9.008152554583563
 20
-3.008979853243494
 30
0.0
 10
8.992965531662788
 20
-3.015608013444964
 30
0.0
 10
8.986027202540487
 20
-3.033292713542259
 30
0.0
 10
8.992655362741983
 20
-3.048479736463049
 30
0.0
 10
8.995682089263027
 20
-3.055414838158349
 30
0.0
 10
9.001217452888251
 20
-3.060950201783599
 30
0.0
 10
9.008152554583563
 20
-3.063976928304618
 30
0.0
  0
SPLINE
  5
C2
330
70
100
AcDbEntity
  8
Layer 1
 62
    18
420
        0
370
     5
100
AcDbSpline
210
0.0
220
0.0
230
1.0
 70
     8
 71
     3
 72
    11
 73
     7
 74
     0
 42
0.0000000001
 43
0.0000000001
 40
0.0
 40
0.0
 40
0.0
 40
0.0
 40
1.0
 40
1.0
 40
1.0
 40
2.0
 40
2.0
 40
2.0
 40
2.0
 10
7.03193096446249
 20
-3.063976928304618
 30
0.0
 10
7.047117987383241
 20
-3.057348768103148
 30
0.0
 10
7.054056316505566
 20
-3.03966406800589
 30
0.0
 10
7.047428156304071
 20
-3.024477045085101
 30
0.0
 10
7.044401429783015
 20
-3.017541943389801
 30
0.0
 10
7.03886606615774
 20
-3.012006579764526
 30
0.0
 10
7.03193096446249
 20
-3.008979853243494
 30
0.0
  0
SPLINE
  5
C3
330
70
100
AcDbEntity
  8
Layer 1
 62
    18
420
        0
370
     5
100
AcDbSpline
210
0.0
220
0.0
230
1.0
 70
     8
 71
     3
 72
     8
 73
     4
 74
     0
 42
0.0000000001
 43
0.0000000001
 40
0.0
 40
0.0
 40
0.0
 40
0.0
 40
1.0
 40
1.0
 40
1.0
 40
1.0
 10
9.020153900272562
 20
-2.517846644442657
 30
0.0
 10
9.020153900272562
 20
-2.509889257500074
 30
0.0
 10
9.016992840617691
 20
-2.502257784409885
 30
0.0
 10
9.011366118350021
 20
-2.496631062142303
 30
0.0
  0
SPLINE
  5
C4
330
70
100
AcDbEntity
  8
Layer 1
 62
    18
420
        0
370
     5
100
AcDbSpline
210
0.0
220
0.0
230
1.0
 70
     8
 71
     3
 72
     8
 73
     4
 74
     0
 42
0.0000000001
 43
0.0000000001
 40
0.0
 40
0.0
 40
0.0
 40
0.0
 40
1.0
 40
1.0
 40
1.0
 40
1.0
 10
7.028717400696008
 20
-2.496631062142303
 30
0.0
 10
7.023090678428401
 20
-2.502257784409885
 30
0.0
 10
7.01992961877344
 20
-2.509889257500074
 30
0.0
 10
7.01992961877344
 20
-2.517846644442657
 30
0.0
  0
SPLINE
  5
C5
330
70
100
AcDbEntity
  8
Layer 1
 62
    18
420
        0
370
     5
100
AcDbSpline
210
0.0
220
0.0
230
1.0
 70
     8
 71
     3
 72
     8
 73
     4
 74
     0
 42
0.0000000001
 43
0.0000000001
 40
0.0
 40
0.0
 40
0.0
 40
0.0
 40
1.0
 40
1.0
 40
1.0
 40
1.0
 10
7.031930964463046
 20
-3.063976928254874
 30
0.0
 10
7.024641612372533
 20
-3.06715826232332
 30
0.0
 10
7.01992961877344
 20
-3.074355951437016
 30
0.0
 10
7.01992961877344
 20
-3.082309286608834
 30
0.0
  0
SPLINE
  5
C6
330
70
100
AcDbEntity
  8
Layer 1
 62
    18
420
        0
370
     5
100
AcDbSpline
210
0.0
220
0.0
230
1.0
 70
     8
 71
     3
 72
     8
 73
     4
 74
     0
 42
0.0000000001
 43
0.0000000001
 40
0.0
 40
0.0
 40
0.0
 40
0.0
 40
1.0
 40
1.0
 40
1.0
 40
1.0
 10
9.020153900272562
 20
-3.082309286608834
 30
0.0
 10
9.020153900272562
 20
-3.074355951437016
 30
0.0
 10
9.015441906673546
 20
-3.06715826232332
 30
0.0
 10
9.008152554583007
 20
-3.063976928254874
 30
0.0
  0
SPLINE
  5
C7
330
70
100
AcDbEntity
  8
Layer 1
 62
    18
420
        0
370
     5
100
AcDbSpline
210
0.0
220
0.0
230
1.0
 70
     8
 71
     3
 72
     8
 73
     4
 74
     0
 42
0.0000000001
 43
0.0000000001
 40
0.0
 40
0.0
 40
0.0
 40
0.0
 40
1.0
 40
1.0
 40
1.0
 40
1.0
 10
9.008152554582881
 20
-3.008979853293403
 30
0.0
 10
9.015441906673496
 20
-3.005798519224867
 30
0.0
 10
9.020153900272562
 20
-2.998600830111172
 30
0.0
 10
9.020153900272562
 20
-2.990647494939379
 30
0.0
  0
SPLINE
  5
C8
330
70
100
AcDbEntity
  8
Layer 1
 62
    18
420
        0
370
     5
100
AcDbSpline
210
0.0
220
0.0
230
1.0
 70
     8
 71
     3
 72
     8
 73
     4
 74
     0
 42
0.0000000001
 43
0.0000000001
 40
0.0
 40
0.0
 40
0.0
 40
0.0
 40
1.0
 40
1.0
 40
1.0
 40
1.0
 10
7.01992961877344
 20
-2.990647494939379
 30
0.0
 10
7.01992961877344
 20
-2.998600830111172
 30
0.0
 10
7.024641612372546
 20
-3.005798519224867
 30
0.0
 10
7.031930964463135
 20
-3.008979853293403
 30
0.0
  0
SPLINE
  5
C9
330
70
100
AcDbEntity
  8
Layer 1
 62
    18
420
        0
370
     5
100
AcDbSpline
210
0.0
220
0.0
230
1.0
 70
     8
 71
     3
 72
     8
 73
     4
 74
     0
 42
0.0000000001
 43
0.0000000001
 40
0.0
 40
0.0
 40
0.0
 40
0.0
 40
1.0
 40
1.0
 40
1.0
 40
1.0
 10
19.80278897126903
 20
-24.37288734547236
 30
0.0
 10
19.80278897126903
 20
-24.31765267712669
 30
0.0
 10
19.75801242553974
 20
-24.27287613139743
 30
0.0
 10
19.70277775719399
 20
-24.27287613139743
 30
0.0
  0
SPLINE
  5
CA
330
70
100
AcDbEntity
  8
Layer 1
 62
    18
420
        0
370
     5
100
AcDbSpline
210
0.0
220
0.0
230
1.0
 70
     8
 71
     3
 72
     8
 73
     4
 74
     0
 42
0.0000000001
 43
0.0000000001
 40
0.0
 40
0.0
 40
0.0
 40
0.0
 40
1.0
 40
1.0
 40
1.0
 40
1.0
 10
19.70277775719399
 20
-31.27366111664406
 30
0.0
 10
19.75801242553974
 20
-31.27366111664406
 30
0.0
 10
19.80278897126903
 20
-31.22888457091479
 30
0.0
 10
19.80278897126903
 20
-31.17364990256912
 30
0.0
  0
SPLINE
  5
CB
330
70
100
AcDbEntity
  8
Layer 1
 62
    18
420
        0
370
     5
100
AcDbSpline
210
0.0
220
0.0
230
1.0
 70
     8
 71
     3
 72
     8
 73
     4
 74
     0
 42
0.0000000001
 43
0.0000000001
 40
0.0
 40
0.0
 40
0.0
 40
0.0
 40
1.0
 40
1.0
 40
1.0
 40
1.0
 10
19.86151525934054
 20
-26.7731564832712
 30
0.0
 10
19.85355787239806
 20
-26.7731564832712
 30
0.0
 10
19.8459263993079
 20
-26.77631754292601
 30
0.0
 10
19.84029967704037
 20
-26.78194426519362
 30
0.0
  0
SPLINE
  5
CC
330
70
100
AcDbEntity
  8
Layer 1
 62
    18
420
        0
370
     5
100
AcDbSpline
210
0.0
220
0.0
230
1.0
 70
     8
 71
     3
 72
     8
 73
     4
 74
     0
 42
0.0000000001
 43
0.0000000001
 40
0.0
 40
0.0
 40
0.0
 40
0.0
 40
1.0
 40
1.0
 40
1.0
 40
1.0
 10
19.84029967704037
 20
-28.76459298284792
 30
0.0
 10
19.8459263993079
 20
-28.77021970511547
 30
0.0
 10
19.85355787239806
 20
-28.77338076477034
 30
0.0
 10
19.86151525934054
 20
-28.77338076477034
 30
0.0
  0
SPLINE
  5
CD
330
70
100
AcDbEntity
  8
Layer 1
 62
    18
420
        0
370
     5
100
AcDbSpline
210
0.0
220
0.0
230
1.0
 70
     8
 71
     3
 72
    11
 73
     7
 74
     0
 42
0.0000000001
 43
0.0000000001
 40
0.0
 40
0.0
 40
0.0
 40
0.0
 40
1.0
 40
1.0
 40
1.0
 40
2.0
 40
2.0
 40
2.0
 40
2.0
 10
20.40764554320256
 20
-28.76137941908132
 30
0.0
 10
20.40101738300107
 20
-28.7461923961605
 30
0.0
 10
20.3833326829037
 20
-28.73925406703827
 30
0.0
 10
20.36814565998295
 20
-28.74588222723964
 30
0.0
 10
20.36121055828772
 20
-28.74890895376082
 30
0.0
 10
20.35567519466245
 20
-28.75444431738593
 30
0.0
 10
20.3526484681414
 20
-28.76137941908132
 30
0.0
  0
SPLINE
  5
CE
330
70
100
AcDbEntity
  8
Layer 1
 62
    18
420
        0
370
     5
100
AcDbSpline
210
0.0
220
0.0
230
1.0
 70
     8
 71
     3
 72
    11
 73
     7
 74
     0
 42
0.0000000001
 43
0.0000000001
 40
0.0
 40
0.0
 40
0.0
 40
0.0
 40
1.0
 40
1.0
 40
1.0
 40
2.0
 40
2.0
 40
2.0
 40
2.0
 10
20.3526484681414
 20
-26.78515782896023
 30
0.0
 10
20.35927662834289
 20
-26.80034485188104
 30
0.0
 10
20.37696132844022
 20
-26.80728318100321
 30
0.0
 10
20.392148351361
 20
-26.80065502080184
 30
0.0
 10
20.39908345305624
 20
-26.79762829428073
 30
0.0
 10
20.4046188166815
 20
-26.79209293065555
 30
0.0
 10
20.40764554320256
 20
-26.78515782896023
 30
0.0
  0
SPLINE
  5
CF
330
70
100
AcDbEntity
  8
Layer 1
 62
    18
420
        0
370
     5
100
AcDbSpline
210
0.0
220
0.0
230
1.0
 70
     8
 71
     3
 72
     8
 73
     4
 74
     0
 42
0.0000000001
 43
0.0000000001
 40
0.0
 40
0.0
 40
0.0
 40
0.0
 40
1.0
 40
1.0
 40
1.0
 40
1.0
 10
20.35264846819101
 20
-26.78515782896023
 30
0.0
 10
20.34946713412233
 20
-26.77786847687
 30
0.0
 10
20.34226944500887
 20
-26.7731564832712
 30
0.0
 10
20.33431610983727
 20
-26.7731564832712
 30
0.0
  0
SPLINE
  5
D0
330
70
100
AcDbEntity
  8
Layer 1
 62
    18
420
        0
370
     5
100
AcDbSpline
210
0.0
220
0.0
230
1.0
 70
     8
 71
     3
 72
     8
 73
     4
 74
     0
 42
0.0000000001
 43
0.0000000001
 40
0.0
 40
0.0
 40
0.0
 40
0.0
 40
1.0
 40
1.0
 40
1.0
 40
1.0
 10
20.33431610983727
 20
-28.77338076477034
 30
0.0
 10
20.34226944500887
 20
-28.77338076477034
 30
0.0
 10
20.34946713412233
 20
-28.76866877117153
 30
0.0
 10
20.35264846819101
 20
-28.76137941908132
 30
0.0
  0
SPLINE
  5
D1
330
70
100
AcDbEntity
  8
Layer 1
 62
    18
420
        0
370
     5
100
AcDbSpline
210
0.0
220
0.0
230
1.0
 70
     8
 71
     3
 72
     8
 73
     4
 74
     0
 42
0.0000000001
 43
0.0000000001
 40
0.0
 40
0.0
 40
0.0
 40
0.0
 40
1.0
 40
1.0
 40
1.0
 40
1.0
 10
20.4259779016067
 20
-26.7731564832712
 30
0.0
 10
20.4180245664351
 20
-26.7731564832712
 30
0.0
 10
20.41082687732162
 20
-26.77786847687
 30
0.0
 10
20.40764554325299
 20
-26.78515782896023
 30
0.0
  0
SPLINE
  5
D2
330
70
100
AcDbEntity
  8
Layer 1
 62
    18
420
        0
370
     5
100
AcDbSpline
210
0.0
220
0.0
230
1.0
 70
     8
 71
     3
 72
     8
 73
     4
 74
     0
 42
0.0000000001
 43
0.0000000001
 40
0.0
 40
0.0
 40
0.0
 40
0.0
 40
1.0
 40
1.0
 40
1.0
 40
1.0
 10
20.40764554325299
 20
-28.76137941908132
 30
0.0
 10
20.41082687732162
 20
-28.76866877117153
 30
0.0
 10
20.4180245664351
 20
-28.77338076477034
 30
0.0
 10
20.4259779016067
 20
-28.77338076477034
 30
0.0
  0
SPLINE
  5
D3
330
70
100
AcDbEntity
  8
Layer 1
 62
    18
420
        0
370
     5
100
AcDbSpline
210
0.0
220
0.0
230
1.0
 70
     8
 71
     3
 72
     8
 73
     4
 74
     0
 42
0.0000000001
 43
0.0000000001
 40
0.0
 40
0.0
 40
0.0
 40
0.0
 40
1.0
 40
1.0
 40
1.0
 40
1.0
 10
19.7608551354045
 20
-17.01221948751572
 30
0.0
 10
19.78260106780193
 20
-17.01221948751572
 30
0.0
 10
19.8002296290946
 20
-16.99459092622292
 30
0.0
 10
19.8002296290946
 20
-16.97284499382559
 30
0.0
  0
SPLINE
  5
D4
330
70
100
AcDbEntity
  8
Layer 1
 62
    18
420
        0
370
     5
100
AcDbSpline
210
0.0
220
0.0
230
1.0
 70
     8
 71
     3
 72
     8
 73
     4
 74
     0
 42
0.0000000001
 43
0.0000000001
 40
0.0
 40
0.0
 40
0.0
 40
0.0
 40
1.0
 40
1.0
 40
1.0
 40
1.0
 10
19.8002296290946
 20
-14.57100087622706
 30
0.0
 10
19.8002296290946
 20
-14.54925494382971
 30
0.0
 10
19.78260106780193
 20
-14.53162638253691
 30
0.0
 10
19.7608551354045
 20
-14.53162638253691
 30
0.0
  0
SPLINE
  5
D5
330
70
100
AcDbEntity
  8
Layer 1
 62
    18
420
        0
370
     5
100
AcDbSpline
210
0.0
220
0.0
230
1.0
 70
     8
 71
     3
 72
     8
 73
     4
 74
     0
 42
0.0000000001
 43
0.0000000001
 40
0.0
 40
0.0
 40
0.0
 40
0.0
 40
1.0
 40
1.0
 40
1.0
 40
1.0
 10
22.30936332517786
 20
-28.77338076477034
 30
0.0
 10
22.33145719251613
 20
-28.77338076477034
 30
0.0
 10
22.34936781080783
 20
-28.7554701464786
 30
0.0
 10
22.34936781080783
 20
-28.73337627914033
 30
0.0
  0
SPLINE
  5
D6
330
70
100
AcDbEntity
  8
Layer 1
 62
    18
420
        0
370
     5
100
AcDbSpline
210
0.0
220
0.0
230
1.0
 70
     8
 71
     3
 72
     8
 73
     4
 74
     0
 42
0.0000000001
 43
0.0000000001
 40
0.0
 40
0.0
 40
0.0
 40
0.0
 40
1.0
 40
1.0
 40
1.0
 40
1.0
 10
22.34936781080783
 20
-26.81316096890125
 30
0.0
 10
22.34936781080783
 20
-26.79106710156288
 30
0.0
 10
22.33145719251613
 20
-26.7731564832712
 30
0.0
 10
22.30936332517786
 20
-26.7731564832712
 30
0.0
  0
SPLINE
  5
D7
330
70
100
AcDbEntity
  8
Layer 1
 62
    18
420
        0
370
     5
100
AcDbSpline
210
0.0
220
0.0
230
1.0
 70
     8
 71
     3
 72
     8
 73
     4
 74
     0
 42
0.0000000001
 43
0.0000000001
 40
0.0
 40
0.0
 40
0.0
 40
0.0
 40
1.0
 40
1.0
 40
1.0
 40
1.0
 10
23.76790297876381
 20
-15.96227487234591
 30
0.0
 10
23.38603609420655
 20
-15.58040798778875
 30
0.0
 10
22.8681134538236
 20
-15.3658774058821
 30
0.0
 10
22.32807212666156
 20
-15.3658774058821
 30
0.0
  0
SPLINE
  5
D8
330
70
100
AcDbEntity
  8
Layer 1
 62
    18
420
        0
370
     5
100
AcDbSpline
210
0.0
220
0.0
230
1.0
 70
     8
 71
     3
 72
     8
 73
     4
 74
     0
 42
0.0000000001
 43
0.0000000001
 40
0.0
 40
0.0
 40
0.0
 40
0.0
 40
1.0
 40
1.0
 40
1.0
 40
1.0
 10
23.1936678845069
 20
-16.53650996660276
 30
0.0
 10
22.96409761599123
 20
-16.30693969808701
 30
0.0
 10
22.6527335139142
 20
-16.17796846417064
 30
0.0
 10
22.32807212666156
 20
-16.17796846417064
 30
0.0
  0
SPLINE
  5
D9
330
70
100
AcDbEntity
  8
Layer 1
 62
    18
420
        0
370
     5
100
AcDbSpline
210
0.0
220
0.0
230
1.0
 70
     8
 71
     3
 72
     8
 73
     4
 74
     0
 42
0.0000000001
 43
0.0000000001
 40
0.0
 40
0.0
 40
0.0
 40
0.0
 40
1.0
 40
1.0
 40
1.0
 40
1.0
 10
24.68106337771804
 20
-18.02390545977722
 30
0.0
 10
24.70059178198984
 20
-18.04343386404917
 30
0.0
 10
24.73225358111315
 20
-18.04343386404917
 30
0.0
 10
24.7517819853851
 20
-18.02390545977722
 30
0.0
  0
SPLINE
  5
DA
330
70
100
AcDbEntity
  8
Layer 1
 62
    18
420
        0
370
     5
100
AcDbSpline
210
0.0
220
0.0
230
1.0
 70
     8
 71
     3
 72
     8
 73
     4
 74
     0
 42
0.0000000001
 43
0.0000000001
 40
0.0
 40
0.0
 40
0.0
 40
0.0
 40
1.0
 40
1.0
 40
1.0
 40
1.0
 10
25.25529847196998
 20
-17.52038897319226
 30
0.0
 10
25.27482687624191
 20
-17.50086056892041
 30
0.0
 10
25.27482687624191
 20
-17.46919876979705
 30
0.0
 10
25.25529847196998
 20
-17.44967036552521
 30
0.0
  0
SPLINE
  5
DB
330
70
100
AcDbEntity
  8
Layer 1
 62
    18
420
        0
370
     5
100
AcDbSpline
210
0.0
220
0.0
230
1.0
 70
     8
 71
     3
 72
    38
 73
    34
 74
     0
 42
0.0000000001
 43
0.0000000001
 40
0.0
 40
0.0
 40
0.0
 40
0.0
 40
1.0
 40
1.0
 40
1.0
 40
2.0
 40
2.0
 40
2.0
 40
3.0
 40
3.0
 40
3.0
 40
4.0
 40
4.0
 40
4.0
 40
5.0
 40
5.0
 40
5.0
 40
6.0
 40
6.0
 40
6.0
 40
7.0
 40
7.0
 40
7.0
 40
8.0
 40
8.0
 40
8.0
 40
9.0
 40
9.0
 40
9.0
 40
10.0
 40
10.0
 40
10.0
 40
11.0
 40
11.0
 40
11.0
 40
11.0
 10
8.054414736902243
 20
-17.56352732385751
 30
0.0
 10
8.072300115657133
 20
-17.56352732385751
 30
0.0
 10
8.090206991129042
 20
-17.5646784284863
 30
0.0
 10
8.107958727049018
 20
-17.56699461161583
 30
0.0
 10
8.125430565434019
 20
-17.56927427471419
 30
0.0
 10
8.142752117972033
 20
-17.57268256560014
 30
0.0
 10
8.159757783000637
 20
-17.57727891024595
 30
0.0
 10
8.17621124461209
 20
-17.58172600361488
 30
0.0
 10
8.192369000467957
 20
-17.58728524711412
 30
0.0
 10
8.208026685945014
 20
-17.5940372291564
 30
0.0
 10
8.22297160911186
 20
-17.60048185042524
 30
0.0
 10
8.237460953617869
 20
-17.60801309120052
 30
0.0
 10
8.251203133193408
 20
-17.61671417274379
 30
0.0
 10
8.25779295454831
 20
-17.62088662389311
 30
0.0
 10
8.264210964287043
 20
-17.62532808155616
 30
0.0
 10
8.270417959967984
 20
-17.63004527085154
 30
0.0
 10
8.276435333572205
 20
-17.63461835126122
 30
0.0
 10
8.282254389029414
 20
-17.63945057358296
 30
0.0
 10
8.287836575582065
 20
-17.6445577833323
 30
0.0
 10
8.298464151902457
 20
-17.65428108098336
 30
0.0
 10
8.308233173811004
 20
-17.66500109734516
 30
0.0
 10
8.316712166967464
 20
-17.67664080185937
 30
0.0
 10
8.320763144480654
 20
-17.68220186086447
 30
0.0
 10
8.324519659161309
 20
-17.68797284850719
 30
0.0
 10
8.327933444358272
 20
-17.69394282275354
 30
0.0
 10
8.331253627224542
 20
-17.69974910670574
 30
0.0
 10
8.334249617493949
 20
-17.70574361486077
 30
0.0
 10
8.336874007817703
 20
-17.71189670154434
 30
0.0
 10
8.33943822420248
 20
-17.71790870576026
 30
0.0
 10
8.341647685911828
 20
-17.72407209986512
 30
0.0
 10
8.343464309346408
 20
-17.73035225681393
 30
0.0
 10
8.345249998927265
 20
-17.73652547390262
 30
0.0
 10
8.346656114994756
 20
-17.74281151116626
 30
0.0
 10
8.347650482391385
 20
-17.74915512596428
 30
0.0
  0
SPLINE
  5
DC
330
70
100
AcDbEntity
  8
Layer 1
 62
    18
420
        0
370
     5
100
AcDbSpline
210
0.0
220
0.0
230
1.0
 70
     8
 71
     3
 72
    32
 73
    28
 74
     0
 42
0.0000000001
 43
0.0000000001
 40
0.0
 40
0.0
 40
0.0
 40
0.0
 40
1.0
 40
1.0
 40
1.0
 40
2.0
 40
2.0
 40
2.0
 40
3.0
 40
3.0
 40
3.0
 40
4.0
 40
4.0
 40
4.0
 40
5.0
 40
5.0
 40
5.0
 40
6.0
 40
6.0
 40
6.0
 40
7.0
 40
7.0
 40
7.0
 40
8.0
 40
8.0
 40
8.0
 40
9.0
 40
9.0
 40
9.0
 40
9.0
 10
8.054414736902243
 20
-17.93480001418685
 30
0.0
 10
8.037635360961466
 20
-17.93480001418685
 30
0.0
 10
8.0208381785627
 20
-17.9337858825351
 30
0.0
 10
8.00416915697575
 20
-17.93174898067741
 30
0.0
 10
7.987727666433745
 20
-17.92973988239557
 30
0.0
 10
7.971410861809292
 20
-17.9267357448362
 30
0.0
 10
7.955351826145172
 20
-17.9226885412836
 30
0.0
 10
7.939756432500391
 20
-17.91875818494807
 30
0.0
 10
7.924404138530083
 20
-17.91384412210608
 30
0.0
 10
7.909463169201747
 20
-17.90788442150182
 30
0.0
 10
7.895127819809557
 20
-17.90216629247318
 30
0.0
 10
7.88117112545995
 20
-17.89548557581671
 30
0.0
 10
7.867803536454162
 20
-17.88776608705671
 30
0.0
 10
7.855116773816866
 20
-17.8804397605562
 30
0.0
 10
7.842960637052934
 20
-17.87217777906539
 30
0.0
 10
7.831600921664566
 20
-17.86292294063426
 30
0.0
 10
7.820892385887885
 20
-17.85419862272141
 30
0.0
 10
7.81089158106517
 20
-17.84459201358544
 30
0.0
 10
7.801912500256295
 20
-17.83408328838191
 30
0.0
 10
7.793451071205051
 20
-17.8241804002554
 30
0.0
 10
7.785896955449654
 20
-17.813476413308
 30
0.0
 10
7.779605080785308
 20
-17.80208838050155
 30
0.0
 10
7.776578260160767
 20
-17.7966099604105
 30
0.0
 10
7.773843555679136
 20
-17.79097323392337
 30
0.0
 10
7.771435204759439
 20
-17.78519692548083
 30
0.0
 10
7.769077877497011
 20
-17.77954299471164
 30
0.0
 10
7.767033221937329
 20
-17.77375533374061
 30
0.0
 10
7.765335777906038
 20
-17.76787338040796
 30
0.0
  0
SPLINE
  5
DD
330
70
100
AcDbEntity
  8
Layer 1
 62
    18
420
        0
370
     5
100
AcDbSpline
210
0.0
220
0.0
230
1.0
 70
     8
 71
     3
 72
    38
 73
    34
 74
     0
 42
0.0000000001
 43
0.0000000001
 40
0.0
 40
0.0
 40
0.0
 40
0.0
 40
1.0
 40
1.0
 40
1.0
 40
2.0
 40
2.0
 40
2.0
 40
3.0
 40
3.0
 40
3.0
 40
4.0
 40
4.0
 40
4.0
 40
5.0
 40
5.0
 40
5.0
 40
6.0
 40
6.0
 40
6.0
 40
7.0
 40
7.0
 40
7.0
 40
8.0
 40
8.0
 40
8.0
 40
9.0
 40
9.0
 40
9.0
 40
10.0
 40
10.0
 40
10.0
 40
11.0
 40
11.0
 40
11.0
 40
11.0
 10
7.648373974792497
 20
-17.73676393746286
 30
0.0
 10
7.648372473524091
 20
-17.74705427309941
 30
0.0
 10
7.64906727270425
 20
-17.75735857038388
 30
0.0
 10
7.65045198991072
 20
-17.76756492675354
 30
0.0
 10
7.651843079676609
 20
-17.77781825344512
 30
0.0
 10
7.653930452176672
 20
-17.7879727356867
 30
0.0
 10
7.656667068972106
 20
-17.79794886619912
 30
0.0
 10
7.659429294326097
 20
-17.80801835078404
 30
0.0
 10
7.662852971751438
 20
-17.81790613008277
 30
0.0
 10
7.666883396675062
 20
-17.82753809764861
 30
0.0
 10
7.670967925101548
 20
-17.83729936254538
 30
0.0
 10
7.675675600040221
 20
-17.84679790169621
 30
0.0
 10
7.680928324288047
 20
-17.85598313852049
 30
0.0
 10
7.686273281414021
 20
-17.86532965943057
 30
0.0
 10
7.692182597001381
 20
-17.87435177883063
 30
0.0
 10
7.698576475469798
 20
-17.88301229996159
 30
0.0
 10
7.705101237667778
 20
-17.89185010336521
 30
0.0
 10
7.712130603953609
 20
-17.90031135302959
 30
0.0
 10
7.719587236661911
 20
-17.90838312032613
 30
0.0
 10
7.735003711843217
 20
-17.92507137695098
 30
0.0
 10
7.752246534621209
 20
-17.94009479367944
 30
0.0
 10
7.770679320883926
 20
-17.95341625041919
 30
0.0
 10
7.790003530621194
 20
-17.9673819428748
 30
0.0
 10
7.810635581952332
 20
-17.97947707871854
 30
0.0
 10
7.832097748470308
 20
-17.98982559266364
 30
0.0
 10
7.854476901231186
 20
-18.00061625418549
 30
0.0
 10
7.877758619059514
 20
-18.00950785406333
 30
0.0
 10
7.901559639933161
 20
-18.01661803185351
 30
0.0
 10
7.926108737199405
 20
-18.02395168561063
 30
0.0
 10
7.951210294355114
 20
-18.02939017572766
 30
0.0
 10
7.976576207018675
 20
-18.03302546688984
 30
0.0
 10
8.002353232241501
 20
-18.03671967624965
 30
0.0
 10
8.028403251381885
 20
-18.0385517630811
 30
0.0
 10
8.054414737802339
 20
-18.03855176298116
 30
0.0
  0
SPLINE
  5
DE
330
70
100
AcDbEntity
  8
Layer 1
 62
    18
420
        0
370
     5
100
AcDbSpline
210
0.0
220
0.0
230
1.0
 70
     8
 71
     3
 72
    38
 73
    34
 74
     0
 42
0.0000000001
 43
0.0000000001
 40
0.0
 40
0.0
 40
0.0
 40
0.0
 40
1.0
 40
1.0
 40
1.0
 40
2.0
 40
2.0
 40
2.0
 40
3.0
 40
3.0
 40
3.0
 40
4.0
 40
4.0
 40
4.0
 40
5.0
 40
5.0
 40
5.0
 40
6.0
 40
6.0
 40
6.0
 40
7.0
 40
7.0
 40
7.0
 40
8.0
 40
8.0
 40
8.0
 40
9.0
 40
9.0
 40
9.0
 40
10.0
 40
10.0
 40
10.0
 40
11.0
 40
11.0
 40
11.0
 40
11.0
 10
8.054414737802339
 20
-18.03855176298116
 30
0.0
 10
8.08042443622239
 20
-18.03855176298116
 30
0.0
 10
8.106472666018033
 20
-18.03671995085576
 30
0.0
 10
8.132247946417059
 20
-18.03302624626233
 30
0.0
 10
8.157611705412843
 20
-18.02939151439295
 30
0.0
 10
8.182711161113628
 20
-18.02395386842911
 30
0.0
 10
8.207258338289067
 20
-18.0166214684439
 30
0.0
 10
8.231057427654869
 20
-18.00951252710764
 30
0.0
 10
8.254337387505339
 20
-18.00062255918465
 30
0.0
 10
8.27671497734698
 20
-17.98983380169079
 30
0.0
 10
8.298175474560013
 20
-17.9794871959228
 30
0.0
 10
8.318806049168793
 20
-17.96739424622703
 30
0.0
 10
8.338129425357287
 20
-17.95343130462419
 30
0.0
 10
8.356561341796123
 20
-17.9401125258377
 30
0.0
 10
8.373803889597285
 20
-17.92509231466556
 30
0.0
 10
8.389220259842772
 20
-17.90840714827393
 30
0.0
 10
8.396676955176491
 20
-17.90033675294777
 30
0.0
 10
8.403706410875656
 20
-17.89187683642881
 30
0.0
 10
8.410231800518646
 20
-17.88304063835463
 30
0.0
 10
8.416626171208097
 20
-17.87438185641768
 30
0.0
 10
8.422536514245759
 20
-17.86536175144515
 30
0.0
 10
8.427882181683369
 20
-17.85601697593064
 30
0.0
 10
8.433135737617424
 20
-17.84683322078126
 30
0.0
 10
8.437843910209531
 20
-17.83733588752587
 30
0.0
 10
8.441929768065771
 20
-17.82757605818402
 30
0.0
 10
8.445961502561013
 20
-17.81794551252902
 30
0.0
 10
8.449387300120822
 20
-17.80805937904203
 30
0.0
 10
8.452151259650285
 20
-17.79799125908034
 30
0.0
 10
8.454889556272796
 20
-17.78801661994713
 30
0.0
 10
8.456978247922405
 20
-17.77786335807923
 30
0.0
 10
8.45837093852943
 20
-17.7676112352369
 30
0.0
 10
8.459757325753267
 20
-17.75740551398462
 30
0.0
 10
8.460453997943709
 20
-17.74710182463135
 30
0.0
 10
8.460455499112084
 20
-17.73681188793946
 30
0.0
  0
SPLINE
  5
DF
330
70
100
AcDbEntity
  8
Layer 1
 62
    18
420
        0
370
     5
100
AcDbSpline
210
0.0
220
0.0
230
1.0
 70
     8
 71
     3
 72
    38
 73
    34
 74
     0
 42
0.0000000001
 43
0.0000000001
 40
0.0
 40
0.0
 40
0.0
 40
0.0
 40
1.0
 40
1.0
 40
1.0
 40
2.0
 40
2.0
 40
2.0
 40
3.0
 40
3.0
 40
3.0
 40
4.0
 40
4.0
 40
4.0
 40
5.0
 40
5.0
 40
5.0
 40
6.0
 40
6.0
 40
6.0
 40
7.0
 40
7.0
 40
7.0
 40
8.0
 40
8.0
 40
8.0
 40
9.0
 40
9.0
 40
9.0
 40
10.0
 40
10.0
 40
10.0
 40
11.0
 40
11.0
 40
11.0
 40
11.0
 10
7.761178991413165
 20
-17.74915512596428
 30
0.0
 10
7.762173358809781
 20
-17.74281151116626
 30
0.0
 10
7.763579474926839
 20
-17.73652547390262
 30
0.0
 10
7.765365164516524
 20
-17.73035225681393
 30
0.0
 10
7.76718178795996
 20
-17.72407209986512
 30
0.0
 10
7.769391249636062
 20
-17.71790870576026
 30
0.0
 10
7.771955466004024
 20
-17.71189670154434
 30
0.0
 10
7.774579856310587
 20
-17.70574361486067
 30
0.0
 10
7.777575846579995
 20
-17.69974910670574
 30
0.0
 10
7.780896029446239
 20
-17.69394282275354
 30
0.0
 10
7.784309814643139
 20
-17.68797284850719
 30
0.0
 10
7.788066329323807
 20
-17.68220186086447
 30
0.0
 10
7.792117306836997
 20
-17.67664080185937
 30
0.0
 10
7.800596299993483
 20
-17.66500109734516
 30
0.0
 10
7.810365321902066
 20
-17.65428108098336
 30
0.0
 10
7.820992898254189
 20
-17.6445577833323
 30
0.0
 10
7.826575084823438
 20
-17.63945057358296
 30
0.0
 10
7.832394140306127
 20
-17.63461835126122
 30
0.0
 10
7.838411513911459
 20
-17.63004527085154
 30
0.0
 10
7.844618509593563
 20
-17.62532808155616
 30
0.0
 10
7.851036519307576
 20
-17.62088662389311
 30
0.0
 10
7.857626340652055
 20
-17.61671417274379
 30
0.0
 10
7.871368520205654
 20
-17.60801309120052
 30
0.0
 10
7.885857864751187
 20
-17.60048185042524
 30
0.0
 10
7.900802787922745
 20
-17.5940372291564
 30
0.0
 10
7.916460473404602
 20
-17.58728524711412
 30
0.0
 10
7.932618229226982
 20
-17.58172600361488
 30
0.0
 10
7.949071690837424
 20
-17.57727891024595
 30
0.0
 10
7.966077355864904
 20
-17.57268256560014
 30
0.0
 10
7.98339890843647
 20
-17.56927427471419
 30
0.0
 10
8.000870746813738
 20
-17.56699461161583
 30
0.0
 10
8.018622482725833
 20
-17.5646784284863
 30
0.0
 10
8.036529358147378
 20
-17.56352732385751
 30
0.0
 10
8.054414736902243
 20
-17.56352732385751
 30
0.0
  0
SPLINE
  5
E0
330
70
100
AcDbEntity
  8
Layer 1
 62
    18
420
        0
370
     5
100
AcDbSpline
210
0.0
220
0.0
230
1.0
 70
     8
 71
     3
 72
    32
 73
    28
 74
     0
 42
0.0000000001
 43
0.0000000001
 40
0.0
 40
0.0
 40
0.0
 40
0.0
 40
1.0
 40
1.0
 40
1.0
 40
2.0
 40
2.0
 40
2.0
 40
3.0
 40
3.0
 40
3.0
 40
4.0
 40
4.0
 40
4.0
 40
5.0
 40
5.0
 40
5.0
 40
6.0
 40
6.0
 40
6.0
 40
7.0
 40
7.0
 40
7.0
 40
8.0
 40
8.0
 40
8.0
 40
9.0
 40
9.0
 40
9.0
 40
9.0
 10
8.343493695898473
 20
-17.76787338040796
 30
0.0
 10
8.341796251867169
 20
-17.77375533374061
 30
0.0
 10
8.339751596307451
 20
-17.77954299471164
 30
0.0
 10
8.337394269057034
 20
-17.78519692548083
 30
0.0
 10
8.334985918149527
 20
-17.79097323392337
 30
0.0
 10
8.332251213692529
 20
-17.7966099604105
 30
0.0
 10
8.329224393084611
 20
-17.80208838050155
 30
0.0
 10
8.322932518454825
 20
-17.813476413308
 30
0.0
 10
8.315378402699504
 20
-17.8241804002554
 30
0.0
 10
8.306916973632976
 20
-17.83408328838191
 30
0.0
 10
8.29793789280797
 20
-17.84459201358544
 30
0.0
 10
8.287937087951982
 20
-17.85419862272141
 30
0.0
 10
8.277228552173381
 20
-17.86292294063426
 30
0.0
 10
8.265868836783056
 20
-17.87217777906539
 30
0.0
 10
8.253712700052522
 20
-17.8804397605562
 30
0.0
 10
8.241025937432329
 20
-17.88776608705671
 30
0.0
 10
8.227658348444567
 20
-17.89548557581671
 30
0.0
 10
8.213701654094949
 20
-17.90216629247318
 30
0.0
 10
8.199366304702783
 20
-17.90788442150182
 30
0.0
 10
8.184425335374486
 20
-17.91384412210608
 30
0.0
 10
8.169073041404178
 20
-17.91875818494807
 30
0.0
 10
8.153477647743304
 20
-17.9226885412836
 30
0.0
 10
8.137418612062724
 20
-17.9267357448362
 30
0.0
 10
8.121101807404771
 20
-17.92973988239557
 30
0.0
 10
8.104660316845826
 20
-17.93174898067741
 30
0.0
 10
8.087991295241851
 20
-17.9337858825351
 30
0.0
 10
8.071194112843082
 20
-17.93480001418685
 30
0.0
 10
8.054414736902243
 20
-17.93480001418685
 30
0.0
  0
SPLINE
  5
E1
330
70
100
AcDbEntity
  8
Layer 1
 62
    18
420
        0
370
     5
100
AcDbSpline
210
0.0
220
0.0
230
1.0
 70
     8
 71
     3
 72
    38
 73
    34
 74
     0
 42
0.0000000001
 43
0.0000000001
 40
0.0
 40
0.0
 40
0.0
 40
0.0
 40
1.0
 40
1.0
 40
1.0
 40
2.0
 40
2.0
 40
2.0
 40
3.0
 40
3.0
 40
3.0
 40
4.0
 40
4.0
 40
4.0
 40
5.0
 40
5.0
 40
5.0
 40
6.0
 40
6.0
 40
6.0
 40
7.0
 40
7.0
 40
7.0
 40
8.0
 40
8.0
 40
8.0
 40
9.0
 40
9.0
 40
9.0
 40
10.0
 40
10.0
 40
10.0
 40
11.0
 40
11.0
 40
11.0
 40
11.0
 10
8.054414736902243
 20
-17.98076710909329
 30
0.0
 10
8.035185748190832
 20
-17.98076710909329
 30
0.0
 10
8.015929478537422
 20
-17.97943771011614
 30
0.0
 10
7.996867263184943
 20
-17.97675782691365
 30
0.0
 10
7.978157410639747
 20
-17.97412748103678
 30
0.0
 10
7.959634504560262
 20
-17.97019611657038
 30
0.0
 10
7.941505373331627
 20
-17.96488530246238
 30
0.0
 10
7.92404855799662
 20
-17.95977143903491
 30
0.0
 10
7.906956852912129
 20
-17.95337854216197
 30
0.0
 10
7.890506696637467
 20
-17.94560683169195
 30
0.0
 10
7.874909773866079
 20
-17.93823822278758
 30
0.0
 10
7.859889574385887
 20
-17.92963012297711
 30
0.0
 10
7.845795534513146
 20
-17.91966311007642
 30
0.0
 10
7.832590621293838
 20
-17.91032486911813
 30
0.0
 10
7.820198699466963
 20
-17.8997937617942
 30
0.0
 10
7.809103911238922
 20
-17.88805020990053
 30
0.0
 10
7.803830661404933
 20
-17.88246860871979
 30
0.0
 10
7.798850435690673
 20
-17.87661311477798
 30
0.0
 10
7.794221278379723
 20
-17.87048909683934
 30
0.0
 10
7.789743521957802
 20
-17.86456537059492
 30
0.0
 10
7.785594245432952
 20
-17.85839039777293
 30
0.0
 10
7.781840159005128
 20
-17.85198235890822
 30
0.0
 10
7.778197917855221
 20
-17.8457652343713
 30
0.0
 10
7.774927669829795
 20
-17.83932872436394
 30
0.0
 10
7.772087359214512
 20
-17.83270614906455
 30
0.0
 10
7.769317286501821
 20
-17.82624734310649
 30
0.0
 10
7.766956150312542
 20
-17.81961156047274
 30
0.0
 10
7.765052494545253
 20
-17.81284654275562
 30
0.0
 10
7.763182875692311
 20
-17.80620248195338
 30
0.0
 10
7.761754524228181
 20
-17.79943376613856
 30
0.0
 10
7.760802643371498
 20
-17.79259560354669
 30
0.0
 10
7.759859712478209
 20
-17.78582173608613
 30
0.0
 10
7.759384334381529
 20
-17.77897972164171
 30
0.0
 10
7.759384334381529
 20
-17.77214721652545
 30
0.0
  0
SPLINE
  5
E2
330
70
100
AcDbEntity
  8
Layer 1
 62
    18
420
        0
370
     5
100
AcDbSpline
210
0.0
220
0.0
230
1.0
 70
     8
 71
     3
 72
    44
 73
    40
 74
     0
 42
0.0000000001
 43
0.0000000001
 40
0.0
 40
0.0
 40
0.0
 40
0.0
 40
1.0
 40
1.0
 40
1.0
 40
2.0
 40
2.0
 40
2.0
 40
3.0
 40
3.0
 40
3.0
 40
4.0
 40
4.0
 40
4.0
 40
5.0
 40
5.0
 40
5.0
 40
6.0
 40
6.0
 40
6.0
 40
7.0
 40
7.0
 40
7.0
 40
8.0
 40
8.0
 40
8.0
 40
9.0
 40
9.0
 40
9.0
 40
10.0
 40
10.0
 40
10.0
 40
11.0
 40
11.0
 40
11.0
 40
12.0
 40
12.0
 40
12.0
 40
13.0
 40
13.0
 40
13.0
 40
13.0
 10
8.054414736902243
 20
-17.44967036558455
 30
0.0
 10
8.027947791911982
 20
-17.44967036558455
 30
0.0
 10
8.001446259806963
 20
-17.45149733402819
 30
0.0
 10
7.975205763288372
 20
-17.4551868047884
 30
0.0
 10
7.949459727533583
 20
-17.45880675329191
 30
0.0
 10
7.92396498244462
 20
-17.46421967360275
 30
0.0
 10
7.899033404997086
 20
-17.47152408026492
 30
0.0
 10
7.886879678791311
 20
-17.4750848561064
 30
0.0
 10
7.874859783693927
 20
-17.47909512459687
 30
0.0
 10
7.86301745113595
 20
-17.4835706443517
 30
0.0
 10
7.851442069200983
 20
-17.48794527665212
 30
0.0
 10
7.840036334780481
 20
-17.49276442118409
 30
0.0
 10
7.828838514208806
 20
-17.49805437205385
 30
0.0
 10
7.807379122813547
 20
-17.50819198101539
 30
0.0
 10
7.786683305557225
 20
-17.5200586500956
 30
0.0
 10
7.767308537078557
 20
-17.53375810100925
 30
0.0
 10
7.758065237700773
 20
-17.54029382432605
 30
0.0
 10
7.749122615074409
 20
-17.54724669718138
 30
0.0
 10
7.740549226266718
 20
-17.55463336132445
 30
0.0
 10
7.732264568701477
 20
-17.56177126027519
 30
0.0
 10
7.72432469390824
 20
-17.56931422440432
 30
0.0
 10
7.716812190378075
 20
-17.57726330784269
 30
0.0
 10
7.70955505588765
 20
-17.58494218178349
 30
0.0
 10
7.702696731619324
 20
-17.59300003425147
 30
0.0
 10
7.696325056803011
 20
-17.60142855972081
 30
0.0
 10
7.690162224563108
 20
-17.60958082580401
 30
0.0
 10
7.68445466304729
 20
-17.61807986421993
 30
0.0
 10
7.679288026986569
 20
-17.62689824999393
 30
0.0
 10
7.67427499589136
 20
-17.63545446366467
 30
0.0
 10
7.669771204755242
 20
-17.64431131845711
 30
0.0
 10
7.665860907919257
 20
-17.65342515540442
 30
0.0
 10
7.662047486768326
 20
-17.66231320151417
 30
0.0
 10
7.658798517130334
 20
-17.67144565429496
 30
0.0
 10
7.656178471343259
 20
-17.68075568145771
 30
0.0
 10
7.65360522327795
 20
-17.68989941837324
 30
0.0
 10
7.651638632771019
 20
-17.6992144428634
 30
0.0
 10
7.650327290040195
 20
-17.70862513927654
 30
0.0
 10
7.649028296071984
 20
-17.71794721625229
 30
0.0
 10
7.648372267200998
 20
-17.72736317177224
 30
0.0
 10
7.648371260588127
 20
-17.73676613700955
 30
0.0
  0
SPLINE
  5
E3
330
70
100
AcDbEntity
  8
Layer 1
 62
    18
420
        0
370
     5
100
AcDbSpline
210
0.0
220
0.0
230
1.0
 70
     8
 71
     3
 72
    38
 73
    34
 74
     0
 42
0.0000000001
 43
0.0000000001
 40
0.0
 40
0.0
 40
0.0
 40
0.0
 40
1.0
 40
1.0
 40
1.0
 40
2.0
 40
2.0
 40
2.0
 40
3.0
 40
3.0
 40
3.0
 40
4.0
 40
4.0
 40
4.0
 40
5.0
 40
5.0
 40
5.0
 40
6.0
 40
6.0
 40
6.0
 40
7.0
 40
7.0
 40
7.0
 40
8.0
 40
8.0
 40
8.0
 40
9.0
 40
9.0
 40
9.0
 40
10.0
 40
10.0
 40
10.0
 40
11.0
 40
11.0
 40
11.0
 40
11.0
 10
8.349445139422957
 20
-17.77214721652545
 30
0.0
 10
8.349445139422957
 20
-17.77897972164171
 30
0.0
 10
8.348969761376059
 20
-17.78582173608613
 30
0.0
 10
8.348026830491409
 20
-17.79259560354669
 30
0.0
 10
8.347074949643431
 20
-17.79943376613856
 30
0.0
 10
8.345646598146053
 20
-17.80620248195338
 30
0.0
 10
8.343776979276336
 20
-17.81284654275562
 30
0.0
 10
8.341873323491983
 20
-17.81961156047274
 30
0.0
 10
8.339512187302704
 20
-17.82624734310649
 30
0.0
 10
8.336742114605991
 20
-17.83270614906455
 30
0.0
 10
8.333901804007115
 20
-17.83932872436394
 30
0.0
 10
8.330631556014989
 20
-17.8457652343713
 30
0.0
 10
8.326989314866068
 20
-17.85198235890822
 30
0.0
 10
8.32323522843933
 20
-17.85839039777293
 30
0.0
 10
8.319085951881119
 20
-17.86456537059492
 30
0.0
 10
8.314608195442296
 20
-17.87048909683934
 30
0.0
 10
8.309979038113839
 20
-17.87661311477798
 30
0.0
 10
8.304998812399629
 20
-17.88246860871979
 30
0.0
 10
8.299725562565539
 20
-17.88805020990053
 30
0.0
 10
8.288630774337585
 20
-17.8997937617942
 30
0.0
 10
8.276238852510623
 20
-17.91032486911813
 30
0.0
 10
8.263033939291364
 20
-17.91966311007642
 30
0.0
 10
8.248939899418612
 20
-17.92963012297711
 30
0.0
 10
8.233919699938457
 20
-17.93823822278758
 30
0.0
 10
8.218322777167044
 20
-17.94560683169195
 30
0.0
 10
8.201872620892357
 20
-17.95337854216197
 30
0.0
 10
8.184780915807852
 20
-17.95977143903491
 30
0.0
 10
8.16732410047291
 20
-17.96488530246238
 30
0.0
 10
8.149194969244211
 20
-17.97019611657038
 30
0.0
 10
8.130672063164764
 20
-17.97412748103678
 30
0.0
 10
8.111962210644087
 20
-17.97675782691365
 30
0.0
 10
8.092899995316694
 20
-17.97943771011614
 30
0.0
 10
8.073643725713672
 20
-17.98076710909329
 30
0.0
 10
8.054414736902243
 20
-17.98076710909329
 30
0.0
  0
SPLINE
  5
E4
330
70
100
AcDbEntity
  8
Layer 1
 62
    18
420
        0
370
     5
100
AcDbSpline
210
0.0
220
0.0
230
1.0
 70
     8
 71
     3
 72
    44
 73
    40
 74
     0
 42
0.0000000001
 43
0.0000000001
 40
0.0
 40
0.0
 40
0.0
 40
0.0
 40
1.0
 40
1.0
 40
1.0
 40
2.0
 40
2.0
 40
2.0
 40
3.0
 40
3.0
 40
3.0
 40
4.0
 40
4.0
 40
4.0
 40
5.0
 40
5.0
 40
5.0
 40
6.0
 40
6.0
 40
6.0
 40
7.0
 40
7.0
 40
7.0
 40
8.0
 40
8.0
 40
8.0
 40
9.0
 40
9.0
 40
9.0
 40
10.0
 40
10.0
 40
10.0
 40
11.0
 40
11.0
 40
11.0
 40
12.0
 40
12.0
 40
12.0
 40
13.0
 40
13.0
 40
13.0
 40
13.0
 10
8.460458214416512
 20
-17.73678791265115
 30
0.0
 10
8.460458214416512
 20
-17.72738452736669
 30
0.0
 10
8.459803136974894
 20
-17.71796807913627
 30
0.0
 10
8.458505013999291
 20
-17.70864545523187
 30
0.0
 10
8.457194558688595
 20
-17.6992342652024
 30
0.0
 10
8.455228781777059
 20
-17.68991869065326
 30
0.0
 10
8.452656260860003
 20
-17.68077436872661
 30
0.0
 10
8.450036967039649
 20
-17.67146378712737
 30
0.0
 10
8.446788665316931
 20
-17.66233074210355
 30
0.0
 10
8.442975828485247
 20
-17.65344208596828
 30
0.0
 10
8.439066141333164
 20
-17.64432764802473
 30
0.0
 10
8.434562875178205
 20
-17.63547017215579
 30
0.0
 10
8.42955028694617
 20
-17.62691333784141
 30
0.0
 10
8.424384111849349
 20
-17.6180943201409
 30
0.0
 10
8.418676925018933
 20
-17.60959464969813
 30
0.0
 10
8.412514396263999
 20
-17.60144176269306
 30
0.0
 10
8.406143032698953
 20
-17.5930125919289
 30
0.0
 10
8.399284943189412
 20
-17.58495410632971
 30
0.0
 10
8.392027977775265
 20
-17.57727462303109
 30
0.0
 10
8.384515637857639
 20
-17.56932489671476
 30
0.0
 10
8.376575854991756
 20
-17.56178131641753
 30
0.0
 10
8.368291235514169
 20
-17.55464282980129
 30
0.0
 10
8.359717868609209
 20
-17.54725554242218
 30
0.0
 10
8.350775208718964
 20
-17.54030207862693
 30
0.0
 10
8.341531824623972
 20
-17.53376579866365
 30
0.0
 10
8.322156810565463
 20
-17.52006513288178
 30
0.0
 10
8.301460529964149
 20
-17.50819741247192
 30
0.0
 10
8.280000562665211
 20
-17.49805890798502
 30
0.0
 10
8.268802400327381
 20
-17.49276847032848
 30
0.0
 10
8.257396291960098
 20
-17.48794888490273
 30
0.0
 10
8.24582051071051
 20
-17.48357385253025
 30
0.0
 10
8.233977744323206
 20
-17.47909791391268
 30
0.0
 10
8.22195738808624
 20
-17.47508727127443
 30
0.0
 10
8.209803181145982
 20
-17.47152616343939
 30
0.0
 10
8.184870560035125
 20
-17.46422105889218
 30
0.0
 10
8.159374686228501
 20
-17.45880762680996
 30
0.0
 10
8.133627486238157
 20
-17.45518733532668
 30
0.0
 10
8.107385754708932
 20
-17.45149750819221
 30
0.0
 10
8.080882949734688
 20
-17.44967036558455
 30
0.0
 10
8.054414736902243
 20
-17.44967036558455
 30
0.0
  0
SPLINE
  5
E5
330
70
100
AcDbEntity
  8
Layer 1
 62
    18
420
        0
370
     5
100
AcDbSpline
210
0.0
220
0.0
230
1.0
 70
     8
 71
     3
 72
    38
 73
    34
 74
     0
 42
0.0000000001
 43
0.0000000001
 40
0.0
 40
0.0
 40
0.0
 40
0.0
 40
1.0
 40
1.0
 40
1.0
 40
2.0
 40
2.0
 40
2.0
 40
3.0
 40
3.0
 40
3.0
 40
4.0
 40
4.0
 40
4.0
 40
5.0
 40
5.0
 40
5.0
 40
6.0
 40
6.0
 40
6.0
 40
7.0
 40
7.0
 40
7.0
 40
8.0
 40
8.0
 40
8.0
 40
9.0
 40
9.0
 40
9.0
 40
10.0
 40
10.0
 40
10.0
 40
11.0
 40
11.0
 40
11.0
 40
11.0
 10
8.054414736002133
 20
-7.926276160175979
 30
0.0
 10
8.028405037582135
 20
-7.926276160175979
 30
0.0
 10
8.002356807786503
 20
-7.924444348050642
 30
0.0
 10
7.976581527387426
 20
-7.920750643457242
 30
0.0
 10
7.951217768391706
 20
-7.917115911587883
 30
0.0
 10
7.926118312690921
 20
-7.911678265624004
 30
0.0
 10
7.901571135515407
 20
-7.904345865638813
 30
0.0
 10
7.877772046149616
 20
-7.897236924302571
 30
0.0
 10
7.854492086299185
 20
-7.888346956379538
 30
0.0
 10
7.832114496457493
 20
-7.877558198885733
 30
0.0
 10
7.810653999244474
 20
-7.867211593117783
 30
0.0
 10
7.79002342463568
 20
-7.855118643421873
 30
0.0
 10
7.770700048468433
 20
-7.841155701797914
 30
0.0
 10
7.752268132049835
 20
-7.827836922991233
 30
0.0
 10
7.735025584288159
 20
-7.812816711779608
 30
0.0
 10
7.719609214055556
 20
-7.796131545409543
 30
0.0
 10
7.712152518727975
 20
-7.788061150093741
 30
0.0
 10
7.705123063028836
 20
-7.77960123359954
 30
0.0
 10
7.698597673368693
 20
-7.770765035537553
 30
0.0
 10
7.692203302662441
 20
-7.762106253612614
 30
0.0
 10
7.686292959591455
 20
-7.753086148639984
 30
0.0
 10
7.680947292137349
 20
-7.743741373125494
 30
0.0
 10
7.675693736187061
 20
-7.734557617976115
 30
0.0
 10
7.67098556359498
 20
-7.725060284720761
 30
0.0
 10
7.666899705755705
 20
-7.715300455378913
 30
0.0
 10
7.662867971277237
 20
-7.7056699097239
 30
0.0
 10
7.659442173750739
 20
-7.695783776236857
 30
0.0
 10
7.65667821423781
 20
-7.685715656275267
 30
0.0
 10
7.653939917631785
 20
-7.675741017141994
 30
0.0
 10
7.651851225982138
 20
-7.665587755274132
 30
0.0
 10
7.65045853535
 20
-7.655335632406704
 30
0.0
 10
7.649072148101127
 20
-7.645129911129313
 30
0.0
 10
7.648375475860777
 20
-7.634826221726206
 30
0.0
 10
7.648373974792497
 20
-7.624536285134366
 30
0.0
  0
SPLINE
  5
E6
330
70
100
AcDbEntity
  8
Layer 1
 62
    18
420
        0
370
     5
100
AcDbSpline
210
0.0
220
0.0
230
1.0
 70
     8
 71
     3
 72
    38
 73
    34
 74
     0
 42
0.0000000001
 43
0.0000000001
 40
0.0
 40
0.0
 40
0.0
 40
0.0
 40
1.0
 40
1.0
 40
1.0
 40
2.0
 40
2.0
 40
2.0
 40
3.0
 40
3.0
 40
3.0
 40
4.0
 40
4.0
 40
4.0
 40
5.0
 40
5.0
 40
5.0
 40
6.0
 40
6.0
 40
6.0
 40
7.0
 40
7.0
 40
7.0
 40
8.0
 40
8.0
 40
8.0
 40
9.0
 40
9.0
 40
9.0
 40
10.0
 40
10.0
 40
10.0
 40
11.0
 40
11.0
 40
11.0
 40
11.0
 10
8.460455499112084
 20
-7.624488334557756
 30
0.0
 10
8.460457000280371
 20
-7.634778670194312
 30
0.0
 10
8.459762201100248
 20
-7.645082967478792
 30
0.0
 10
8.458377483910352
 20
-7.655289323865
 30
0.0
 10
8.456986394161036
 20
-7.665542650573178
 30
0.0
 10
8.454899021694282
 20
-7.675697132847921
 30
0.0
 10
8.452162404915572
 20
-7.685673263377161
 30
0.0
 10
8.449400179578459
 20
-7.695742747978997
 30
0.0
 10
8.445976502153079
 20
-7.705630527277649
 30
0.0
 10
8.441946077213122
 20
-7.715262494843563
 30
0.0
 10
8.437861548770127
 20
-7.725023759740237
 30
0.0
 10
8.433153873798193
 20
-7.734522298891053
 30
0.0
 10
8.427901149533555
 20
-7.743707535715365
 30
0.0
 10
8.42255619239054
 20
-7.75305405662545
 30
0.0
 10
8.416646876803092
 20
-7.762076176025503
 30
0.0
 10
8.410252998334714
 20
-7.770736697156494
 30
0.0
 10
8.40372823613667
 20
-7.779574500560102
 30
0.0
 10
8.39669886985094
 20
-7.78803575022453
 30
0.0
 10
8.389242237148803
 20
-7.796107517520984
 30
0.0
 10
8.373825761980418
 20
-7.812795774145999
 30
0.0
 10
8.356582939241876
 20
-7.827819190874404
 30
0.0
 10
8.338150152999382
 20
-7.841140647598573
 30
0.0
 10
8.318825943283323
 20
-7.855106340037877
 30
0.0
 10
8.298193891952223
 20
-7.867201475848193
 30
0.0
 10
8.276731725418509
 20
-7.877549989791873
 30
0.0
 10
8.254352572641284
 20
-7.888340651312495
 30
0.0
 10
8.231070854779494
 20
-7.897232251223713
 30
0.0
 10
8.207269833888883
 20
-7.904342429030874
 30
0.0
 10
8.182720736605157
 20
-7.911676082805456
 30
0.0
 10
8.157619179449447
 20
-7.917114572922501
 30
0.0
 10
8.132253266785861
 20
-7.920749864084718
 30
0.0
 10
8.106476241563022
 20
-7.924444073444545
 30
0.0
 10
8.080426222422676
 20
-7.926276160276036
 30
0.0
 10
8.054414736002133
 20
-7.926276160175979
 30
0.0
  0
LINE
  5
E7
330
70
100
AcDbEntity
  8
Layer 1
 62
    18
420
        0
370
     5
100
AcDbLine
 10
8.320075401747873
 20
-30.94862467090055
 30
0.0
 11
7.720008117298195
 21
-30.94862467090055
 31
0.0
  0
LINE
  5
E8
330
70
100
AcDbEntity
  8
Layer 1
 62
    18
420
        0
370
     5
100
AcDbLine
 10
7.720008664459479
 20
-26.57313405512125
 30
0.0
 11
8.320074854686543
 21
-26.57313405512125
 31
0.0
  0
LINE
  5
E9
330
70
100
AcDbEntity
  8
Layer 1
 62
    18
420
        0
370
     5
100
AcDbLine
 10
22.75441322781133
 20
-30.94862467090055
 30
0.0
 11
23.35448051226106
 21
-30.94862467090055
 31
0.0
  0
LINE
  5
EA
330
70
100
AcDbEntity
  8
Layer 1
 62
    18
420
        0
370
     5
100
AcDbLine
 10
22.34936781080783
 20
-28.09930518190511
 30
0.0
 11
22.6744042565515
 21
-28.09930518190511
 31
0.0
  0
LINE
  5
EB
330
70
100
AcDbEntity
  8
Layer 1
 62
    18
420
        0
370
     5
100
AcDbLine
 10
22.34936781080783
 20
-27.44723206613642
 30
0.0
 11
22.6744042565515
 21
-27.44723206613642
 31
0.0
  0
LINE
  5
EC
330
70
100
AcDbEntity
  8
Layer 1
 62
    18
420
        0
370
     5
100
AcDbLine
 10
22.75441322781133
 20
-26.57313405512125
 30
0.0
 11
23.35448051226106
 21
-26.57313405512125
 31
0.0
  0
LINE
  5
ED
330
70
100
AcDbEntity
  8
Layer 1
 62
    18
420
        0
370
     5
100
AcDbLine
 10
22.71440874218145
 20
-30.90862018527057
 30
0.0
 11
22.71440874218145
 21
-28.13930966753509
 31
0.0
  0
LINE
  5
EE
330
70
100
AcDbEntity
  8
Layer 1
 62
    18
420
        0
370
     5
100
AcDbLine
 10
22.71440874218145
 20
-27.40722758050639
 30
0.0
 11
22.71440874218145
 21
-26.61313854075125
 31
0.0
  0
LINE
  5
EF
330
70
100
AcDbEntity
  8
Layer 1
 62
    18
420
        0
370
     5
100
AcDbLine
 10
23.39448499789112
 20
-30.90862018527057
 30
0.0
 11
23.39448499789112
 21
-26.61313854075125
 31
0.0
  0
SPLINE
  5
F0
330
70
100
AcDbEntity
  8
Layer 1
 62
    18
420
        0
370
     5
100
AcDbSpline
210
0.0
220
0.0
230
1.0
 70
     8
 71
     3
 72
     8
 73
     4
 74
     0
 42
0.0000000001
 43
0.0000000001
 40
0.0
 40
0.0
 40
0.0
 40
0.0
 40
1.0
 40
1.0
 40
1.0
 40
1.0
 10
7.680003631668177
 20
-30.90862018527057
 30
0.0
 10
7.680003631668177
 20
-30.93071405260884
 30
0.0
 10
7.697914249959896
 20
-30.94862467090055
 30
0.0
 10
7.720008117298195
 20
-30.94862467090055
 30
0.0
  0
SPLINE
  5
F1
330
70
100
AcDbEntity
  8
Layer 1
 62
    18
420
        0
370
     5
100
AcDbSpline
210
0.0
220
0.0
230
1.0
 70
     8
 71
     3
 72
     8
 73
     4
 74
     0
 42
0.0000000001
 43
0.0000000001
 40
0.0
 40
0.0
 40
0.0
 40
0.0
 40
1.0
 40
1.0
 40
1.0
 40
1.0
 10
7.720008117298195
 20
-26.57313405512125
 30
0.0
 10
7.697914249959896
 20
-26.57313405512125
 30
0.0
 10
7.680003631668177
 20
-26.59104467341298
 30
0.0
 10
7.680003631668177
 20
-26.61313854075125
 30
0.0
  0
SPLINE
  5
F2
330
70
100
AcDbEntity
  8
Layer 1
 62
    18
420
        0
370
     5
100
AcDbSpline
210
0.0
220
0.0
230
1.0
 70
     8
 71
     3
 72
     8
 73
     4
 74
     0
 42
0.0000000001
 43
0.0000000001
 40
0.0
 40
0.0
 40
0.0
 40
0.0
 40
1.0
 40
1.0
 40
1.0
 40
1.0
 10
8.320075401747873
 20
-30.94862467090055
 30
0.0
 10
8.342169269086159
 20
-30.94862467090055
 30
0.0
 10
8.360079887377878
 20
-30.93071405260884
 30
0.0
 10
8.360079887377878
 20
-30.90862018527057
 30
0.0
  0
SPLINE
  5
F3
330
70
100
AcDbEntity
  8
Layer 1
 62
    18
420
        0
370
     5
100
AcDbSpline
210
0.0
220
0.0
230
1.0
 70
     8
 71
     3
 72
     8
 73
     4
 74
     0
 42
0.0000000001
 43
0.0000000001
 40
0.0
 40
0.0
 40
0.0
 40
0.0
 40
1.0
 40
1.0
 40
1.0
 40
1.0
 10
8.360079887377878
 20
-26.61313854075125
 30
0.0
 10
8.360079887377878
 20
-26.59104467341298
 30
0.0
 10
8.342169269086159
 20
-26.57313405512125
 30
0.0
 10
8.320075401747873
 20
-26.57313405512125
 30
0.0
  0
SPLINE
  5
F4
330
70
100
AcDbEntity
  8
Layer 1
 62
    18
420
        0
370
     5
100
AcDbSpline
210
0.0
220
0.0
230
1.0
 70
     8
 71
     3
 72
     8
 73
     4
 74
     0
 42
0.0000000001
 43
0.0000000001
 40
0.0
 40
0.0
 40
0.0
 40
0.0
 40
1.0
 40
1.0
 40
1.0
 40
1.0
 10
23.39448499789112
 20
-26.61313854075125
 30
0.0
 10
23.39448499789112
 20
-26.59104467341298
 30
0.0
 10
23.37657437959938
 20
-26.57313405512125
 30
0.0
 10
23.35448051226106
 20
-26.57313405512125
 30
0.0
  0
SPLINE
  5
F5
330
70
100
AcDbEntity
  8
Layer 1
 62
    18
420
        0
370
     5
100
AcDbSpline
210
0.0
220
0.0
230
1.0
 70
     8
 71
     3
 72
     8
 73
     4
 74
     0
 42
0.0000000001
 43
0.0000000001
 40
0.0
 40
0.0
 40
0.0
 40
0.0
 40
1.0
 40
1.0
 40
1.0
 40
1.0
 10
22.75441322781133
 20
-26.57313405512125
 30
0.0
 10
22.73231936047313
 20
-26.57313405512125
 30
0.0
 10
22.7144087421814
 20
-26.59104467341298
 30
0.0
 10
22.7144087421814
 20
-26.61313854075125
 30
0.0
  0
SPLINE
  5
F6
330
70
100
AcDbEntity
  8
Layer 1
 62
    18
420
        0
370
     5
100
AcDbSpline
210
0.0
220
0.0
230
1.0
 70
     8
 71
     3
 72
     8
 73
     4
 74
     0
 42
0.0000000001
 43
0.0000000001
 40
0.0
 40
0.0
 40
0.0
 40
0.0
 40
1.0
 40
1.0
 40
1.0
 40
1.0
 10
23.35448051226106
 20
-30.94862467090055
 30
0.0
 10
23.37657437959938
 20
-30.94862467090055
 30
0.0
 10
23.39448499789112
 20
-30.93071405260884
 30
0.0
 10
23.39448499789112
 20
-30.90862018527057
 30
0.0
  0
SPLINE
  5
F7
330
70
100
AcDbEntity
  8
Layer 1
 62
    18
420
        0
370
     5
100
AcDbSpline
210
0.0
220
0.0
230
1.0
 70
     8
 71
     3
 72
     8
 73
     4
 74
     0
 42
0.0000000001
 43
0.0000000001
 40
0.0
 40
0.0
 40
0.0
 40
0.0
 40
1.0
 40
1.0
 40
1.0
 40
1.0
 10
22.7144087421814
 20
-30.90862018527057
 30
0.0
 10
22.7144087421814
 20
-30.93071405260884
 30
0.0
 10
22.73231936047313
 20
-30.94862467090055
 30
0.0
 10
22.75441322781133
 20
-30.94862467090055
 30
0.0
  0
SPLINE
  5
F8
330
70
100
AcDbEntity
  8
Layer 1
 62
    18
420
        0
370
     5
100
AcDbSpline
210
0.0
220
0.0
230
1.0
 70
     8
 71
     3
 72
    11
 73
     7
 74
     0
 42
0.0000000001
 43
0.0000000001
 40
0.0
 40
0.0
 40
0.0
 40
0.0
 40
1.0
 40
1.0
 40
1.0
 40
2.0
 40
2.0
 40
2.0
 40
2.0
 10
22.71440970307415
 20
-28.13930966755404
 30
0.0
 10
22.71441030735193
 20
-28.11721586628472
 30
0.0
 10
22.69650023248353
 20
-28.09930481168852
 30
0.0
 10
22.67440643121411
 20
-28.0993042074108
 30
0.0
 10
22.67440570632061
 20
-28.09930420739099
 30
0.0
 10
22.67440498142716
 20
-28.09930420739091
 30
0.0
 10
22.67440425653371
 20
-28.09930420741041
 30
0.0
  0
SPLINE
  5
F9
330
70
100
AcDbEntity
  8
Layer 1
 62
    18
420
        0
370
     5
100
AcDbSpline
210
0.0
220
0.0
230
1.0
 70
     8
 71
     3
 72
    11
 73
     7
 74
     0
 42
0.0000000001
 43
0.0000000001
 40
0.0
 40
0.0
 40
0.0
 40
0.0
 40
1.0
 40
1.0
 40
1.0
 40
2.0
 40
2.0
 40
2.0
 40
2.0
 10
22.67440425657128
 20
-27.4472330509319
 30
0.0
 10
22.69649805717778
 20
-27.44723365397309
 30
0.0
 10
22.71440911023415
 20
-27.42932357863957
 30
0.0
 10
22.71440971327542
 20
-27.40722977803294
 30
0.0
 10
22.71440971329546
 20
-27.40722904549926
 30
0.0
 10
22.71440971329523
 20
-27.40722831296555
 30
0.0
 10
22.71440971327499
 20
-27.40722758043204
 30
0.0
  0
SPLINE
  5
FA
330
70
100
AcDbEntity
  8
Layer 1
 62
    18
420
        0
370
     5
100
AcDbSpline
210
0.0
220
0.0
230
1.0
 70
     8
 71
     3
 72
   230
 73
   226
 74
     0
 42
0.0000000001
 43
0.0000000001
 40
0.0
 40
0.0
 40
0.0
 40
0.0
 40
1.0
 40
1.0
 40
1.0
 40
2.0
 40
2.0
 40
2.0
 40
3.0
 40
3.0
 40
3.0
 40
4.0
 40
4.0
 40
4.0
 40
5.0
 40
5.0
 40
5.0
 40
6.0
 40
6.0
 40
6.0
 40
7.0
 40
7.0
 40
7.0
 40
8.0
 40
8.0
 40
8.0
 40
9.0
 40
9.0
 40
9.0
 40
10.0
 40
10.0
 40
10.0
 40
11.0
 40
11.0
 40
11.0
 40
12.0
 40
12.0
 40
12.0
 40
13.0
 40
13.0
 40
13.0
 40
14.0
 40
14.0
 40
14.0
 40
15.0
 40
15.0
 40
15.0
 40
16.0
 40
16.0
 40
16.0
 40
17.0
 40
17.0
 40
17.0
 40
18.0
 40
18.0
 40
18.0
 40
19.0
 40
19.0
 40
19.0
 40
20.0
 40
20.0
 40
20.0
 40
21.0
 40
21.0
 40
21.0
 40
22.0
 40
22.0
 40
22.0
 40
23.0
 40
23.0
 40
23.0
 40
24.0
 40
24.0
 40
24.0
 40
25.0
 40
25.0
 40
25.0
 40
26.0
 40
26.0
 40
26.0
 40
27.0
 40
27.0
 40
27.0
 40
28.0
 40
28.0
 40
28.0
 40
29.0
 40
29.0
 40
29.0
 40
30.0
 40
30.0
 40
30.0
 40
31.0
 40
31.0
 40
31.0
 40
32.0
 40
32.0
 40
32.0
 40
33.0
 40
33.0
 40
33.0
 40
34.0
 40
34.0
 40
34.0
 40
35.0
 40
35.0
 40
35.0
 40
36.0
 40
36.0
 40
36.0
 40
37.0
 40
37.0
 40
37.0
 40
38.0
 40
38.0
 40
38.0
 40
39.0
 40
39.0
 40
39.0
 40
40.0
 40
40.0
 40
40.0
 40
41.0
 40
41.0
 40
41.0
 40
42.0
 40
42.0
 40
42.0
 40
43.0
 40
43.0
 40
43.0
 40
44.0
 40
44.0
 40
44.0
 40
45.0
 40
45.0
 40
45.0
 40
46.0
 40
46.0
 40
46.0
 40
47.0
 40
47.0
 40
47.0
 40
48.0
 40
48.0
 40
48.0
 40
49.0
 40
49.0
 40
49.0
 40
50.0
 40
50.0
 40
50.0
 40
51.0
 40
51.0
 40
51.0
 40
52.0
 40
52.0
 40
52.0
 40
53.0
 40
53.0
 40
53.0
 40
54.0
 40
54.0
 40
54.0
 40
55.0
 40
55.0
 40
55.0
 40
56.0
 40
56.0
 40
56.0
 40
57.0
 40
57.0
 40
57.0
 40
58.0
 40
58.0
 40
58.0
 40
59.0
 40
59.0
 40
59.0
 40
60.0
 40
60.0
 40
60.0
 40
61.0
 40
61.0
 40
61.0
 40
62.0
 40
62.0
 40
62.0
 40
63.0
 40
63.0
 40
63.0
 40
64.0
 40
64.0
 40
64.0
 40
65.0
 40
65.0
 40
65.0
 40
66.0
 40
66.0
 40
66.0
 40
67.0
 40
67.0
 40
67.0
 40
68.0
 40
68.0
 40
68.0
 40
69.0
 40
69.0
 40
69.0
 40
70.0
 40
70.0
 40
70.0
 40
71.0
 40
71.0
 40
71.0
 40
72.0
 40
72.0
 40
72.0
 40
73.0
 40
73.0
 40
73.0
 40
74.0
 40
74.0
 40
74.0
 40
75.0
 40
75.0
 40
75.0
 40
75.0
 10
22.6744042565515
 20
-27.44723206613642
 30
0.0
 10
22.67441964387677
 20
-27.44723863887339
 30
0.0
 10
22.67442989000536
 20
-27.44725320928478
 30
0.0
 10
22.67444132750382
 20
-27.44726591073186
 30
0.0
 10
22.67445542665756
 20
-27.44728156797171
 30
0.0
 10
22.67447133619498
 20
-27.44729438516818
 30
0.0
 10
22.67448684456281
 20
-27.44730782837003
 30
0.0
 10
22.6745084756766
 20
-27.44732657898463
 30
0.0
 10
22.67452932632521
 20
-27.44734654747713
 30
0.0
 10
22.6745502830968
 20
-27.44736634822152
 30
0.0
 10
22.67460992652971
 20
-27.44742270157495
 30
0.0
 10
22.67467042954343
 20
-27.44747769619587
 30
0.0
 10
22.67473072594519
 20
-27.44753301045446
 30
0.0
 10
22.67481481013584
 20
-27.44761014697572
 30
0.0
 10
22.67489849253439
 20
-27.4476879050869
 30
0.0
 10
22.67498225827404
 20
-27.44776552908231
 30
0.0
 10
22.67508958921854
 20
-27.44786499047046
 30
0.0
 10
22.67519705699152
 20
-27.447964231669
 30
0.0
 10
22.67530448248092
 20
-27.44806353604943
 30
0.0
 10
22.67543536130205
 20
-27.44818452074631
 30
0.0
 10
22.67556617736151
 20
-27.44830559922439
 30
0.0
 10
22.67569700099024
 20
-27.44842666314253
 30
0.0
 10
22.67585113546395
 20
-27.44856929886904
 30
0.0
 10
22.67600528044484
 20
-27.44871191438463
 30
0.0
 10
22.67615941609225
 20
-27.44885454214146
 30
0.0
 10
22.67633673016495
 20
-27.44901861780351
 30
0.0
 10
22.67651403188605
 20
-27.44918270966519
 30
0.0
 10
22.67669133019432
 20
-27.44934680475826
 30
0.0
 10
22.6771149256688
 20
-27.44973885553142
 30
0.0
 10
22.67753850166203
 20
-27.45013092475074
 30
0.0
 10
22.67796206494194
 20
-27.45052300831811
 30
0.0
 10
22.67847659832035
 20
-27.45099930098096
 30
0.0
 10
22.67899111293817
 20
-27.45147561481692
 30
0.0
 10
22.67950559775083
 20
-27.45195196062622
 30
0.0
 10
22.68010869506934
 20
-27.4525103500543
 30
0.0
 10
22.68071175143159
 20
-27.45306878341802
 30
0.0
 10
22.68131475520214
 20
-27.45362727364062
 30
0.0
 10
22.68200343603306
 20
-27.45426511626991
 30
0.0
 10
22.68269204826568
 20
-27.45490303306347
 30
0.0
 10
22.68338058787809
 20
-27.45554102821105
 30
0.0
 10
22.68415186160319
 20
-27.4562556841075
 30
0.0
 10
22.68492304420733
 20
-27.45697043831903
 30
0.0
 10
22.68569413299156
 20
-27.45768529372213
 30
0.0
 10
22.68654501147873
 20
-27.45847411998481
 30
0.0
 10
22.68739577572473
 20
-27.45926306946449
 30
0.0
 10
22.68824642803666
 20
-27.46005213963063
 30
0.0
 10
22.69017532467493
 20
-27.46184139567473
 30
0.0
 10
22.69210364577291
 20
-27.46363127226204
 30
0.0
 10
22.69403135606103
 20
-27.46542180651174
 30
0.0
 10
22.69624205462305
 20
-27.46747519156404
 30
0.0
 10
22.69845194987811
 20
-27.46952944154128
 30
0.0
 10
22.70066095435504
 20
-27.47158464897524
 30
0.0
 10
22.70312749480356
 20
-27.47387946200939
 30
0.0
 10
22.70559292466449
 20
-27.47617546876336
 30
0.0
 10
22.70805719759541
 20
-27.47847271665831
 30
0.0
 10
22.71075350022064
 20
-27.48098626759356
 30
0.0
 10
22.71344841779185
 20
-27.48350130439861
 30
0.0
 10
22.71614185288619
 20
-27.48601792794428
 30
0.0
 10
22.7190435571293
 20
-27.48872914873303
 30
0.0
 10
22.7219435407677
 20
-27.49144221113819
 30
0.0
 10
22.72484159435185
 20
-27.49415733400605
 30
0.0
 10
22.72792733270815
 20
-27.49704829462245
 30
0.0
 10
22.7310108829256
 20
-27.49994159122437
 30
0.0
 10
22.73409208381369
 20
-27.50283738715684
 30
0.0
 10
22.73734074766662
 20
-27.50589056931315
 30
0.0
 10
22.74058679987903
 20
-27.50894652985966
 30
0.0
 10
22.74382995865108
 20
-27.51200556119688
 30
0.0
 10
22.75074775169398
 20
-27.5185306027349
 30
0.0
 10
22.75765237996838
 20
-27.52506961596196
 30
0.0
 10
22.76454060310577
 20
-27.5316258774125
 30
0.0
 10
22.77190626589703
 20
-27.53863656943761
 30
0.0
 10
22.77925317057694
 20
-27.54566698358361
 30
0.0
 10
22.78657557429028
 20
-27.55272286387756
 30
0.0
 10
22.7942775236403
 20
-27.56014447497313
 30
0.0
 10
22.80195236625627
 20
-27.56759426063468
 30
0.0
 10
22.80959071481084
 20
-27.57508133513241
 30
0.0
 10
22.81753064116318
 20
-27.58286401481539
 30
0.0
 10
22.82543113484399
 20
-27.59068698594226
 30
0.0
 10
22.83327575517061
 20
-27.59856586351162
 30
0.0
 10
22.84135976891303
 20
-27.60668517992124
 30
0.0
 10
22.84938444710565
 20
-27.61486386701947
 30
0.0
 10
22.85731934893596
 20
-27.62312897004232
 30
0.0
 10
22.86544280112281
 20
-27.63159046971312
 30
0.0
 10
22.8734721596965
 20
-27.64014254095956
 30
0.0
 10
22.88134956942609
 20
-27.64883506552474
 30
0.0
 10
22.88937326495968
 20
-27.65768901281502
 30
0.0
 10
22.89723931577964
 20
-27.66668867837858
 30
0.0
 10
22.90481596909401
 20
-27.67592748988252
 30
0.0
 10
22.90864801923421
 20
-27.6806002111289
 30
0.0
 10
22.91240604030016
 20
-27.68533410689207
 30
0.0
 10
22.91605322432954
 20
-27.69015240894272
 30
0.0
 10
22.919723978949
 20
-27.69500185014655
 30
0.0
 10
22.92328245929366
 20
-27.69993679214505
 30
0.0
 10
22.9266821211067
 20
-27.70498184232545
 30
0.0
 10
22.93010206488604
 20
-27.7100569906577
 30
0.0
 10
22.93336128949727
 20
-27.71524356487438
 30
0.0
 10
22.93635857201187
 20
-27.72057785455715
 30
0.0
 10
22.93786390842782
 20
-27.7232569148305
 30
0.0
 10
22.93930317290129
 20
-27.72597323466582
 30
0.0
 10
22.94066283867771
 20
-27.72872922092678
 30
0.0
 10
22.94202699555601
 20
-27.73149431046565
 30
0.0
 10
22.94331102702492
 20
-27.73429932890682
 30
0.0
 10
22.9444920202447
 20
-27.73714771948153
 30
0.0
 10
22.94567505026698
 20
-27.74000102253876
 30
0.0
 10
22.94675468632338
 20
-27.74289784746227
 30
0.0
 10
22.9477048717363
 20
-27.74583717404676
 30
0.0
 10
22.94865740154046
 20
-27.7487837528279
 30
0.0
 10
22.94947984112643
 20
-27.75177304325747
 30
0.0
 10
22.95015098807943
 20
-27.75479650462385
 30
0.0
 10
22.95082380638119
 20
-27.75782749527753
 30
0.0
 10
22.95134457758771
 20
-27.76089282727071
 30
0.0
 10
22.95169847196689
 20
-27.76397738195664
 30
0.0
 10
22.95205229584301
 20
-27.76706132213579
 30
0.0
 10
22.95223930937583
 20
-27.77016447734935
 30
0.0
 10
22.95223943717188
 20
-27.77327017685214
 30
0.0
 10
22.95223969238219
 20
-27.77947230300694
 30
0.0
 10
22.95149463495757
 20
-27.78568457595551
 30
0.0
 10
22.95014955770183
 20
-27.79174158848226
 30
0.0
 10
22.9494774456748
 20
-27.79476817372092
 30
0.0
 10
22.94865551893016
 20
-27.79775599308055
 30
0.0
 10
22.94770330922254
 20
-27.80070241811137
 30
0.0
 10
22.94675367400898
 20
-27.80364087687793
 30
0.0
 10
22.94567445937347
 20
-27.80653816484947
 30
0.0
 10
22.94449160481627
 20
-27.8093914704875
 30
0.0
 10
22.94331077358237
 20
-27.8122398954239
 30
0.0
 10
22.94202665668468
 20
-27.81504448836543
 30
0.0
 10
22.94066238814192
 20
-27.81780921647595
 30
0.0
 10
22.93930243455093
 20
-27.82056520021658
 30
0.0
 10
22.93786283552564
 20
-27.82328157089892
 30
0.0
 10
22.93635733514144
 20
-27.82596076493172
 30
0.0
 10
22.93335996370807
 20
-27.83129489818235
 30
0.0
 10
22.93010136786516
 20
-27.8364816680329
 30
0.0
 10
22.92668162538987
 20
-27.84155676282706
 30
0.0
 10
22.92328206164085
 20
-27.84660191122922
 30
0.0
 10
22.91972324739047
 20
-27.85153669859915
 30
0.0
 10
22.91605233195029
 20
-27.85638609294561
 30
0.0
 10
22.91240503919847
 20
-27.86120428098048
 30
0.0
 10
22.90864708337805
 20
-27.86593817148017
 30
0.0
 10
22.90481507179928
 20
-27.87061087107617
 30
0.0
 10
22.89723845848701
 20
-27.8798496839648
 30
0.0
 10
22.88937234058487
 20
-27.88884928456436
 30
0.0
 10
22.88134862146651
 20
-27.89770319696128
 30
0.0
 10
22.87347119442042
 20
-27.90639568082724
 30
0.0
 10
22.86544186068123
 20
-27.91494774056683
 30
0.0
 10
22.85731842737131
 20
-27.92340922592163
 30
0.0
 10
22.84938354881711
 20
-27.93167430992227
 30
0.0
 10
22.84135888832588
 20
-27.93985297542314
 30
0.0
 10
22.83327489650029
 20
-27.94797227374124
 30
0.0
 10
22.82543030440663
 20
-27.95585112675909
 30
0.0
 10
22.81752984302769
 20
-27.96367407673496
 30
0.0
 10
22.80958993735888
 20
-27.97145672351773
 30
0.0
 10
22.80195164003595
 20
-27.9789437356516
 30
0.0
 10
22.79427683819876
 20
-27.98639344838178
 30
0.0
 10
22.78657493866621
 20
-27.99381499574555
 30
0.0
 10
22.77925260941371
 20
-28.00087078933661
 30
0.0
 10
22.77190578754585
 20
-28.00790112528345
 30
0.0
 10
22.76454020769373
 20
-28.0149117393522
 30
0.0
 10
22.75765204012315
 20
-28.02146794883571
 30
0.0
 10
22.75074746742221
 20
-28.02800691019823
 30
0.0
 10
22.74382972724586
 20
-28.03453189691345
 30
0.0
 10
22.74058660346815
 20
-28.03759089291856
 30
0.0
 10
22.73734058567361
 20
-28.04064681750224
 30
0.0
 10
22.73409195661778
 20
-28.0436999640891
 30
0.0
 10
22.73101077645659
 20
-28.04659573782343
 30
0.0
 10
22.72792724728869
 20
-28.04948901256092
 30
0.0
 10
22.72484153005808
 20
-28.05237995141925
 30
0.0
 10
22.72194348885182
 20
-28.05509506084437
 30
0.0
 10
22.71904351764869
 20
-28.05780810989002
 30
0.0
 10
22.71614182567757
 20
-28.06051931713053
 30
0.0
 10
22.71344839970786
 20
-28.0630359302182
 30
0.0
 10
22.71075349111841
 20
-28.06555095640013
 30
0.0
 10
22.70805719805124
 20
-28.06806449734614
 30
0.0
 10
22.70559293304854
 20
-28.07036173686399
 30
0.0
 10
22.7031275115965
 20
-28.0726577357695
 30
0.0
 10
22.70066098119122
 20
-28.07495254266165
 30
0.0
 10
22.69845198518742
 20
-28.07700774508028
 30
0.0
 10
22.69624209971605
 20
-28.0790619914105
 30
0.0
 10
22.69403141440512
 20
-28.08111537662891
 30
0.0
 10
22.69210371455314
 20
-28.08290591206236
 30
0.0
 10
22.69017540652718
 20
-28.08469579273219
 30
0.0
 10
22.68824652531106
 20
-28.08648505537372
 30
0.0
 10
22.68739587869277
 20
-28.08727412947698
 30
0.0
 10
22.68654512059702
 20
-28.08806308338242
 30
0.0
 10
22.68569424838812
 20
-28.08885191421473
 30
0.0
 10
22.6849231650143
 20
-28.08956677401769
 30
0.0
 10
22.68415198792514
 20
-28.09028153274711
 30
0.0
 10
22.68338071954776
 20
-28.0909961929487
 30
0.0
 10
22.6826921849786
 20
-28.09163419168991
 30
0.0
 10
22.68200357765563
 20
-28.09227211190771
 30
0.0
 10
22.68131490111508
 20
-28.09290995732848
 30
0.0
 10
22.68071190189608
 20
-28.09346844925888
 30
0.0
 10
22.68010884961053
 20
-28.09402688384539
 30
0.0
 10
22.67950575524704
 20
-28.09458527326807
 30
0.0
 10
22.67899127425421
 20
-28.09506161787004
 30
0.0
 10
22.67847676264003
 20
-28.0955379296052
 30
0.0
 10
22.6779622305368
 20
-28.09601421828653
 30
0.0
 10
22.67753866573222
 20
-28.09640630095896
 30
0.0
 10
22.67711508704307
 20
-28.09679836800855
 30
0.0
 10
22.6766914872019
 20
-28.0971904147952
 30
0.0
 10
22.67651418543768
 20
-28.0973545097266
 30
0.0
 10
22.67633687996784
 20
-28.09751860110808
 30
0.0
 10
22.67615956176724
 20
-28.0976826759039
 30
0.0
 10
22.67600542140324
 20
-28.09782530395142
 30
0.0
 10
22.675851271419
 20
-28.09796791946585
 30
0.0
 10
22.67569713155707
 20
-28.09811055476722
 30
0.0
 10
22.67556630216139
 20
-28.09823161942907
 30
0.0
 10
22.67543548005776
 20
-28.09835269834571
 30
0.0
 10
22.67530459488987
 20
-28.09847368315607
 30
0.0
 10
22.67519716290849
 20
-28.09857298881555
 30
0.0
 10
22.6750896884387
 20
-28.09867223107272
 30
0.0
 10
22.67498235018252
 20
-28.09877169285803
 30
0.0
 10
22.67489857725521
 20
-28.09884931853609
 30
0.0
 10
22.67481488729767
 20
-28.09892707793188
 30
0.0
 10
22.67473079562297
 20
-28.09900421574879
 30
0.0
 10
22.67467049211283
 20
-28.09905953253421
 30
0.0
 10
22.67460998201727
 20
-28.0991145296695
 30
0.0
 10
22.67455032967918
 20
-28.09917088365314
 30
0.0
 10
22.67452936889779
 20
-28.0991906854509
 30
0.0
 10
22.67450851402325
 20
-28.09921065477826
 30
0.0
 10
22.67448687937157
 20
-28.09922940695136
 30
0.0
 10
22.67447136762371
 20
-28.09924285200183
 30
0.0
 10
22.67445545501654
 20
-28.09925567135044
 30
0.0
 10
22.67444135052379
 20
-28.09927132849463
 30
0.0
 10
22.67442990553359
 20
-28.09928403337285
 30
0.0
 10
22.67441965107762
 20
-28.09929860676789
 30
0.0
 10
22.6744042565515
 20
-28.09930518190511
 30
0.0
  0
LINE
  5
FB
330
70
100
AcDbEntity
  8
Layer 1
 62
    18
420
        0
370
     5
100
AcDbLine
 10
9.122389459659315
 20
-28.48345514173921
 30
0.0
 11
9.122389459659315
 21
-28.48345514173921
 31
0.0
  0
LINE
  5
FC
330
70
100
AcDbEntity
  8
Layer 1
 62
    18
420
        0
370
     5
100
AcDbLine
 10
9.062555634401658
 20
-28.0294143044686
 30
0.0
 11
9.062555634401658
 21
-28.0294143044686
 31
0.0
  0
LINE
  5
FD
330
70
100
AcDbEntity
  8
Layer 1
 62
    18
420
        0
370
     5
100
AcDbLine
 10
7.079476468453081
 20
-28.29074589120253
 30
0.0
 11
7.079476468453081
 21
-28.29074589120253
 31
0.0
  0
LINE
  5
FE
330
70
100
AcDbEntity
  8
Layer 1
 62
    18
420
        0
370
     5
100
AcDbLine
 10
8.96060705059296
 20
-27.25579135683893
 30
0.0
 11
8.96060705059296
 21
-27.25579135683893
 31
0.0
  0
LINE
  5
FF
330
70
100
AcDbEntity
  8
Layer 1
 62
    18
420
        0
370
     5
100
AcDbLine
 10
6.977527884744441
 20
-27.51712294347302
 30
0.0
 11
6.977527884744441
 21
-27.51712294347302
 31
0.0
  0
LINE
  5
100
330
70
100
AcDbEntity
  8
Layer 1
 62
    18
420
        0
370
     5
100
AcDbLine
 10
8.900773225335315
 20
-26.80175051966835
 30
0.0
 11
8.900773225335315
 21
-26.80175051966835
 31
0.0
  0
LINE
  5
101
330
70
100
AcDbEntity
  8
Layer 1
 62
    18
420
        0
370
     5
100
AcDbLine
 10
6.917694059486784
 20
-27.06308210630229
 30
0.0
 11
6.917694059486784
 21
-27.06308210630229
 31
0.0
  0
LINE
  5
102
330
70
100
AcDbEntity
  8
Layer 1
 62
    18
420
        0
370
     5
100
AcDbLine
 10
6.917694059486784
 20
-27.06308210630229
 30
0.0
 11
6.917694059486784
 21
-27.06308210630229
 31
0.0
  0
LINE
  5
103
330
70
100
AcDbEntity
  8
Layer 1
 62
    18
420
        0
370
     5
100
AcDbLine
 10
8.900773225335315
 20
-26.80175051966835
 30
0.0
 11
8.900773225335315
 21
-26.80175051966835
 31
0.0
  0
LINE
  5
104
330
70
100
AcDbEntity
  8
Layer 1
 62
    18
420
        0
370
     5
100
AcDbLine
 10
9.122389459659315
 20
-28.48345514173921
 30
0.0
 11
9.122389459659315
 21
-28.48345514173921
 31
0.0
  0
LINE
  5
105
330
70
100
AcDbEntity
  8
Layer 1
 62
    18
420
        0
370
     5
100
AcDbLine
 10
7.680003631668177
 20
-26.61313854075125
 30
0.0
 11
7.680003631668177
 21
-30.90862018527057
 31
0.0
  0
LINE
  5
106
330
70
100
AcDbEntity
  8
Layer 1
 62
    18
420
        0
370
     5
100
AcDbLine
 10
8.360079887377878
 20
-26.61313854075125
 30
0.0
 11
8.360079887377878
 21
-30.90862018527057
 31
0.0
  0
LINE
  5
107
330
70
100
AcDbEntity
  8
Layer 1
 62
    18
420
        0
370
     5
100
AcDbLine
 10
6.814118184412866
 20
-1.984067089415096
 30
0.0
 11
6.814118184412866
 21
-2.417186520406617
 31
0.0
  0
LINE
  5
108
330
70
100
AcDbEntity
  8
Layer 1
 62
    18
420
        0
370
     5
100
AcDbLine
 10
9.294711289391658
 20
-1.984067089415096
 30
0.0
 11
9.294711289391658
 21
-2.417186520406617
 31
0.0
  0
LINE
  5
109
330
70
100
AcDbEntity
  8
Layer 1
 62
    18
420
        0
370
     5
100
AcDbLine
 10
6.814119694382156
 20
-1.984067089415096
 30
0.0
 11
9.294709779422317
 21
-1.984067089415096
 31
0.0
  0
LINE
  5
10A
330
70
100
AcDbEntity
  8
Layer 1
 62
    18
420
        0
370
     5
100
AcDbLine
 10
19.32773570441296
 20
-14.53162638253691
 30
0.0
 11
19.32773570441296
 21
-17.01221948751572
 31
0.0
  0
ENDSEC
  0
SECTION
  2
OBJECTS
  0
DICTIONARY
  5
C
330
0
100
AcDbDictionary
281
     1
  3
ACAD_COLOR
350
63
  3
ACAD_DETAILVIEWSTYLE
350
6A
  3
ACAD_GROUP
350
D
  3
ACAD_LAYOUT
350
62
  3
ACAD_MATERIAL
350
10
  3
ACAD_MLEADERSTYLE
350
66
  3
ACAD_MLINESTYLE
350
5F
  3
ACAD_PLOTSETTINGS
350
61
  3
ACAD_PLOTSTYLENAME
350
E
  3
ACAD_SCALELIST
350
42
  3
ACAD_SECTIONVIEWSTYLE
350
68
  3
ACAD_TABLESTYLE
350
64
  3
ACAD_VISUALSTYLE
350
29
  3
ACDB_RECOMPOSE_DATA
350
113
  3
AcDbVariableDictionary
350
10B
  0
DICTIONARY
  5
63
102
{ACAD_REACTORS
330
C
102
}
330
C
100
AcDbDictionary
281
     1
  0
DICTIONARY
  5
6A
102
{ACAD_REACTORS
330
C
102
}
330
C
100
AcDbDictionary
281
     1
  3
Imperial24
350
6B
  0
DICTIONARY
  5
D
102
{ACAD_REACTORS
330
C
102
}
330
C
100
AcDbDictionary
281
     1
  0
DICTIONARY
  5
62
102
{ACAD_REACTORS
330
C
102
}
330
C
100
AcDbDictionary
281
     1
  3
Layout1
350
6F
  3
Layout2
350
77
  3
Model
350
73
  0
DICTIONARY
  5
10
102
{ACAD_REACTORS
330
C
102
}
330
C
100
AcDbDictionary
281
     1
  3
ByBlock
350
19
  3
ByLayer
350
11
  3
Global
350
21
  0
DICTIONARY
  5
66
102
{ACAD_REACTORS
330
C
102
}
330
C
100
AcDbDictionary
281
     1
  3
Standard
350
67
  0
DICTIONARY
  5
5F
102
{ACAD_REACTORS
330
C
102
}
330
C
100
AcDbDictionary
281
     1
  3
Standard
350
60
  0
DICTIONARY
  5
61
102
{ACAD_REACTORS
330
C
102
}
330
C
100
AcDbDictionary
281
     1
  0
ACDBDICTIONARYWDFLT
  5
E
102
{ACAD_REACTORS
330
C
102
}
330
C
100
AcDbDictionary
281
     1
  3
Normal
350
F
100
AcDbDictionaryWithDefault
340
F
  0
DICTIONARY
  5
42
102
{ACAD_REACTORS
330
C
102
}
330
C
100
AcDbDictionary
281
     1
  3
A0
350
43
  3
A1
350
44
  3
A2
350
45
  3
A3
350
46
  3
A4
350
47
  3
A5
350
48
  3
A6
350
49
  3
A7
350
4A
  3
A8
350
4B
  3
A9
350
4C
  3
B0
350
4D
  3
B1
350
4E
  3
B2
350
4F
  3
B3
350
50
  3
B4
350
51
  3
B5
350
52
  3
B6
350
53
  0
DICTIONARY
  5
68
102
{ACAD_REACTORS
330
C
102
}
330
C
100
AcDbDictionary
281
     1
  3
Imperial24
350
69
  0
DICTIONARY
  5
64
102
{ACAD_REACTORS
330
C
102
}
330
C
100
AcDbDictionary
281
     1
  3
Standard
350
65
  0
DICTIONARY
  5
29
102
{ACAD_REACTORS
330
C
102
}
330
C
100
AcDbDictionary
281
     1
  3
2dWireframe
350
2F
  3
Basic
350
2E
  3
Brighten
350
35
  3
ColorChange
350
39
  3
Conceptual
350
32
  3
Dim
350
34
  3
EdgeColorOff
350
41
  3
Facepattern
350
38
  3
Flat
350
2A
  3
FlatWithEdges
350
2B
  3
Gouraud
350
2C
  3
GouraudWithEdges
350
2D
  3
Hidden
350
31
  3
JitterOff
350
3F
  3
Linepattern
350
37
  3
OverhangOff
350
40
  3
Realistic
350
33
  3
Shaded
350
3E
  3
Shaded with edges
350
3D
  3
Shades of Gray
350
3A
  3
Sketchy
350
3B
  3
Thicken
350
36
  3
Wireframe
350
30
  3
X-Ray
350
3C
  0
XRECORD
  5
113
102
{ACAD_REACTORS
330
C
102
}
330
C
100
AcDbXrecord
280
     1
 90
        1
330
65
  0
DICTIONARY
  5
10B
102
{ACAD_REACTORS
330
C
102
}
330
C
100
AcDbDictionary
281
     1
  3
CANNOSCALE
350
110
  3
CMLEADERSTYLE
350
10D
  3
CTABLESTYLE
350
10C
  3
CVIEWDETAILSTYLE
350
10E
  3
CVIEWSECTIONSTYLE
350
10F
  0
ACDBDETAILVIEWSTYLE
  5
6B
102
{ACAD_REACTORS
330
6A
102
}
330
6A
100
AcDbModelDocViewStyle
 70
     0
  3
Imperial24
290
     1
300
Imperial24
 90
        0
100
AcDbDetailViewStyle
 70
     0
 71
     0
 90
        3
 71
     1
340
55
 62
   256
 40
0.24
340
0
 62
   256
 40
0.24
300

 40
0.36
280
     3
 71
     2
340
5D
 90
       25
 62
   256
 71
     3
340
55
 62
   256
 40
0.24
 90
        1
 40
0.75
 90
        1
300
%<\AcVar ViewType \f "%tc1">% %<\AcVar ViewDetailId>%\PSCALE %<\AcVar ViewScale \f "%sn">%
 71
     4
340
5D
 90
       25
 62
   256
340
5D
 90
       25
 62
   256
280
     0
  0
LAYOUT
  5
6F
102
{ACAD_REACTORS
330
62
102
}
330
62
100
AcDbPlotSettings
  1

  2

  4

  6

 40
0.0
 41
0.0
 42
0.0
 43
0.0
 44
0.0
 45
0.0
 46
0.0
 47
0.0
 48
0.0
 49
0.0
140
0.0
141
0.0
142
1.0
143
1.0
 70
   688
 72
     0
 73
     0
 74
     5
  7

 75
    16
147
1.0
 76
     0
 77
     2
 78
   300
148
0.0
149
0.0
100
AcDbLayout
  1
Layout1
 70
     1
 71
     1
 10
0.0
 20
0.0
 11
12.0
 21
9.0
 12
0.0
 22
0.0
 32
0.0
 14
0.0
 24
0.0
 34
0.0
 15
0.0
 25
0.0
 35
0.0
146
0.0
 13
0.0
 23
0.0
 33
0.0
 16
1.0
 26
0.0
 36
0.0
 17
0.0
 27
1.0
 37
0.0
 76
     0
330
6C
  0
LAYOUT
  5
77
102
{ACAD_REACTORS
330
62
102
}
330
62
100
AcDbPlotSettings
  1

  2

  4

  6

 40
0.0
 41
0.0
 42
0.0
 43
0.0
 44
0.0
 45
0.0
 46
0.0
 47
0.0
 48
0.0
 49
0.0
140
0.0
141
0.0
142
1.0
143
1.0
 70
   688
 72
     0
 73
     0
 74
     5
  7

 75
    16
147
1.0
 76
     0
 77
     2
 78
   300
148
0.0
149
0.0
100
AcDbLayout
  1
Layout2
 70
     1
 71
     2
 10
0.0
 20
0.0
 11
12.0
 21
9.0
 12
0.0
 22
0.0
 32
0.0
 14
0.0
 24
0.0
 34
0.0
 15
0.0
 25
0.0
 35
0.0
146
0.0
 13
0.0
 23
0.0
 33
0.0
 16
1.0
 26
0.0
 36
0.0
 17
0.0
 27
1.0
 37
0.0
 76
     0
330
74
  0
LAYOUT
  5
73
102
{ACAD_REACTORS
330
62
102
}
330
62
100
AcDbPlotSettings
  1

  2

  4

  6

 40
0.0
 41
0.0
 42
0.0
 43
0.0
 44
0.0
 45
0.0
 46
0.0
 47
0.0
 48
0.0
 49
0.0
140
0.0
141
0.0
142
1.0
143
1.0
 70
  1712
 72
     0
 73
     0
 74
     0
  7

 75
     0
147
1.0
 76
     0
 77
     2
 78
   300
148
0.0
149
0.0
100
AcDbLayout
  1
Model
 70
     1
 71
     0
 10
0.0
 20
0.0
 11
12.0
 21
9.0
 12
0.0
 22
0.0
 32
0.0
 14
0.0
 24
0.0
 34
0.0
 15
0.0
 25
0.0
 35
0.0
146
0.0
 13
0.0
 23
0.0
 33
0.0
 16
1.0
 26
0.0
 36
0.0
 17
0.0
 27
1.0
 37
0.0
 76
     0
330
70
  0
MATERIAL
  5
19
102
{ACAD_XDICTIONARY
360
1A
102
}
102
{ACAD_REACTORS
330
10
102
}
330
10
100
AcDbMaterial
  1
ByBlock
 72
     0
 43
0.0208333333333333
 43
0.0
 43
0.0
 43
0.0
 43
0.0
 43
0.0208333333333333
 43
0.0
 43
0.0
 43
0.0
 43
0.0
 43
1.0
 43
0.0
 43
0.0
 43
0.0
 43
0.0
 43
1.0
 77
     0
 47
0.0208333333333333
 47
0.0
 47
0.0
 47
0.0
 47
0.0
 47
0.0208333333333333
 47
0.0
 47
0.0
 47
0.0
 47
0.0
 47
1.0
 47
0.0
 47
0.0
 47
0.0
 47
0.0
 47
1.0
171
     0
 49
0.0208333333333333
 49
0.0
 49
0.0
 49
0.0
 49
0.0
 49
0.0208333333333333
 49
0.0
 49
0.0
 49
0.0
 49
0.0
 49
1.0
 49
0.0
 49
0.0
 49
0.0
 49
0.0
 49
1.0
175
     0
142
0.0208333333333333
142
0.0
142
0.0
142
0.0
142
0.0
142
0.0208333333333333
142
0.0
142
0.0
142
0.0
142
0.0
142
1.0
142
0.0
142
0.0
142
0.0
142
0.0
142
1.0
179
     0
144
0.0208333333333333
144
0.0
144
0.0
144
0.0
144
0.0
144
0.0208333333333333
144
0.0
144
0.0
144
0.0
144
0.0
144
1.0
144
0.0
144
0.0
144
0.0
144
0.0
144
1.0
147
0.0208333333333333
147
0.0
147
0.0
147
0.0
147
0.0
147
0.0208333333333333
147
0.0
147
0.0
147
0.0
147
0.0
147
1.0
147
0.0
147
0.0
147
0.0
147
0.0
147
1.0
  0
MATERIAL
  5
11
102
{ACAD_XDICTIONARY
360
12
102
}
102
{ACAD_REACTORS
330
10
102
}
330
10
100
AcDbMaterial
  1
ByLayer
 72
     0
 43
0.0208333333333333
 43
0.0
 43
0.0
 43
0.0
 43
0.0
 43
0.0208333333333333
 43
0.0
 43
0.0
 43
0.0
 43
0.0
 43
1.0
 43
0.0
 43
0.0
 43
0.0
 43
0.0
 43
1.0
 77
     0
 47
0.0208333333333333
 47
0.0
 47
0.0
 47
0.0
 47
0.0
 47
0.0208333333333333
 47
0.0
 47
0.0
 47
0.0
 47
0.0
 47
1.0
 47
0.0
 47
0.0
 47
0.0
 47
0.0
 47
1.0
171
     0
 49
0.0208333333333333
 49
0.0
 49
0.0
 49
0.0
 49
0.0
 49
0.0208333333333333
 49
0.0
 49
0.0
 49
0.0
 49
0.0
 49
1.0
 49
0.0
 49
0.0
 49
0.0
 49
0.0
 49
1.0
175
     0
142
0.0208333333333333
142
0.0
142
0.0
142
0.0
142
0.0
142
0.0208333333333333
142
0.0
142
0.0
142
0.0
142
0.0
142
1.0
142
0.0
142
0.0
142
0.0
142
0.0
142
1.0
179
     0
144
0.0208333333333333
144
0.0
144
0.0
144
0.0
144
0.0
144
0.0208333333333333
144
0.0
144
0.0
144
0.0
144
0.0
144
1.0
144
0.0
144
0.0
144
0.0
144
0.0
144
1.0
147
0.0208333333333333
147
0.0
147
0.0
147
0.0
147
0.0
147
0.0208333333333333
147
0.0
147
0.0
147
0.0
147
0.0
147
1.0
147
0.0
147
0.0
147
0.0
147
0.0
147
1.0
  0
MATERIAL
  5
21
102
{ACAD_XDICTIONARY
360
22
102
}
102
{ACAD_REACTORS
330
10
102
}
330
10
100
AcDbMaterial
  1
Global
 72
     0
 43
0.0208333333333333
 43
0.0
 43
0.0
 43
0.0
 43
0.0
 43
0.0208333333333333
 43
0.0
 43
0.0
 43
0.0
 43
0.0
 43
1.0
 43
0.0
 43
0.0
 43
0.0
 43
0.0
 43
1.0
 77
     0
 47
0.0208333333333333
 47
0.0
 47
0.0
 47
0.0
 47
0.0
 47
0.0208333333333333
 47
0.0
 47
0.0
 47
0.0
 47
0.0
 47
1.0
 47
0.0
 47
0.0
 47
0.0
 47
0.0
 47
1.0
171
     0
 49
0.0208333333333333
 49
0.0
 49
0.0
 49
0.0
 49
0.0
 49
0.0208333333333333
 49
0.0
 49
0.0
 49
0.0
 49
0.0
 49
1.0
 49
0.0
 49
0.0
 49
0.0
 49
0.0
 49
1.0
175
     0
142
0.0208333333333333
142
0.0
142
0.0
142
0.0
142
0.0
142
0.0208333333333333
142
0.0
142
0.0
142
0.0
142
0.0
142
1.0
142
0.0
142
0.0
142
0.0
142
0.0
142
1.0
179
     0
144
0.0208333333333333
144
0.0
144
0.0
144
0.0
144
0.0
144
0.0208333333333333
144
0.0
144
0.0
144
0.0
144
0.0
144
1.0
144
0.0
144
0.0
144
0.0
144
0.0
144
1.0
147
0.0208333333333333
147
0.0
147
0.0
147
0.0
147
0.0
147
0.0208333333333333
147
0.0
147
0.0
147
0.0
147
0.0
147
1.0
147
0.0
147
0.0
147
0.0
147
0.0
147
1.0
  0
MLEADERSTYLE
  5
67
102
{ACAD_REACTORS
330
66
102
}
330
66
100
AcDbMLeaderStyle
179
     2
170
     2
171
     1
172
     0
 90
        2
 40
0.0
 41
0.0
173
     1
 91
-1056964608
340
5B
 92
       -2
290
     1
 42
0.09
291
     1
 43
0.36
  3
Standard
 44
0.18
300

342
55
174
     1
178
     6
175
     1
176
     0
 93
-1056964608
 45
0.18
292
     0
297
     0
 46
0.18
 94
-1056964608
 47
1.0
 49
1.0
140
1.0
293
     1
141
0.0
294
     1
177
     0
142
1.0
295
     1
296
     0
143
0.125
271
     0
272
     9
273
     9
298
     1
  0
MLINESTYLE
  5
60
102
{ACAD_REACTORS
330
5F
102
}
330
5F
100
AcDbMlineStyle
  2
STANDARD
 70
     0
  3

 62
   256
 51
90.0
 52
90.0
 71
     2
 49
0.5
 62
   256
  6
BYLAYER
 49
-0.5
 62
   256
  6
BYLAYER
  0
ACDBPLACEHOLDER
  5
F
102
{ACAD_REACTORS
330
E
102
}
330
E
  0
SCALE
  5
43
102
{ACAD_REACTORS
330
42
102
}
330
42
100
AcDbScale
 70
     0
300
1:1
140
1.0
141
1.0
290
     1
  0
SCALE
  5
44
102
{ACAD_REACTORS
330
42
102
}
330
42
100
AcDbScale
 70
     0
300
1/128" = 1'-0"
140
0.0078125
141
12.0
290
     0
  0
SCALE
  5
45
102
{ACAD_REACTORS
330
42
102
}
330
42
100
AcDbScale
 70
     0
300
1/64" = 1'-0"
140
0.015625
141
12.0
290
     0
  0
SCALE
  5
46
102
{ACAD_REACTORS
330
42
102
}
330
42
100
AcDbScale
 70
     0
300
1/32" = 1'-0"
140
0.03125
141
12.0
290
     0
  0
SCALE
  5
47
102
{ACAD_REACTORS
330
42
102
}
330
42
100
AcDbScale
 70
     0
300
1/16" = 1'-0"
140
0.0625
141
12.0
290
     0
  0
SCALE
  5
48
102
{ACAD_REACTORS
330
42
102
}
330
42
100
AcDbScale
 70
     0
300
3/32" = 1'-0"
140
0.09375
141
12.0
290
     0
  0
SCALE
  5
49
102
{ACAD_REACTORS
330
42
102
}
330
42
100
AcDbScale
 70
     0
300
1/8" = 1'-0"
140
0.125
141
12.0
290
     0
  0
SCALE
  5
4A
102
{ACAD_REACTORS
330
42
102
}
330
42
100
AcDbScale
 70
     0
300
3/16" = 1'-0"
140
0.1875
141
12.0
290
     0
  0
SCALE
  5
4B
102
{ACAD_REACTORS
330
42
102
}
330
42
100
AcDbScale
 70
     0
300
1/4" = 1'-0"
140
0.25
141
12.0
290
     0
  0
SCALE
  5
4C
102
{ACAD_REACTORS
330
42
102
}
330
42
100
AcDbScale
 70
     0
300
3/8" = 1'-0"
140
0.375
141
12.0
290
     0
  0
SCALE
  5
4D
102
{ACAD_REACTORS
330
42
102
}
330
42
100
AcDbScale
 70
     0
300
1/2" = 1'-0"
140
0.5
141
12.0
290
     0
  0
SCALE
  5
4E
102
{ACAD_REACTORS
330
42
102
}
330
42
100
AcDbScale
 70
     0
300
3/4" = 1'-0"
140
0.75
141
12.0
290
     0
  0
SCALE
  5
4F
102
{ACAD_REACTORS
330
42
102
}
330
42
100
AcDbScale
 70
     0
300
1" = 1'-0"
140
1.0
141
12.0
290
     0
  0
SCALE
  5
50
102
{ACAD_REACTORS
330
42
102
}
330
42
100
AcDbScale
 70
     0
300
1-1/2" = 1'-0"
140
1.5
141
12.0
290
     0
  0
SCALE
  5
51
102
{ACAD_REACTORS
330
42
102
}
330
42
100
AcDbScale
 70
     0
300
3" = 1'-0"
140
3.0
141
12.0
290
     0
  0
SCALE
  5
52
102
{ACAD_REACTORS
330
42
102
}
330
42
100
AcDbScale
 70
     0
300
6" = 1'-0"
140
6.0
141
12.0
290
     0
  0
SCALE
  5
53
102
{ACAD_REACTORS
330
42
102
}
330
42
100
AcDbScale
 70
     0
300
1'-0" = 1'-0"
140
12.0
141
12.0
290
     0
  0
ACDBSECTIONVIEWSTYLE
  5
69
102
{ACAD_REACTORS
330
68
102
}
330
68
100
AcDbModelDocViewStyle
 70
     0
  3
Imperial24
290
     1
300
Imperial24
 90
        0
100
AcDbSectionViewStyle
 70
     0
 71
     0
 90
       78
 71
     1
340
55
 62
   256
 40
0.24
340
0
340
0
 62
   256
 40
0.24
300
I, O, Q, S, X, Z
 40
0.48
 90
        3
 40
0.18
 90
        1
 71
     2
340
5D
 90
       25
 62
   256
340
5D
 90
       50
 62
   256
 40
0.24
 40
0.0
 40
0.24
 71
     3
340
55
 62
   256
 40
0.24
 90
        1
 40
0.75
 90
        1
300
%<\AcVar ViewType \f "%tc1">% %<\AcVar ViewSectionStartId>%-%<\AcVar ViewSectionEndId>%\PSCALE %<\AcVar ViewScale \f "%sn">%
 71
     4
 62
   256
 62
   257
300
ANSI31
 40
1.0
 90
        0
290
     0
290
     0
 90
        6
 40
0.0
 40
1.570796326794896
 40
0.2617993877991494
 40
1.308996938995747
 40
-0.2617993877991494
 40
1.832595714594046
  0
TABLESTYLE
  5
65
102
{ACAD_XDICTIONARY
360
111
102
}
102
{ACAD_REACTORS
330
64
102
}
330
64
100
AcDbTableStyle
280
     0
  3
Standard
 70
     0
 71
     0
 40
0.06
 41
0.06
280
     0
281
     0
  7
Standard
140
0.18
170
     2
 62
     0
 63
     7
283
     0
 90
      512
 91
        0
  1

274
    -2
284
     1
 64
     0
275
    -2
285
     1
 65
     0
276
    -2
286
     1
 66
     0
277
    -2
287
     1
 67
     0
278
    -2
288
     1
 68
     0
279
    -2
289
     1
 69
     0
  7
Standard
140
0.25
170
     5
 62
     0
 63
     7
283
     0
 90
      512
 91
        0
  1

274
    -2
284
     1
 64
     0
275
    -2
285
     1
 65
     0
276
    -2
286
     1
 66
     0
277
    -2
287
     1
 67
     0
278
    -2
288
     1
 68
     0
279
    -2
289
     1
 69
     0
  7
Standard
140
0.18
170
     5
 62
     0
 63
     7
283
     0
 90
      512
 91
        0
  1

274
    -2
284
     1
 64
     0
275
    -2
285
     1
 65
     0
276
    -2
286
     1
 66
     0
277
    -2
287
     1
 67
     0
278
    -2
288
     1
 68
     0
279
    -2
289
     1
 69
     0
  0
VISUALSTYLE
  5
2F
102
{ACAD_REACTORS
330
29
102
}
330
29
100
AcDbVisualStyle
  2
2dWireframe
 70
     4
177
     3
291
     0
 70
    58
 90
        0
176
     1
 90
        2
176
     1
 90
        0
176
     1
 90
        0
176
     1
 40
0.6
176
     1
 40
30.0
176
     1
 62
     7
420
 16777215
176
     1
 90
        1
176
     1
 90
        4
176
     1
 62
     7
176
     1
 62
   257
176
     1
 90
        1
176
     1
 90
        1
176
     1
 40
1.0
176
     1
 90
        0
176
     1
 62
   257
176
     1
 40
1.0
176
     1
 90
        1
176
     1
 90
        6
176
     1
 90
        2
176
     1
 62
     7
176
     1
 90
        5
176
     1
 90
        0
176
     1
 90
        0
176
     1
290
     0
176
     1
 90
        1
176
     1
 40
0.0
176
     1
 90
        0
176
     1
290
     1
176
     1
290
     1
176
     1
290
     0
176
     1
290
     0
176
     1
290
     0
176
     1
290
     0
176
     1
290
     0
176
     1
290
     0
176
     1
290
     0
176
     1
 90
       50
176
     1
 40
0.0
176
     1
 40
1.0
176
     1
 90
        0
176
     1
 62
    18
420
        0
176
     1
 90
       50
176
     1
 90
        3
176
     1
 62
     5
420
      255
176
     1
290
     0
176
     1
 90
       50
176
     1
 90
       50
176
     1
 90
       50
176
     1
290
     0
176
     1
 90
       50
176
     1
 62
   256
176
     0
 40
1.0
176
     0
 90
        2
176
     1
  1
strokes_ogs.tif
176
     1
290
     0
176
     1
 40
1.0
176
     1
 40
1.0
176
     1
  0
VISUALSTYLE
  5
2E
102
{ACAD_REACTORS
330
29
102
}
330
29
100
AcDbVisualStyle
  2
Basic
 70
     7
177
     3
291
     1
 70
    58
 90
        1
176
     1
 90
        0
176
     1
 90
        1
176
     1
 90
        0
176
     1
 40
0.6
176
     1
 40
30.0
176
     1
 62
     7
420
 16777215
176
     1
 90
        0
176
     1
 90
        4
176
     1
 62
     7
176
     1
 62
   257
176
     1
 90
        1
176
     1
 90
        1
176
     1
 40
1.0
176
     1
 90
        8
176
     1
 62
     7
176
     1
 40
1.0
176
     1
 90
        1
176
     1
 90
        6
176
     1
 90
        2
176
     1
 62
     7
176
     1
 90
        5
176
     1
 90
        0
176
     1
 90
        0
176
     1
290
     0
176
     1
 90
        1
176
     1
 40
0.0
176
     1
 90
        0
176
     1
290
     0
176
     1
290
     1
176
     1
290
     1
176
     1
290
     0
176
     1
290
     0
176
     1
290
     0
176
     1
290
     0
176
     1
290
     0
176
     1
290
     0
176
     1
 90
       50
176
     1
 40
0.0
176
     1
 40
1.0
176
     1
 90
        0
176
     1
 62
    18
420
        0
176
     1
 90
       50
176
     1
 90
        3
176
     1
 62
     5
420
      255
176
     1
290
     0
176
     1
 90
       50
176
     1
 90
       50
176
     1
 90
       50
176
     1
290
     0
176
     1
 90
       50
176
     1
 62
   256
176
     0
 40
1.0
176
     0
 90
        2
176
     1
  1
strokes_ogs.tif
176
     1
290
     0
176
     1
 40
1.0
176
     1
 40
1.0
176
     1
  0
VISUALSTYLE
  5
35
102
{ACAD_REACTORS
330
29
102
}
330
29
100
AcDbVisualStyle
  2
Brighten
 70
    12
177
     3
291
     1
 70
    58
 90
        2
176
     1
 90
        2
176
     1
 90
        0
176
     1
 90
        0
176
     1
 40
0.6
176
     1
 40
30.0
176
     1
 62
     7
420
 16777215
176
     1
 90
        1
176
     1
 90
        4
176
     1
 62
     7
176
     1
 62
   257
176
     1
 90
        1
176
     1
 90
        1
176
     1
 40
1.0
176
     1
 90
        8
176
     1
 62
     7
176
     1
 40
1.0
176
     1
 90
        1
176
     1
 90
        6
176
     1
 90
        2
176
     1
 62
     7
176
     1
 90
        5
176
     1
 90
        0
176
     1
 90
        0
176
     1
290
     0
176
     1
 90
        1
176
     1
 40
50.0
176
     1
 90
        0
176
     1
290
     0
176
     1
290
     1
176
     1
290
     1
176
     1
290
     0
176
     1
290
     0
176
     1
290
     0
176
     1
290
     0
176
     1
290
     0
176
     1
290
     0
176
     1
 90
       50
176
     1
 40
0.0
176
     1
 40
1.0
176
     1
 90
        0
176
     1
 62
    18
420
        0
176
     1
 90
       50
176
     1
 90
        3
176
     1
 62
     5
420
      255
176
     1
290
     0
176
     1
 90
       50
176
     1
 90
       50
176
     1
 90
       50
176
     1
290
     0
176
     1
 90
       50
176
     1
 62
   256
176
     0
 40
1.0
176
     0
 90
        2
176
     1
  1
strokes_ogs.tif
176
     1
290
     0
176
     1
 40
1.0
176
     1
 40
1.0
176
     1
  0
VISUALSTYLE
  5
39
102
{ACAD_REACTORS
330
29
102
}
330
29
100
AcDbVisualStyle
  2
ColorChange
 70
    16
177
     3
291
     1
 70
    58
 90
        2
176
     1
 90
        2
176
     1
 90
        3
176
     1
 90
        0
176
     1
 40
0.6
176
     1
 40
30.0
176
     1
 62
     8
420
  8421504
176
     1
 90
        1
176
     1
 90
        4
176
     1
 62
     7
176
     1
 62
   257
176
     1
 90
        1
176
     1
 90
        1
176
     1
 40
1.0
176
     1
 90
        8
176
     1
 62
     8
420
  8421504
176
     1
 40
1.0
176
     1
 90
        1
176
     1
 90
        6
176
     1
 90
        2
176
     1
 62
     7
176
     1
 90
        5
176
     1
 90
        0
176
     1
 90
        0
176
     1
290
     0
176
     1
 90
        1
176
     1
 40
0.0
176
     1
 90
        0
176
     1
290
     0
176
     1
290
     1
176
     1
290
     1
176
     1
290
     0
176
     1
290
     0
176
     1
290
     0
176
     1
290
     0
176
     1
290
     0
176
     1
290
     0
176
     1
 90
       50
176
     1
 40
0.0
176
     1
 40
1.0
176
     1
 90
        0
176
     1
 62
    18
420
        0
176
     1
 90
       50
176
     1
 90
        3
176
     1
 62
     5
420
      255
176
     1
290
     0
176
     1
 90
       50
176
     1
 90
       50
176
     1
 90
       50
176
     1
290
     0
176
     1
 90
       50
176
     1
 62
   256
176
     0
 40
1.0
176
     0
 90
        2
176
     1
  1
strokes_ogs.tif
176
     1
290
     0
176
     1
 40
1.0
176
     1
 40
1.0
176
     1
  0
VISUALSTYLE
  5
32
102
{ACAD_REACTORS
330
29
102
}
330
29
100
AcDbVisualStyle
  2
Conceptual
 70
     9
177
     3
291
     0
 70
    58
 90
        3
176
     1
 90
        2
176
     1
 90
        0
176
     1
 90
        0
176
     1
 40
0.6
176
     1
 40
30.0
176
     1
 62
     7
420
 16777215
176
     1
 90
        2
176
     1
 90
        2
176
     1
 62
     7
176
     1
 62
   257
176
     1
 90
        1
176
     1
 90
        1
176
     1
 40
179.0
176
     1
 90
        8
176
     1
 62
     7
176
     1
 40
1.0
176
     1
 90
        1
176
     1
 90
        6
176
     1
 90
        2
176
     1
 62
     7
176
     1
 90
        3
176
     1
 90
        0
176
     1
 90
        0
176
     1
290
     0
176
     1
 90
        1
176
     1
 40
0.0
176
     1
 90
        0
176
     1
290
     0
176
     1
290
     1
176
     1
290
     1
176
     1
290
     0
176
     1
290
     0
176
     1
290
     0
176
     1
290
     0
176
     1
290
     0
176
     1
290
     0
176
     1
 90
       50
176
     1
 40
0.0
176
     1
 40
1.0
176
     1
 90
        0
176
     1
 62
    18
420
        0
176
     1
 90
       50
176
     1
 90
        3
176
     1
 62
     5
420
      255
176
     1
290
     0
176
     1
 90
       50
176
     1
 90
       50
176
     1
 90
       50
176
     1
290
     0
176
     1
 90
       50
176
     1
 62
   256
176
     0
 40
1.0
176
     0
 90
        2
176
     1
  1
strokes_ogs.tif
176
     1
290
     0
176
     1
 40
1.0
176
     1
 40
1.0
176
     1
  0
VISUALSTYLE
  5
34
102
{ACAD_REACTORS
330
29
102
}
330
29
100
AcDbVisualStyle
  2
Dim
 70
    11
177
     3
291
     1
 70
    58
 90
        2
176
     1
 90
        2
176
     1
 90
        0
176
     1
 90
        0
176
     1
 40
0.6
176
     1
 40
30.0
176
     1
 62
     7
420
 16777215
176
     1
 90
        1
176
     1
 90
        4
176
     1
 62
     7
176
     1
 62
   257
176
     1
 90
        1
176
     1
 90
        1
176
     1
 40
1.0
176
     1
 90
        8
176
     1
 62
     7
176
     1
 40
1.0
176
     1
 90
        1
176
     1
 90
        6
176
     1
 90
        2
176
     1
 62
     7
176
     1
 90
        5
176
     1
 90
        0
176
     1
 90
        0
176
     1
290
     0
176
     1
 90
        1
176
     1
 40
-50.0
176
     1
 90
        0
176
     1
290
     0
176
     1
290
     1
176
     1
290
     1
176
     1
290
     0
176
     1
290
     0
176
     1
290
     0
176
     1
290
     0
176
     1
290
     0
176
     1
290
     0
176
     1
 90
       50
176
     1
 40
0.0
176
     1
 40
1.0
176
     1
 90
        0
176
     1
 62
    18
420
        0
176
     1
 90
       50
176
     1
 90
        3
176
     1
 62
     5
420
      255
176
     1
290
     0
176
     1
 90
       50
176
     1
 90
       50
176
     1
 90
       50
176
     1
290
     0
176
     1
 90
       50
176
     1
 62
   256
176
     0
 40
1.0
176
     0
 90
        2
176
     1
  1
strokes_ogs.tif
176
     1
290
     0
176
     1
 40
1.0
176
     1
 40
1.0
176
     1
  0
VISUALSTYLE
  5
41
102
{ACAD_REACTORS
330
29
102
}
330
29
100
AcDbVisualStyle
  2
EdgeColorOff
 70
    22
177
     3
291
     1
 70
    58
 90
        2
176
     0
 90
        2
176
     0
 90
        0
176
     0
 90
        0
176
     0
 40
0.6
176
     0
 40
30.0
176
     0
 62
     7
420
 16777215
176
     0
 90
        1
176
     0
 90
        4
176
     0
 62
     7
176
     0
 62
   257
176
     0
 90
        1
176
     0
 90
        1
176
     0
 40
1.0
176
     0
 90
        8
176
     2
 62
     7
176
     0
 40
1.0
176
     0
 90
        1
176
     0
 90
        6
176
     0
 90
        2
176
     0
 62
     7
176
     0
 90
        5
176
     0
 90
        0
176
     0
 90
        0
176
     0
290
     0
176
     0
 90
        1
176
     0
 40
0.0
176
     0
 90
        0
176
     0
290
     0
176
     0
290
     1
176
     0
290
     1
176
     0
290
     0
176
     0
290
     0
176
     0
290
     0
176
     0
290
     0
176
     0
290
     0
176
     0
290
     0
176
     0
 90
       50
176
     0
 40
0.0
176
     0
 40
1.0
176
     0
 90
        0
176
     0
 62
    18
420
        0
176
     0
 90
       50
176
     0
 90
        3
176
     0
 62
     5
420
      255
176
     0
290
     0
176
     0
 90
       50
176
     0
 90
       50
176
     0
 90
       50
176
     0
290
     0
176
     0
 90
       50
176
     0
 62
   256
176
     0
 40
1.0
176
     0
 90
        2
176
     0
  1
strokes_ogs.tif
176
     0
290
     0
176
     0
 40
1.0
176
     0
 40
1.0
176
     0
  0
VISUALSTYLE
  5
38
102
{ACAD_REACTORS
330
29
102
}
330
29
100
AcDbVisualStyle
  2
Facepattern
 70
    15
177
     3
291
     1
 70
    58
 90
        2
176
     1
 90
        2
176
     1
 90
        0
176
     1
 90
        0
176
     1
 40
0.6
176
     1
 40
30.0
176
     1
 62
     7
420
 16777215
176
     1
 90
        1
176
     1
 90
        4
176
     1
 62
     7
176
     1
 62
   257
176
     1
 90
        1
176
     1
 90
        1
176
     1
 40
1.0
176
     1
 90
        8
176
     1
 62
     7
176
     1
 40
1.0
176
     1
 90
        1
176
     1
 90
        6
176
     1
 90
        2
176
     1
 62
     7
176
     1
 90
        5
176
     1
 90
        0
176
     1
 90
        0
176
     1
290
     0
176
     1
 90
        1
176
     1
 40
0.0
176
     1
 90
        0
176
     1
290
     0
176
     1
290
     1
176
     1
290
     1
176
     1
290
     0
176
     1
290
     0
176
     1
290
     0
176
     1
290
     0
176
     1
290
     0
176
     1
290
     0
176
     1
 90
       50
176
     1
 40
0.0
176
     1
 40
1.0
176
     1
 90
        0
176
     1
 62
    18
420
        0
176
     1
 90
       50
176
     1
 90
        3
176
     1
 62
     5
420
      255
176
     1
290
     0
176
     1
 90
       50
176
     1
 90
       50
176
     1
 90
       50
176
     1
290
     0
176
     1
 90
       50
176
     1
 62
   256
176
     0
 40
1.0
176
     0
 90
        2
176
     1
  1
strokes_ogs.tif
176
     1
290
     0
176
     1
 40
1.0
176
     1
 40
1.0
176
     1
  0
VISUALSTYLE
  5
2A
102
{ACAD_REACTORS
330
29
102
}
330
29
100
AcDbVisualStyle
  2
Flat
 70
     0
177
     3
291
     1
 70
    58
 90
        2
176
     1
 90
        1
176
     1
 90
        1
176
     1
 90
        2
176
     1
 40
0.6
176
     1
 40
30.0
176
     1
 62
     7
420
 16777215
176
     1
 90
        0
176
     1
 90
        0
176
     1
 62
     7
176
     1
 62
   257
176
     1
 90
        1
176
     1
 90
        1
176
     1
 40
1.0
176
     1
 90
        8
176
     1
 62
     7
176
     1
 40
1.0
176
     1
 90
        1
176
     1
 90
        6
176
     1
 90
        2
176
     1
 62
     7
176
     1
 90
        5
176
     1
 90
        0
176
     1
 90
        0
176
     1
290
     0
176
     1
 90
       13
176
     1
 40
0.0
176
     1
 90
        0
176
     1
290
     0
176
     1
290
     1
176
     1
290
     1
176
     1
290
     0
176
     1
290
     0
176
     1
290
     0
176
     1
290
     0
176
     1
290
     0
176
     1
290
     0
176
     1
 90
       50
176
     1
 40
0.0
176
     1
 40
1.0
176
     1
 90
        0
176
     1
 62
    18
420
        0
176
     1
 90
       50
176
     1
 90
        3
176
     1
 62
     5
420
      255
176
     1
290
     0
176
     1
 90
       50
176
     1
 90
       50
176
     1
 90
       50
176
     1
290
     0
176
     1
 90
       50
176
     1
 62
   256
176
     0
 40
1.0
176
     0
 90
        2
176
     1
  1
strokes_ogs.tif
176
     1
290
     0
176
     1
 40
1.0
176
     1
 40
1.0
176
     1
  0
VISUALSTYLE
  5
2B
102
{ACAD_REACTORS
330
29
102
}
330
29
100
AcDbVisualStyle
  2
FlatWithEdges
 70
     1
177
     3
291
     1
 70
    58
 90
        2
176
     1
 90
        1
176
     1
 90
        1
176
     1
 90
        2
176
     1
 40
0.6
176
     1
 40
30.0
176
     1
 62
     7
420
 16777215
176
     1
 90
        1
176
     1
 90
        0
176
     1
 62
     7
176
     1
 62
   257
176
     1
 90
        1
176
     1
 90
        1
176
     1
 40
1.0
176
     1
 90
        0
176
     1
 62
   257
176
     1
 40
1.0
176
     1
 90
        1
176
     1
 90
        6
176
     1
 90
        2
176
     1
 62
     7
176
     1
 90
        5
176
     1
 90
        0
176
     1
 90
        0
176
     1
290
     0
176
     1
 90
       13
176
     1
 40
0.0
176
     1
 90
        0
176
     1
290
     0
176
     1
290
     1
176
     1
290
     1
176
     1
290
     0
176
     1
290
     0
176
     1
290
     0
176
     1
290
     0
176
     1
290
     0
176
     1
290
     0
176
     1
 90
       50
176
     1
 40
0.0
176
     1
 40
1.0
176
     1
 90
        0
176
     1
 62
    18
420
        0
176
     1
 90
       50
176
     1
 90
        3
176
     1
 62
     5
420
      255
176
     1
290
     0
176
     1
 90
       50
176
     1
 90
       50
176
     1
 90
       50
176
     1
290
     0
176
     1
 90
       50
176
     1
 62
   256
176
     0
 40
1.0
176
     0
 90
        2
176
     1
  1
strokes_ogs.tif
176
     1
290
     0
176
     1
 40
1.0
176
     1
 40
1.0
176
     1
  0
VISUALSTYLE
  5
2C
102
{ACAD_REACTORS
330
29
102
}
330
29
100
AcDbVisualStyle
  2
Gouraud
 70
     2
177
     3
291
     1
 70
    58
 90
        2
176
     1
 90
        2
176
     1
 90
        1
176
     1
 90
        2
176
     1
 40
0.6
176
     1
 40
30.0
176
     1
 62
     7
420
 16777215
176
     1
 90
        0
176
     1
 90
        0
176
     1
 62
     7
176
     1
 62
   257
176
     1
 90
        1
176
     1
 90
        1
176
     1
 40
1.0
176
     1
 90
        0
176
     1
 62
     7
176
     1
 40
1.0
176
     1
 90
        1
176
     1
 90
        6
176
     1
 90
        2
176
     1
 62
     7
176
     1
 90
        5
176
     1
 90
        0
176
     1
 90
        0
176
     1
290
     0
176
     1
 90
       13
176
     1
 40
0.0
176
     1
 90
        0
176
     1
290
     0
176
     1
290
     1
176
     1
290
     1
176
     1
290
     0
176
     1
290
     0
176
     1
290
     0
176
     1
290
     0
176
     1
290
     0
176
     1
290
     0
176
     1
 90
       50
176
     1
 40
0.0
176
     1
 40
1.0
176
     1
 90
        0
176
     1
 62
    18
420
        0
176
     1
 90
       50
176
     1
 90
        3
176
     1
 62
     5
420
      255
176
     1
290
     0
176
     1
 90
       50
176
     1
 90
       50
176
     1
 90
       50
176
     1
290
     0
176
     1
 90
       50
176
     1
 62
   256
176
     0
 40
1.0
176
     0
 90
        2
176
     1
  1
strokes_ogs.tif
176
     1
290
     0
176
     1
 40
1.0
176
     1
 40
1.0
176
     1
  0
VISUALSTYLE
  5
2D
102
{ACAD_REACTORS
330
29
102
}
330
29
100
AcDbVisualStyle
  2
GouraudWithEdges
 70
     3
177
     3
291
     1
 70
    58
 90
        2
176
     1
 90
        2
176
     1
 90
        1
176
     1
 90
        2
176
     1
 40
0.6
176
     1
 40
30.0
176
     1
 62
     7
420
 16777215
176
     1
 90
        1
176
     1
 90
        0
176
     1
 62
     7
176
     1
 62
   257
176
     1
 90
        1
176
     1
 90
        1
176
     1
 40
1.0
176
     1
 90
        0
176
     1
 62
   257
176
     1
 40
1.0
176
     1
 90
        1
176
     1
 90
        6
176
     1
 90
        2
176
     1
 62
     7
176
     1
 90
        5
176
     1
 90
        0
176
     1
 90
        0
176
     1
290
     0
176
     1
 90
       13
176
     1
 40
0.0
176
     1
 90
        0
176
     1
290
     0
176
     1
290
     1
176
     1
290
     1
176
     1
290
     0
176
     1
290
     0
176
     1
290
     0
176
     1
290
     0
176
     1
290
     0
176
     1
290
     0
176
     1
 90
       50
176
     1
 40
0.0
176
     1
 40
1.0
176
     1
 90
        0
176
     1
 62
    18
420
        0
176
     1
 90
       50
176
     1
 90
        3
176
     1
 62
     5
420
      255
176
     1
290
     0
176
     1
 90
       50
176
     1
 90
       50
176
     1
 90
       50
176
     1
290
     0
176
     1
 90
       50
176
     1
 62
   256
176
     0
 40
1.0
176
     0
 90
        2
176
     1
  1
strokes_ogs.tif
176
     1
290
     0
176
     1
 40
1.0
176
     1
 40
1.0
176
     1
  0
VISUALSTYLE
  5
31
102
{ACAD_REACTORS
330
29
102
}
330
29
100
AcDbVisualStyle
  2
Hidden
 70
     6
177
     3
291
     0
 70
    58
 90
        1
176
     1
 90
        2
176
     1
 90
        2
176
     1
 90
        0
176
     1
 40
0.6
176
     1
 40
30.0
176
     1
 62
     7
420
 16777215
176
     1
 90
        2
176
     1
 90
        2
176
     1
 62
     7
176
     1
 62
   257
176
     1
 90
        2
176
     1
 90
        1
176
     1
 40
40.0
176
     1
 90
        0
176
     1
 62
   257
176
     1
 40
1.0
176
     1
 90
        1
176
     1
 90
        6
176
     1
 90
        2
176
     1
 62
     7
176
     1
 90
        3
176
     1
 90
        0
176
     1
 90
        0
176
     1
290
     0
176
     1
 90
        1
176
     1
 40
0.0
176
     1
 90
        0
176
     1
290
     0
176
     1
290
     1
176
     1
290
     1
176
     1
290
     0
176
     1
290
     0
176
     1
290
     0
176
     1
290
     0
176
     1
290
     0
176
     1
290
     0
176
     1
 90
       50
176
     1
 40
0.0
176
     1
 40
1.0
176
     1
 90
        0
176
     1
 62
    18
420
        0
176
     1
 90
       50
176
     1
 90
        3
176
     1
 62
     5
420
      255
176
     1
290
     0
176
     1
 90
       50
176
     1
 90
       50
176
     1
 90
       50
176
     1
290
     0
176
     1
 90
       50
176
     1
 62
   256
176
     0
 40
1.0
176
     0
 90
        2
176
     1
  1
strokes_ogs.tif
176
     1
290
     0
176
     1
 40
1.0
176
     1
 40
1.0
176
     1
  0
VISUALSTYLE
  5
3F
102
{ACAD_REACTORS
330
29
102
}
330
29
100
AcDbVisualStyle
  2
JitterOff
 70
    20
177
     3
291
     1
 70
    58
 90
        2
176
     0
 90
        2
176
     0
 90
        0
176
     0
 90
        0
176
     0
 40
0.6
176
     0
 40
30.0
176
     0
 62
     7
420
 16777215
176
     0
 90
        1
176
     0
 90
        4
176
     0
 62
     7
176
     0
 62
   257
176
     0
 90
        1
176
     0
 90
        1
176
     0
 40
1.0
176
     0
 90
       10
176
     2
 62
     7
176
     0
 40
1.0
176
     0
 90
        1
176
     0
 90
        6
176
     0
 90
        2
176
     0
 62
     7
176
     0
 90
        5
176
     0
 90
        0
176
     0
 90
        0
176
     0
290
     0
176
     0
 90
        1
176
     0
 40
0.0
176
     0
 90
        0
176
     0
290
     0
176
     0
290
     1
176
     0
290
     1
176
     0
290
     0
176
     0
290
     0
176
     0
290
     0
176
     0
290
     0
176
     0
290
     0
176
     0
290
     0
176
     0
 90
       50
176
     0
 40
0.0
176
     0
 40
1.0
176
     0
 90
        0
176
     0
 62
    18
420
        0
176
     0
 90
       50
176
     0
 90
        3
176
     0
 62
     5
420
      255
176
     0
290
     0
176
     0
 90
       50
176
     0
 90
       50
176
     0
 90
       50
176
     0
290
     0
176
     0
 90
       50
176
     0
 62
   256
176
     0
 40
1.0
176
     0
 90
        2
176
     0
  1
strokes_ogs.tif
176
     0
290
     0
176
     0
 40
1.0
176
     0
 40
1.0
176
     0
  0
VISUALSTYLE
  5
37
102
{ACAD_REACTORS
330
29
102
}
330
29
100
AcDbVisualStyle
  2
Linepattern
 70
    14
177
     3
291
     1
 70
    58
 90
        2
176
     1
 90
        2
176
     1
 90
        0
176
     1
 90
        0
176
     1
 40
0.6
176
     1
 40
30.0
176
     1
 62
     7
420
 16777215
176
     1
 90
        1
176
     1
 90
        4
176
     1
 62
     7
176
     1
 62
   257
176
     1
 90
        7
176
     1
 90
        7
176
     1
 40
1.0
176
     1
 90
        8
176
     1
 62
     7
176
     1
 40
1.0
176
     1
 90
        1
176
     1
 90
        6
176
     1
 90
        2
176
     1
 62
     7
176
     1
 90
        5
176
     1
 90
        0
176
     1
 90
        0
176
     1
290
     0
176
     1
 90
        1
176
     1
 40
0.0
176
     1
 90
        0
176
     1
290
     0
176
     1
290
     1
176
     1
290
     1
176
     1
290
     0
176
     1
290
     0
176
     1
290
     0
176
     1
290
     0
176
     1
290
     0
176
     1
290
     0
176
     1
 90
       50
176
     1
 40
0.0
176
     1
 40
1.0
176
     1
 90
        0
176
     1
 62
    18
420
        0
176
     1
 90
       50
176
     1
 90
        3
176
     1
 62
     5
420
      255
176
     1
290
     0
176
     1
 90
       50
176
     1
 90
       50
176
     1
 90
       50
176
     1
290
     0
176
     1
 90
       50
176
     1
 62
   256
176
     0
 40
1.0
176
     0
 90
        2
176
     1
  1
strokes_ogs.tif
176
     1
290
     0
176
     1
 40
1.0
176
     1
 40
1.0
176
     1
  0
VISUALSTYLE
  5
40
102
{ACAD_REACTORS
330
29
102
}
330
29
100
AcDbVisualStyle
  2
OverhangOff
 70
    21
177
     3
291
     1
 70
    58
 90
        2
176
     0
 90
        2
176
     0
 90
        0
176
     0
 90
        0
176
     0
 40
0.6
176
     0
 40
30.0
176
     0
 62
     7
420
 16777215
176
     0
 90
        1
176
     0
 90
        4
176
     0
 62
     7
176
     0
 62
   257
176
     0
 90
        1
176
     0
 90
        1
176
     0
 40
1.0
176
     0
 90
        9
176
     2
 62
     7
176
     0
 40
1.0
176
     0
 90
        1
176
     0
 90
        6
176
     0
 90
        2
176
     0
 62
     7
176
     0
 90
        5
176
     0
 90
        0
176
     0
 90
        0
176
     0
290
     0
176
     0
 90
        1
176
     0
 40
0.0
176
     0
 90
        0
176
     0
290
     0
176
     0
290
     1
176
     0
290
     1
176
     0
290
     0
176
     0
290
     0
176
     0
290
     0
176
     0
290
     0
176
     0
290
     0
176
     0
290
     0
176
     0
 90
       50
176
     0
 40
0.0
176
     0
 40
1.0
176
     0
 90
        0
176
     0
 62
    18
420
        0
176
     0
 90
       50
176
     0
 90
        3
176
     0
 62
     5
420
      255
176
     0
290
     0
176
     0
 90
       50
176
     0
 90
       50
176
     0
 90
       50
176
     0
290
     0
176
     0
 90
       50
176
     0
 62
   256
176
     0
 40
1.0
176
     0
 90
        2
176
     0
  1
strokes_ogs.tif
176
     0
290
     0
176
     0
 40
1.0
176
     0
 40
1.0
176
     0
  0
VISUALSTYLE
  5
33
102
{ACAD_REACTORS
330
29
102
}
330
29
100
AcDbVisualStyle
  2
Realistic
 70
     8
177
     3
291
     0
 70
    58
 90
        2
176
     1
 90
        3
176
     1
 90
        0
176
     1
 90
        2
176
     1
 40
0.6
176
     1
 40
30.0
176
     1
 62
     7
420
 16777215
176
     1
 90
        0
176
     1
 90
        0
176
     1
 62
     7
176
     1
 62
   257
176
     1
 90
        1
176
     1
 90
        1
176
     1
 40
1.0
176
     1
 90
        8
176
     1
 62
   257
176
     1
 40
1.0
176
     1
 90
        1
176
     1
 90
        6
176
     1
 90
        2
176
     1
 62
     7
176
     1
 90
        3
176
     1
 90
        0
176
     1
 90
        0
176
     1
290
     0
176
     1
 90
       13
176
     1
 40
0.0
176
     1
 90
        0
176
     1
290
     0
176
     1
290
     1
176
     1
290
     1
176
     1
290
     0
176
     1
290
     0
176
     1
290
     0
176
     1
290
     0
176
     1
290
     0
176
     1
290
     0
176
     1
 90
       50
176
     1
 40
0.0
176
     1
 40
1.0
176
     1
 90
        0
176
     1
 62
    18
420
        0
176
     1
 90
       50
176
     1
 90
        3
176
     1
 62
     5
420
      255
176
     1
290
     0
176
     1
 90
       50
176
     1
 90
       50
176
     1
 90
       50
176
     1
290
     0
176
     1
 90
       50
176
     1
 62
   256
176
     0
 40
1.0
176
     0
 90
        2
176
     1
  1
strokes_ogs.tif
176
     1
290
     0
176
     1
 40
1.0
176
     1
 40
1.0
176
     1
  0
VISUALSTYLE
  5
3E
102
{ACAD_REACTORS
330
29
102
}
330
29
100
AcDbVisualStyle
  2
Shaded
 70
    27
177
     3
291
     0
 70
    58
 90
        2
176
     1
 90
        2
176
     1
 90
        1
176
     1
 90
        2
176
     1
 40
0.6
176
     1
 40
30.0
176
     1
 62
     7
420
 16777215
176
     1
 90
        0
176
     1
 90
        4
176
     1
 62
     7
176
     1
 62
   257
176
     1
 90
        1
176
     1
 90
        1
176
     1
 40
1.0
176
     1
 90
        8
176
     1
 62
   257
176
     1
 40
1.0
176
     1
 90
        1
176
     1
 90
        6
176
     1
 90
        2
176
     1
 62
     8
420
  7895160
176
     1
 90
        3
176
     1
 90
        0
176
     1
 90
        0
176
     1
290
     0
176
     1
 90
        5
176
     1
 40
0.0
176
     1
 90
        0
176
     1
290
     0
176
     1
290
     1
176
     1
290
     1
176
     1
290
     0
176
     1
290
     0
176
     1
290
     0
176
     1
290
     0
176
     1
290
     0
176
     1
290
     0
176
     1
 90
       50
176
     1
 40
0.0
176
     1
 40
1.0
176
     1
 90
        0
176
     1
 62
    18
420
        0
176
     1
 90
       50
176
     1
 90
        3
176
     1
 62
     5
420
      255
176
     1
290
     0
176
     1
 90
       50
176
     1
 90
       50
176
     1
 90
       50
176
     1
290
     0
176
     1
 90
       50
176
     1
 62
   256
176
     0
 40
1.0
176
     0
 90
        2
176
     1
  1
strokes_ogs.tif
176
     1
290
     0
176
     1
 40
1.0
176
     1
 40
1.0
176
     1
  0
VISUALSTYLE
  5
3D
102
{ACAD_REACTORS
330
29
102
}
330
29
100
AcDbVisualStyle
  2
Shaded with edges
 70
    26
177
     3
291
     0
 70
    58
 90
        2
176
     1
 90
        2
176
     1
 90
        1
176
     1
 90
        2
176
     1
 40
0.6
176
     1
 40
30.0
176
     1
 62
     7
420
 16777215
176
     1
 90
        1
176
     1
 90
        2
176
     1
 62
     7
176
     1
 62
   257
176
     1
 90
        2
176
     1
 90
        1
176
     1
 40
1.0
176
     1
 90
        8
176
     1
 62
   257
176
     1
 40
1.0
176
     1
 90
        1
176
     1
 90
        6
176
     1
 90
        2
176
     1
 62
     7
176
     1
 90
        3
176
     1
 90
        0
176
     1
 90
        0
176
     1
290
     0
176
     1
 90
        5
176
     1
 40
0.0
176
     1
 90
        0
176
     1
290
     0
176
     1
290
     1
176
     1
290
     1
176
     1
290
     0
176
     1
290
     0
176
     1
290
     0
176
     1
290
     0
176
     1
290
     0
176
     1
290
     0
176
     1
 90
       50
176
     1
 40
0.0
176
     1
 40
1.0
176
     1
 90
        0
176
     1
 62
    18
420
        0
176
     1
 90
       50
176
     1
 90
        3
176
     1
 62
     5
420
      255
176
     1
290
     0
176
     1
 90
       50
176
     1
 90
       50
176
     1
 90
       50
176
     1
290
     0
176
     1
 90
       50
176
     1
 62
   256
176
     0
 40
1.0
176
     0
 90
        2
176
     1
  1
strokes_ogs.tif
176
     1
290
     0
176
     1
 40
1.0
176
     1
 40
1.0
176
     1
  0
VISUALSTYLE
  5
3A
102
{ACAD_REACTORS
330
29
102
}
330
29
100
AcDbVisualStyle
  2
Shades of Gray
 70
    23
177
     3
291
     0
 70
    58
 90
        2
176
     1
 90
        2
176
     1
 90
        3
176
     1
 90
        0
176
     1
 40
0.6
176
     1
 40
30.0
176
     1
 62
     7
420
 16777215
176
     1
 90
        2
176
     1
 90
        2
176
     1
 62
     7
176
     1
 62
     7
176
     1
 90
        1
176
     1
 90
        1
176
     1
 40
40.0
176
     1
 90
        8
176
     1
 62
     7
176
     1
 40
1.0
176
     1
 90
        1
176
     1
 90
        6
176
     1
 90
        2
176
     1
 62
     7
176
     1
 90
        3
176
     1
 90
        0
176
     1
 90
        0
176
     1
290
     0
176
     1
 90
        1
176
     1
 40
0.0
176
     1
 90
        0
176
     1
290
     0
176
     1
290
     1
176
     1
290
     1
176
     1
290
     0
176
     1
290
     0
176
     1
290
     0
176
     1
290
     0
176
     1
290
     0
176
     1
290
     0
176
     1
 90
       50
176
     1
 40
0.0
176
     1
 40
1.0
176
     1
 90
        0
176
     1
 62
    18
420
        0
176
     1
 90
       50
176
     1
 90
        3
176
     1
 62
     5
420
      255
176
     1
290
     0
176
     1
 90
       50
176
     1
 90
       50
176
     1
 90
       50
176
     1
290
     0
176
     1
 90
       50
176
     1
 62
   256
176
     0
 40
1.0
176
     0
 90
        2
176
     1
  1
strokes_ogs.tif
176
     1
290
     0
176
     1
 40
1.0
176
     1
 40
1.0
176
     1
  0
VISUALSTYLE
  5
3B
102
{ACAD_REACTORS
330
29
102
}
330
29
100
AcDbVisualStyle
  2
Sketchy
 70
    24
177
     3
291
     0
 70
    58
 90
        1
176
     1
 90
        2
176
     1
 90
        2
176
     1
 90
        0
176
     1
 40
0.6
176
     1
 40
30.0
176
     1
 62
     7
420
 16777215
176
     1
 90
        2
176
     1
 90
        2
176
     1
 62
     7
176
     1
 62
     7
176
     1
 90
        1
176
     1
 90
        1
176
     1
 40
40.0
176
     1
 90
       11
176
     1
 62
     7
176
     1
 40
1.0
176
     1
 90
        1
176
     1
 90
        6
176
     1
 90
        2
176
     1
 62
     7
176
     1
 90
        6
176
     1
 90
        0
176
     1
 90
        0
176
     1
290
     0
176
     1
 90
        1
176
     1
 40
0.0
176
     1
 90
        0
176
     1
290
     0
176
     1
290
     1
176
     1
290
     1
176
     1
290
     0
176
     1
290
     0
176
     1
290
     0
176
     1
290
     0
176
     1
290
     0
176
     1
290
     0
176
     1
 90
       50
176
     1
 40
0.0
176
     1
 40
1.0
176
     1
 90
        0
176
     1
 62
    18
420
        0
176
     1
 90
       50
176
     1
 90
        3
176
     1
 62
     5
420
      255
176
     1
290
     0
176
     1
 90
       50
176
     1
 90
       50
176
     1
 90
       50
176
     1
290
     0
176
     1
 90
       50
176
     1
 62
   256
176
     0
 40
1.0
176
     0
 90
        2
176
     1
  1
strokes_ogs.tif
176
     1
290
     0
176
     1
 40
1.0
176
     1
 40
1.0
176
     1
  0
VISUALSTYLE
  5
36
102
{ACAD_REACTORS
330
29
102
}
330
29
100
AcDbVisualStyle
  2
Thicken
 70
    13
177
     3
291
     1
 70
    58
 90
        2
176
     1
 90
        2
176
     1
 90
        0
176
     1
 90
        0
176
     1
 40
0.6
176
     1
 40
30.0
176
     1
 62
     7
420
 16777215
176
     1
 90
        1
176
     1
 90
        4
176
     1
 62
     7
176
     1
 62
   257
176
     1
 90
        1
176
     1
 90
        1
176
     1
 40
1.0
176
     1
 90
       12
176
     1
 62
     7
176
     1
 40
1.0
176
     1
 90
        1
176
     1
 90
        6
176
     1
 90
        2
176
     1
 62
     7
176
     1
 90
        5
176
     1
 90
        0
176
     1
 90
        0
176
     1
290
     0
176
     1
 90
        1
176
     1
 40
0.0
176
     1
 90
        0
176
     1
290
     0
176
     1
290
     1
176
     1
290
     1
176
     1
290
     0
176
     1
290
     0
176
     1
290
     0
176
     1
290
     0
176
     1
290
     0
176
     1
290
     0
176
     1
 90
       50
176
     1
 40
0.0
176
     1
 40
1.0
176
     1
 90
        0
176
     1
 62
    18
420
        0
176
     1
 90
       50
176
     1
 90
        3
176
     1
 62
     5
420
      255
176
     1
290
     0
176
     1
 90
       50
176
     1
 90
       50
176
     1
 90
       50
176
     1
290
     0
176
     1
 90
       50
176
     1
 62
   256
176
     0
 40
1.0
176
     0
 90
        2
176
     1
  1
strokes_ogs.tif
176
     1
290
     0
176
     1
 40
1.0
176
     1
 40
1.0
176
     1
  0
VISUALSTYLE
  5
30
102
{ACAD_REACTORS
330
29
102
}
330
29
100
AcDbVisualStyle
  2
Wireframe
 70
     5
177
     3
291
     0
 70
    58
 90
        0
176
     1
 90
        2
176
     1
 90
        0
176
     1
 90
        0
176
     1
 40
0.6
176
     1
 40
30.0
176
     1
 62
     7
420
 16777215
176
     1
 90
        1
176
     1
 90
        4
176
     1
 62
     7
176
     1
 62
   257
176
     1
 90
        1
176
     1
 90
        1
176
     1
 40
1.0
176
     1
 90
        0
176
     1
 62
   257
176
     1
 40
1.0
176
     1
 90
        1
176
     1
 90
        6
176
     1
 90
        2
176
     1
 62
     7
176
     1
 90
        3
176
     1
 90
        0
176
     1
 90
        0
176
     1
290
     0
176
     1
 90
        1
176
     1
 40
0.0
176
     1
 90
        0
176
     1
290
     0
176
     1
290
     1
176
     1
290
     1
176
     1
290
     0
176
     1
290
     0
176
     1
290
     0
176
     1
290
     0
176
     1
290
     0
176
     1
290
     0
176
     1
 90
       50
176
     1
 40
0.0
176
     1
 40
1.0
176
     1
 90
        0
176
     1
 62
    18
420
        0
176
     1
 90
       50
176
     1
 90
        3
176
     1
 62
     5
420
      255
176
     1
290
     0
176
     1
 90
       50
176
     1
 90
       50
176
     1
 90
       50
176
     1
290
     0
176
     1
 90
       50
176
     1
 62
   256
176
     0
 40
1.0
176
     0
 90
        2
176
     1
  1
strokes_ogs.tif
176
     1
290
     0
176
     1
 40
1.0
176
     1
 40
1.0
176
     1
  0
VISUALSTYLE
  5
3C
102
{ACAD_REACTORS
330
29
102
}
330
29
100
AcDbVisualStyle
  2
X-Ray
 70
    25
177
     3
291
     0
 70
    58
 90
        2
176
     1
 90
        2
176
     1
 90
        1
176
     1
 90
        1
176
     1
 40
0.5
176
     1
 40
30.0
176
     1
 62
     7
420
 16777215
176
     1
 90
        1
176
     1
 90
        0
176
     1
 62
     7
176
     1
 62
   257
176
     1
 90
        1
176
     1
 90
        1
176
     1
 40
1.0
176
     1
 90
        8
176
     1
 62
     7
176
     1
 40
1.0
176
     1
 90
        1
176
     1
 90
        6
176
     1
 90
        2
176
     1
 62
     7
176
     1
 90
        3
176
     1
 90
        0
176
     1
 90
        0
176
     1
290
     0
176
     1
 90
       13
176
     1
 40
0.0
176
     1
 90
        0
176
     1
290
     0
176
     1
290
     1
176
     1
290
     1
176
     1
290
     0
176
     1
290
     0
176
     1
290
     0
176
     1
290
     0
176
     1
290
     0
176
     1
290
     0
176
     1
 90
       50
176
     1
 40
0.0
176
     1
 40
1.0
176
     1
 90
        0
176
     1
 62
    18
420
        0
176
     1
 90
       50
176
     1
 90
        3
176
     1
 62
     5
420
      255
176
     1
290
     0
176
     1
 90
       50
176
     1
 90
       50
176
     1
 90
       50
176
     1
290
     0
176
     1
 90
       50
176
     1
 62
   256
176
     0
 40
1.0
176
     0
 90
        2
176
     1
  1
strokes_ogs.tif
176
     1
290
     0
176
     1
 40
1.0
176
     1
 40
1.0
176
     1
  0
DICTIONARYVAR
  5
110
102
{ACAD_REACTORS
330
10B
102
}
330
10B
100
DictionaryVariables
280
     0
  1
1:1
  0
DICTIONARYVAR
  5
10D
102
{ACAD_REACTORS
330
10B
102
}
330
10B
100
DictionaryVariables
280
     0
  1
STANDARD
  0
DICTIONARYVAR
  5
10C
102
{ACAD_REACTORS
330
10B
102
}
330
10B
100
DictionaryVariables
280
     0
  1
STANDARD
  0
DICTIONARYVAR
  5
10E
102
{ACAD_REACTORS
330
10B
102
}
330
10B
100
DictionaryVariables
280
     0
  1
Imperial24
  0
DICTIONARYVAR
  5
10F
102
{ACAD_REACTORS
330
10B
102
}
330
10B
100
DictionaryVariables
280
     0
  1
Imperial24
  0
DICTIONARY
  5
1A
330
19
100
AcDbDictionary
280
     1
281
     1
  3
BUMPTILE
360
1C
  3
DIFFUSETILE
360
1B
  3
OPACITYTILE
360
1F
  3
REFLECTIONTILE
360
1E
  3
REFRACTIONTILE
360
20
  3
SPECULARTILE
360
1D
  0
DICTIONARY
  5
12
330
11
100
AcDbDictionary
280
     1
281
     1
  3
BUMPTILE
360
14
  3
DIFFUSETILE
360
13
  3
OPACITYTILE
360
17
  3
REFLECTIONTILE
360
16
  3
REFRACTIONTILE
360
18
  3
SPECULARTILE
360
15
  0
DICTIONARY
  5
22
330
21
100
AcDbDictionary
280
     1
281
     1
  3
BUMPTILE
360
24
  3
DIFFUSETILE
360
23
  3
OPACITYTILE
360
27
  3
REFLECTIONTILE
360
26
  3
REFRACTIONTILE
360
28
  3
SPECULARTILE
360
25
  0
DICTIONARY
  5
111
330
65
100
AcDbDictionary
280
     1
281
     1
  3
ACAD_ROUNDTRIP_2008_TABLESTYLE_CELLSTYLEMAP
360
112
  0
XRECORD
  5
1C
102
{ACAD_REACTORS
330
1A
102
}
330
1A
100
AcDbXrecord
280
     1
270
     1
271
     1
  0
XRECORD
  5
1B
102
{ACAD_REACTORS
330
1A
102
}
330
1A
100
AcDbXrecord
280
     1
270
     1
271
     1
  0
XRECORD
  5
1F
102
{ACAD_REACTORS
330
1A
102
}
330
1A
100
AcDbXrecord
280
     1
270
     1
271
     1
  0
XRECORD
  5
1E
102
{ACAD_REACTORS
330
1A
102
}
330
1A
100
AcDbXrecord
280
     1
270
     1
271
     1
  0
XRECORD
  5
20
102
{ACAD_REACTORS
330
1A
102
}
330
1A
100
AcDbXrecord
280
     1
270
     1
271
     1
  0
XRECORD
  5
1D
102
{ACAD_REACTORS
330
1A
102
}
330
1A
100
AcDbXrecord
280
     1
270
     1
271
     1
  0
XRECORD
  5
14
102
{ACAD_REACTORS
330
12
102
}
330
12
100
AcDbXrecord
280
     1
270
     1
271
     1
  0
XRECORD
  5
13
102
{ACAD_REACTORS
330
12
102
}
330
12
100
AcDbXrecord
280
     1
270
     1
271
     1
  0
XRECORD
  5
17
102
{ACAD_REACTORS
330
12
102
}
330
12
100
AcDbXrecord
280
     1
270
     1
271
     1
  0
XRECORD
  5
16
102
{ACAD_REACTORS
330
12
102
}
330
12
100
AcDbXrecord
280
     1
270
     1
271
     1
  0
XRECORD
  5
18
102
{ACAD_REACTORS
330
12
102
}
330
12
100
AcDbXrecord
280
     1
270
     1
271
     1
  0
XRECORD
  5
15
102
{ACAD_REACTORS
330
12
102
}
330
12
100
AcDbXrecord
280
     1
270
     1
271
     1
  0
XRECORD
  5
24
102
{ACAD_REACTORS
330
22
102
}
330
22
100
AcDbXrecord
280
     1
270
     1
271
     1
  0
XRECORD
  5
23
102
{ACAD_REACTORS
330
22
102
}
330
22
100
AcDbXrecord
280
     1
270
     1
271
     1
  0
XRECORD
  5
27
102
{ACAD_REACTORS
330
22
102
}
330
22
100
AcDbXrecord
280
     1
270
     1
271
     1
  0
XRECORD
  5
26
102
{ACAD_REACTORS
330
22
102
}
330
22
100
AcDbXrecord
280
     1
270
     1
271
     1
  0
XRECORD
  5
28
102
{ACAD_REACTORS
330
22
102
}
330
22
100
AcDbXrecord
280
     1
270
     1
271
     1
  0
XRECORD
  5
25
102
{ACAD_REACTORS
330
22
102
}
330
22
100
AcDbXrecord
280
     1
270
     1
271
     1
  0
CELLSTYLEMAP
  5
112
102
{ACAD_REACTORS
330
111
102
}
330
111
100
AcDbCellStyleMap
 90
        3
300
CELLSTYLE
  1
TABLEFORMAT_BEGIN
 90
        5
170
     1
 91
        0
 92
    32768
 62
   257
 93
        1
300
CONTENTFORMAT
  1
CONTENTFORMAT_BEGIN
 90
        0
 91
        0
 92
      512
 93
        0
300

 40
0.0
140
1.0
 94
        5
 62
     0
340
55
144
0.25
309
CONTENTFORMAT_END
171
     0
 94
        0
309
TABLEFORMAT_END
  1
CELLSTYLE_BEGIN
 90
        1
 91
        1
300
_TITLE
309
CELLSTYLE_END
300
CELLSTYLE
  1
TABLEFORMAT_BEGIN
 90
        5
170
     1
 91
        0
 92
        0
 62
   257
 93
        1
300
CONTENTFORMAT
  1
CONTENTFORMAT_BEGIN
 90
        0
 91
        0
 92
      512
 93
        0
300

 40
0.0
140
1.0
 94
        5
 62
     0
340
55
144
0.18
309
CONTENTFORMAT_END
171
     0
 94
        0
309
TABLEFORMAT_END
  1
CELLSTYLE_BEGIN
 90
        2
 91
        1
300
_HEADER
309
CELLSTYLE_END
300
CELLSTYLE
  1
TABLEFORMAT_BEGIN
 90
        5
170
     1
 91
        0
 92
        0
 62
   257
 93
        1
300
CONTENTFORMAT
  1
CONTENTFORMAT_BEGIN
 90
        0
 91
        0
 92
      512
 93
        0
300

 40
0.0
140
1.0
 94
        2
 62
     0
340
55
144
0.18
309
CONTENTFORMAT_END
171
     0
 94
        0
309
TABLEFORMAT_END
  1
CELLSTYLE_BEGIN
 90
        3
 91
        2
300
_DATA
309
CELLSTYLE_END
  0
ENDSEC
  0
EOF
